0
SECTION
2
HEADER
9
$MEASUREMENT
70
1
0
ENDSEC
0
SECTION
2
TABLES
0
TABLE
2
LTYPE
0
LTYPE
72
65
70
64
2
CONTINUOUS
3
______
73
0
40
0
0
ENDTAB
0
TABLE
2
LAYER
0
LAYER
2
DEFAULT_255_2_778
70
0
62
255
6
CONTINUOUS
0
LAYER
2
DEFAULT_255_1_234
70
0
62
255
6
CONTINUOUS
0
ENDTAB
0
ENDSEC
0
SECTION
2
ENTITIES
0
ARC
8
DEFAULT_255_2_778
10
3.5695693
20
51.9926534
40
0.7914215
50
129.1312896
51
180.1450914
0
ARC
8
DEFAULT_255_2_778
10
3.5698345
20
51.9931405
40
0.7912112
50
89.854026
51
129.1684493
0
ARC
8
DEFAULT_255_2_778
10
25.7988937
20
51.992827
40
0.7915249
50
39.4792447
51
90.147911
0
ARC
8
DEFAULT_255_2_778
10
25.7994935
20
51.9926737
40
0.7911595
50
359.8533901
51
39.5154338
0
ARC
8
DEFAULT_255_2_778
10
25.7991693
20
-1.9863989
40
0.7914836
50
309.4761667
51
0.1482649
0
ARC
8
DEFAULT_255_2_778
10
25.798898
20
-1.98683
40
0.7913235
50
269.8517415
51
309.511178
0
ARC
8
DEFAULT_255_2_778
10
3.569842
20
-1.9867718
40
0.7913815
50
219.1282118
51
270.1454017
0
ARC
8
DEFAULT_255_2_778
10
3.5695247
20
-1.9863893
40
0.7913769
50
179.8524075
51
219.1641908
0
LINE
8
DEFAULT_255_2_778
10
3.5718503
20
52.7843492
11
25.7968503
21
52.7843492
0
LINE
8
DEFAULT_255_2_778
10
26.5906503
20
51.9906492
11
26.5906503
21
-1.9843508
0
LINE
8
DEFAULT_255_2_778
10
25.7968503
20
-2.7781508
11
3.5718503
21
-2.7781508
0
LINE
8
DEFAULT_255_2_778
10
2.7781503
20
-1.9843508
11
2.7781503
21
51.9906492
0
LINE
8
DEFAULT_255_1_234
10
6.6864835
20
0.5189243
11
6.7129882
21
0.5189243
0
LINE
8
DEFAULT_255_1_234
10
6.7129882
20
0.5189243
11
6.7129882
21
0.392826
0
LINE
8
DEFAULT_255_1_234
10
6.7129882
20
0.392826
11
6.6856803
21
0.392826
0
LINE
8
DEFAULT_255_1_234
10
6.1387189
20
-0.2063417
11
6.1387189
21
-0.1493164
0
LINE
8
DEFAULT_255_1_234
10
6.2881093
20
-0.1685925
11
6.2881093
21
-0.2232083
0
ARC
8
DEFAULT_255_1_234
10
6.6909151
20
-0.1069545
40
0.4998079
50
90.6001036
51
104.514704
0
ARC
8
DEFAULT_255_1_234
10
6.6520667
20
0.0375131
40
0.3502176
50
104.2855254
51
133.862935
0
ARC
8
DEFAULT_255_1_234
10
6.6684424
20
0.026683
40
0.3693984
50
134.5302688
51
161.6210873
0
ARC
8
DEFAULT_255_1_234
10
6.8337613
20
-0.0316105
40
0.5446739
50
161.2849839
51
174.2076652
0
ARC
8
DEFAULT_255_1_234
10
6.974455
20
-0.0510213
40
0.6866274
50
173.7810589
51
174.9254635
0
ARC
8
DEFAULT_255_1_234
10
6.5194382
20
-0.1893161
40
0.3033419
50
95.8330959
51
138.9954921
0
ARC
8
DEFAULT_255_1_234
10
6.5417738
20
-0.3171625
40
0.4328947
50
89.8753725
51
97.0544009
0
ARC
8
DEFAULT_255_1_234
10
6.5465204
20
-0.2336252
40
0.3493769
50
71.6407809
51
90.6240094
0
ARC
8
DEFAULT_255_1_234
10
6.5615777
20
-0.1781918
40
0.2920396
50
39.6367836
51
71.019018
0
ARC
8
DEFAULT_255_1_234
10
6.497925
20
-0.2332002
40
0.3761538
50
10.658731
51
39.9043955
0
ARC
8
DEFAULT_255_1_234
10
6.3431333
20
-0.2668314
40
0.5345136
50
359.682601
51
11.132623
0
ARC
8
DEFAULT_255_1_234
10
6.3391464
20
-0.273899
40
0.5385081
50
347.2486944
51
0.4369317
0
ARC
8
DEFAULT_255_1_234
10
6.5058941
20
-0.3140193
40
0.3670249
50
318.1409698
51
347.6118597
0
ARC
8
DEFAULT_255_1_234
10
6.5383934
20
-0.3407298
40
0.3250007
50
275.6342139
51
317.8248465
0
ARC
8
DEFAULT_255_1_234
10
6.5163045
20
-0.2107781
40
0.4565864
50
269.8874292
51
276.7917694
0
ARC
8
DEFAULT_255_1_234
10
6.5108116
20
-0.3133257
40
0.3540676
50
246.9140195
51
270.7437342
0
ARC
8
DEFAULT_255_1_234
10
6.5114506
20
-0.3275616
40
0.3412781
50
218.1665114
51
245.878116
0
ARC
8
DEFAULT_255_1_234
10
6.5993967
20
-0.2539721
40
0.455911
50
191.4115814
51
218.6077802
0
ARC
8
DEFAULT_255_1_234
10
6.7932056
20
-0.2105167
40
0.6545001
50
179.6345085
51
191.7836486
0
ARC
8
DEFAULT_255_1_234
10
7.3514393
20
-0.1426303
40
1.2127388
50
171.4525249
51
180.3158839
0
ARC
8
DEFAULT_255_1_234
10
6.9119269
20
-0.0742392
40
0.7679464
50
157.9802646
51
171.6246686
0
ARC
8
DEFAULT_255_1_234
10
6.690529
20
0.0140421
40
0.5296008
50
141.4298019
51
157.854097
0
ARC
8
DEFAULT_255_1_234
10
6.626361
20
0.0594381
40
0.4511509
50
102.8715806
51
140.8564722
0
ARC
8
DEFAULT_255_1_234
10
6.6911226
20
-0.1845448
40
0.7034845
50
90.3778349
51
103.5869322
0
ARC
8
DEFAULT_255_1_234
10
6.5173002
20
-0.245027
40
0.2370698
50
89.8751008
51
126.2071704
0
ARC
8
DEFAULT_255_1_234
10
6.5218792
20
-0.2604697
40
0.2522934
50
124.9745049
51
144.895901
0
ARC
8
DEFAULT_255_1_234
10
6.5042982
20
-0.246144
40
0.2296779
50
145.2974905
51
160.2660252
0
ARC
8
DEFAULT_255_1_234
10
6.8115521
20
-0.2263929
40
0.5234525
50
179.6514266
51
190.2855912
0
ARC
8
DEFAULT_255_1_234
10
6.6421658
20
-0.2583214
40
0.3510893
50
190.0945431
51
207.5098196
0
ARC
8
DEFAULT_255_1_234
10
6.5855928
20
-0.2852377
40
0.288489
50
207.9583163
51
216.3251085
0
ARC
8
DEFAULT_255_1_234
10
6.5516036
20
-0.3131895
40
0.2445587
50
215.7661442
51
232.5456785
0
ARC
8
DEFAULT_255_1_234
10
6.5133019
20
-0.3618518
40
0.1826382
50
232.8005391
51
270.6605633
0
ARC
8
DEFAULT_255_1_234
10
6.517872
20
-0.3254388
40
0.2190529
50
269.35537
51
288.4744281
0
ARC
8
DEFAULT_255_1_234
10
6.5271617
20
-0.3603882
40
0.1829749
50
289.1833337
51
322.9683818
0
ARC
8
DEFAULT_255_1_234
10
6.4660139
20
-0.3121609
40
0.2608399
50
322.6007884
51
346.5182367
0
ARC
8
DEFAULT_255_1_234
10
6.3502735
20
-0.2826384
40
0.3802777
50
346.2582162
51
358.7741648
0
ARC
8
DEFAULT_255_1_234
10
6.2484404
20
-0.2771035
40
0.4822176
50
358.3755224
51
0.0098023
0
ARC
8
DEFAULT_255_1_234
10
6.3240591
20
-0.2743343
40
0.4066078
50
359.6214041
51
11.2839074
0
ARC
8
DEFAULT_255_1_234
10
6.4517738
20
-0.2476934
40
0.2761514
50
11.0482309
51
31.8146458
0
ARC
8
DEFAULT_255_1_234
10
6.4826781
20
-0.2309416
40
0.2410679
50
32.3035391
51
38.082671
0
ARC
8
DEFAULT_255_1_234
10
6.5247441
20
-0.1928338
40
0.1844966
50
36.825067
51
85.7415724
0
ARC
8
DEFAULT_255_1_234
10
6.5180274
20
-0.2428699
40
0.2349122
50
85.0140713
51
90.0513278
0
LINE
8
DEFAULT_255_1_234
10
7.7530983
20
0.0153343
11
7.7530983
21
-0.110764
0
LINE
8
DEFAULT_255_1_234
10
7.7530983
20
-0.110764
11
7.2462957
21
-0.110764
0
LINE
8
DEFAULT_255_1_234
10
7.2462957
20
-0.110764
11
7.2462957
21
-0.5252017
0
LINE
8
DEFAULT_255_1_234
10
7.2462957
20
-0.5252017
11
7.8350221
21
-0.5252017
0
LINE
8
DEFAULT_255_1_234
10
7.8350221
20
-0.5252017
11
7.8350221
21
-0.6513
0
LINE
8
DEFAULT_255_1_234
10
7.8350221
20
-0.6513
11
7.0920863
21
-0.6513
0
LINE
8
DEFAULT_255_1_234
10
7.0920863
20
-0.6513
11
7.0920863
21
0.5181211
0
LINE
8
DEFAULT_255_1_234
10
7.0920863
20
0.5181211
11
7.8269903
21
0.5181211
0
LINE
8
DEFAULT_255_1_234
10
7.8269903
20
0.5181211
11
7.8269903
21
0.3912196
0
LINE
8
DEFAULT_255_1_234
10
7.8269903
20
0.3912196
11
7.2462957
21
0.3912196
0
LINE
8
DEFAULT_255_1_234
10
7.2462957
20
0.3912196
11
7.2462957
21
0.0153343
0
LINE
8
DEFAULT_255_1_234
10
7.2462957
20
0.0153343
11
7.7530983
21
0.0153343
0
LINE
8
DEFAULT_255_1_234
10
8.8028465
20
0.1799849
11
8.647834
21
0.1799849
0
LINE
8
DEFAULT_255_1_234
10
7.9554981
20
-0.3123606
11
8.1105107
21
-0.3123606
0
ARC
8
DEFAULT_255_1_234
10
8.7137153
20
1.0746768
40
1.252368
50
248.9199003
51
254.1439814
0
ARC
8
DEFAULT_255_1_234
10
8.5456648
20
0.6420234
40
0.788226
50
241.633709
51
249.0064503
0
ARC
8
DEFAULT_255_1_234
10
8.3928042
20
0.3619317
40
0.4691427
50
230.498225
51
241.8087113
0
ARC
8
DEFAULT_255_1_234
10
8.3143616
20
0.2619906
40
0.3421437
50
227.4064532
51
229.9881192
0
ARC
8
DEFAULT_255_1_234
10
8.2656137
20
0.2144088
40
0.2741476
50
200.6781896
51
228.1763934
0
ARC
8
DEFAULT_255_1_234
10
8.2728447
20
0.2129077
40
0.2804109
50
179.5061581
51
199.8694617
0
ARC
8
DEFAULT_255_1_234
10
8.2719199
20
0.220321
40
0.2795204
50
132.4834203
51
181.0242172
0
ARC
8
DEFAULT_255_1_234
10
8.3314782
20
0.1640704
40
0.3612768
50
129.2532479
51
133.4242687
0
ARC
8
DEFAULT_255_1_234
10
8.3461231
20
0.1420965
40
0.3875675
50
101.98776
51
128.8742646
0
ARC
8
DEFAULT_255_1_234
10
8.3859842
20
-0.0300259
40
0.5642249
50
89.5906553
51
102.3169264
0
ARC
8
DEFAULT_255_1_234
10
8.3930334
20
0.0018148
40
0.5323783
50
77.2360837
51
90.3248275
0
ARC
8
DEFAULT_255_1_234
10
8.4137413
20
0.09854
40
0.4334697
50
63.837784
51
77.0809408
0
ARC
8
DEFAULT_255_1_234
10
8.4415175
20
0.1502911
40
0.3747796
50
45.9864267
51
64.1607727
0
ARC
8
DEFAULT_255_1_234
10
8.4676056
20
0.1800866
40
0.3352302
50
32.2747395
51
45.6547121
0
ARC
8
DEFAULT_255_1_234
10
8.4742497
20
0.181988
40
0.328603
50
359.6507365
51
32.6130309
0
ARC
8
DEFAULT_255_1_234
10
8.3799592
20
0.182466
40
0.2678863
50
359.469343
51
14.9832209
0
ARC
8
DEFAULT_255_1_234
10
8.4504654
20
0.2013539
40
0.1948938
50
14.9781179
51
48.2004265
0
ARC
8
DEFAULT_255_1_234
10
8.4340299
20
0.1806983
40
0.2212521
50
48.5927837
51
74.1241538
0
ARC
8
DEFAULT_255_1_234
10
8.4006788
20
0.0706248
40
0.3362561
50
73.7888341
51
86.6652678
0
ARC
8
DEFAULT_255_1_234
10
8.3904354
20
-0.0501119
40
0.4573953
50
86.2640471
51
90.0526343
0
ARC
8
DEFAULT_255_1_234
10
8.3876066
20
-0.0105808
40
0.4178709
50
89.6697524
51
99.2309573
0
ARC
8
DEFAULT_255_1_234
10
8.3633517
20
0.1338964
40
0.2713749
50
99.069534
51
113.7658566
0
ARC
8
DEFAULT_255_1_234
10
8.3359708
20
0.1984677
40
0.2012469
50
114.0401004
51
127.9850673
0
ARC
8
DEFAULT_255_1_234
10
8.3119272
20
0.228073
40
0.1631167
50
127.7287463
51
176.7105154
0
ARC
8
DEFAULT_255_1_234
10
8.379799
20
0.2179693
40
0.2315392
50
175.1779447
51
180.0581938
0
ARC
8
DEFAULT_255_1_234
10
8.2954836
20
0.2167428
40
0.1472271
50
179.6142195
51
228.1246017
0
ARC
8
DEFAULT_255_1_234
10
8.3396505
20
0.2576308
40
0.2072299
50
226.5779593
51
230.8800004
0
ARC
8
DEFAULT_255_1_234
10
8.3867584
20
0.3201636
40
0.2854818
50
231.4635071
51
241.9260842
0
ARC
8
DEFAULT_255_1_234
10
8.5064762
20
0.54048
40
0.53622
50
241.7178533
51
248.3259551
0
ARC
8
DEFAULT_255_1_234
10
8.6450134
20
0.8837064
40
0.9063478
50
248.2007737
51
252.4528373
0
ARC
8
DEFAULT_255_1_234
10
8.7653858
20
1.2558441
40
1.2974635
50
252.3391078
51
254.3469452
0
ARC
8
DEFAULT_255_1_234
10
8.0111561
20
-1.4418852
40
1.5037162
50
71.0197183
51
74.4087047
0
ARC
8
DEFAULT_255_1_234
10
8.1806246
20
-0.9526889
40
0.9859993
50
66.1847285
51
71.086374
0
ARC
8
DEFAULT_255_1_234
10
8.3362559
20
-0.60228
40
0.6025855
50
59.3536294
51
66.2691831
0
ARC
8
DEFAULT_255_1_234
10
8.4251211
20
-0.4519391
40
0.4279449
50
49.1020879
51
59.3293958
0
ARC
8
DEFAULT_255_1_234
10
8.5069951
20
-0.3586166
40
0.3038015
50
32.7919921
51
49.2505539
0
ARC
8
DEFAULT_255_1_234
10
8.5391041
20
-0.3357809
40
0.264448
50
31.1181161
51
32.4005348
0
ARC
8
DEFAULT_255_1_234
10
8.5302579
20
-0.3393221
40
0.2738556
50
8.1116974
51
30.7958831
0
ARC
8
DEFAULT_255_1_234
10
8.4492247
20
-0.3531247
40
0.3560327
50
359.8389159
51
8.4706516
0
ARC
8
DEFAULT_255_1_234
10
8.5118038
20
-0.3579863
40
0.2934776
50
337.4731098
51
0.7537279
0
ARC
8
DEFAULT_255_1_234
10
8.5296733
20
-0.3599613
40
0.2762607
50
307.5917067
51
336.4315538
0
ARC
8
DEFAULT_255_1_234
10
8.4836561
20
-0.3086898
40
0.3449979
50
307.6551545
51
308.4529766
0
ARC
8
DEFAULT_255_1_234
10
8.460628
20
-0.273175
40
0.3871988
50
284.3734338
51
307.1424381
0
ARC
8
DEFAULT_255_1_234
10
8.411111
20
-0.0910068
40
0.5759636
50
272.4382747
51
284.646547
0
ARC
8
DEFAULT_255_1_234
10
8.3984319
20
0.0889893
40
0.7563528
50
269.9708387
51
272.8178037
0
ARC
8
DEFAULT_255_1_234
10
8.3941358
20
-0.1148284
40
0.5525489
50
248.2707594
51
270.4055579
0
ARC
8
DEFAULT_255_1_234
10
8.38871
20
-0.1338808
40
0.5328452
50
246.1383403
51
248.0542782
0
ARC
8
DEFAULT_255_1_234
10
8.3468478
20
-0.2218157
40
0.4355005
50
233.1670131
51
246.4950969
0
ARC
8
DEFAULT_255_1_234
10
8.2914383
20
-0.2966188
40
0.3424126
50
215.3403242
51
233.0843104
0
ARC
8
DEFAULT_255_1_234
10
8.2641815
20
-0.3164451
40
0.3087104
50
179.2419209
51
215.2648451
0
ARC
8
DEFAULT_255_1_234
10
8.3409409
20
-0.3150334
40
0.2304457
50
179.335461
51
199.1045811
0
ARC
8
DEFAULT_255_1_234
10
8.3077085
20
-0.3237234
40
0.1962176
50
199.8828939
51
232.7063202
0
ARC
8
DEFAULT_255_1_234
10
8.3549353
20
-0.2643212
40
0.2720938
50
232.3738199
51
255.5136649
0
ARC
8
DEFAULT_255_1_234
10
8.389022
20
-0.1399165
40
0.4010747
50
255.2446292
51
267.5320849
0
ARC
8
DEFAULT_255_1_234
10
8.3977843
20
-0.0166298
40
0.5246356
50
267.1557994
51
270.0286766
0
ARC
8
DEFAULT_255_1_234
10
8.4005616
20
-0.061005
40
0.4802668
50
269.7000017
51
278.1660162
0
ARC
8
DEFAULT_255_1_234
10
8.426162
20
-0.2340485
40
0.3053425
50
278.0231263
51
290.625471
0
ARC
8
DEFAULT_255_1_234
10
8.4609308
20
-0.3267975
40
0.206291
50
290.6619762
51
307.0370976
0
ARC
8
DEFAULT_255_1_234
10
8.4909697
20
-0.3636496
40
0.1587906
50
306.3943566
51
355.3030547
0
ARC
8
DEFAULT_255_1_234
10
8.4397628
20
-0.3559887
40
0.2104809
50
354.3660432
51
0.0698737
0
ARC
8
DEFAULT_255_1_234
10
8.4539973
20
-0.3537383
40
0.1962563
50
359.417946
51
16.1971788
0
ARC
8
DEFAULT_255_1_234
10
8.4995284
20
-0.3412582
40
0.149053
50
16.4723299
51
52.6262157
0
ARC
8
DEFAULT_255_1_234
10
8.4174338
20
-0.4496567
40
0.2850296
50
52.7386432
51
62.4979148
0
ARC
8
DEFAULT_255_1_234
10
8.2789415
20
-0.7102717
40
0.5801521
50
62.2515216
51
68.1220564
0
ARC
8
DEFAULT_255_1_234
10
8.1069325
20
-1.1330128
40
1.0365451
50
68.0062803
51
71.8053402
0
ARC
8
DEFAULT_255_1_234
10
7.9273697
20
-1.6715242
40
1.6042013
50
71.7183119
51
73.9258742
0
LINE
8
DEFAULT_255_1_234
10
9.7192679
20
0.5181211
11
9.7192679
21
0.434591
0
LINE
8
DEFAULT_255_1_234
10
9.7192679
20
0.434591
11
9.2349541
21
-0.6513
0
LINE
8
DEFAULT_255_1_234
10
9.2349541
20
-0.6513
11
9.0791383
21
-0.6513
0
LINE
8
DEFAULT_255_1_234
10
9.0791383
20
-0.6513
11
9.5618458
21
0.3960387
0
LINE
8
DEFAULT_255_1_234
10
9.5618458
20
0.3960387
11
8.9289448
21
0.3960387
0
LINE
8
DEFAULT_255_1_234
10
8.9289448
20
0.3960387
11
8.9289448
21
0.5181211
0
LINE
8
DEFAULT_255_1_234
10
8.9289448
20
0.5181211
11
9.7192679
21
0.5181211
0
LINE
8
DEFAULT_255_1_234
10
10.3762641
20
0.5237433
11
10.3762641
21
-0.6513
0
LINE
8
DEFAULT_255_1_234
10
10.3762641
20
-0.6513
11
10.2268737
21
-0.6513
0
LINE
8
DEFAULT_255_1_234
10
10.2268737
20
-0.6513
11
10.2268737
21
0.3390133
0
LINE
8
DEFAULT_255_1_234
10
10.2268737
20
0.3390133
11
9.9272899
21
0.2289785
0
LINE
8
DEFAULT_255_1_234
10
9.9272899
20
0.2289785
11
9.9272899
21
0.3639117
0
LINE
8
DEFAULT_255_1_234
10
9.9272899
20
0.3639117
11
10.352972
21
0.5237433
0
LINE
8
DEFAULT_255_1_234
10
10.352972
20
0.5237433
11
10.3762641
21
0.5237433
0
LINE
8
DEFAULT_255_1_234
10
10.9987238
20
-0.0955037
11
10.8798541
21
-0.0649831
0
LINE
8
DEFAULT_255_1_234
10
10.8798541
20
-0.0649831
11
10.9392889
21
0.5181211
0
LINE
8
DEFAULT_255_1_234
10
10.9392889
20
0.5181211
11
11.5384566
21
0.5181211
0
LINE
8
DEFAULT_255_1_234
10
11.5384566
20
0.5181211
11
11.5384566
21
0.3807784
0
LINE
8
DEFAULT_255_1_234
10
11.5384566
20
0.3807784
11
11.0653872
21
0.3807784
0
LINE
8
DEFAULT_255_1_234
10
11.0653872
20
0.3807784
11
11.0300476
21
0.0619184
0
LINE
8
DEFAULT_255_1_234
10
10.838089
20
-0.3436844
11
10.9786444
21
-0.3436844
0
LINE
8
DEFAULT_255_1_234
10
11.0380793
20
-0.0633768
11
10.9987238
21
-0.0955037
0
ARC
8
DEFAULT_255_1_234
10
11.215526
20
-0.256077
40
0.3681349
50
93.7182161
51
120.2538958
0
ARC
8
DEFAULT_255_1_234
10
11.2249523
20
-0.3368606
40
0.449379
50
89.9660152
51
94.2496022
0
ARC
8
DEFAULT_255_1_234
10
11.2290256
20
-0.2779451
40
0.390482
50
73.8043271
51
90.5585896
0
ARC
8
DEFAULT_255_1_234
10
11.2525153
20
-0.1921398
40
0.3015334
50
41.3071453
51
73.5430202
0
ARC
8
DEFAULT_255_1_234
10
11.2108981
20
-0.2279676
40
0.3564457
50
13.5075983
51
41.2174222
0
ARC
8
DEFAULT_255_1_234
10
11.0467185
20
-0.2709514
40
0.5261351
50
1.1331335
51
13.8829381
0
ARC
8
DEFAULT_255_1_234
10
10.9055553
20
-0.2785335
40
0.6674378
50
359.9919444
51
1.544251
0
ARC
8
DEFAULT_255_1_234
10
11.033238
20
-0.282672
40
0.5397702
50
347.8572367
51
0.4293338
0
ARC
8
DEFAULT_255_1_234
10
11.2082697
20
-0.3223264
40
0.3603188
50
323.673004
51
348.1672506
0
ARC
8
DEFAULT_255_1_234
10
11.2377206
20
-0.3402832
40
0.3259678
50
316.8171152
51
323.1492751
0
ARC
8
DEFAULT_255_1_234
10
11.2438395
20
-0.343954
40
0.3189975
50
281.8396411
51
316.5457803
0
ARC
8
DEFAULT_255_1_234
10
11.2062658
20
-0.1884238
40
0.4789527
50
269.5770101
51
282.4214771
0
ARC
8
DEFAULT_255_1_234
10
11.199147
20
-0.2097875
40
0.45759
50
256.2427136
51
270.4486331
0
ARC
8
DEFAULT_255_1_234
10
11.1692372
20
-0.3297771
40
0.3339303
50
228.9023911
51
256.3314342
0
ARC
8
DEFAULT_255_1_234
10
11.1618605
20
-0.3414254
40
0.32031
50
193.753695
51
228.5271154
0
ARC
8
DEFAULT_255_1_234
10
11.2856559
20
-0.30512
40
0.4492253
50
184.924711
51
194.497588
0
ARC
8
DEFAULT_255_1_234
10
11.3049126
20
-0.3015409
40
0.3289787
50
187.3600538
51
198.6732863
0
ARC
8
DEFAULT_255_1_234
10
11.1999419
20
-0.3379326
40
0.217884
50
198.4451669
51
217.794479
0
ARC
8
DEFAULT_255_1_234
10
11.1703595
20
-0.3588915
40
0.1816698
50
218.2887171
51
228.5612368
0
ARC
8
DEFAULT_255_1_234
10
11.1801382
20
-0.3457037
40
0.1980329
50
228.9654866
51
258.1234728
0
ARC
8
DEFAULT_255_1_234
10
11.2007092
20
-0.2576167
40
0.2884748
50
257.7258293
51
270.401361
0
ARC
8
DEFAULT_255_1_234
10
11.2051978
20
-0.3021179
40
0.2439788
50
269.4204404
51
286.4209037
0
ARC
8
DEFAULT_255_1_234
10
11.2200465
20
-0.3560343
40
0.1880666
50
286.7251356
51
320.600362
0
ARC
8
DEFAULT_255_1_234
10
11.1817291
20
-0.3249405
40
0.2374121
50
320.6712579
51
344.5441685
0
ARC
8
DEFAULT_255_1_234
10
11.0660617
20
-0.2909955
40
0.3579479
50
344.2412205
51
356.7357071
0
ARC
8
DEFAULT_255_1_234
10
10.9411765
20
-0.2806556
40
0.4832297
50
356.3548756
51
0.0500261
0
ARC
8
DEFAULT_255_1_234
10
11.0748274
20
-0.277535
40
0.3495889
50
359.5576869
51
12.953486
0
ARC
8
DEFAULT_255_1_234
10
11.1803172
20
-0.2519566
40
0.2410532
50
12.6490276
51
41.6081334
0
ARC
8
DEFAULT_255_1_234
10
11.2033543
20
-0.2323679
40
0.2108218
50
41.7850273
51
85.9892764
0
ARC
8
DEFAULT_255_1_234
10
11.1910279
20
-0.3136538
40
0.2928454
50
84.6957577
51
90.0676183
0
ARC
8
DEFAULT_255_1_234
10
11.1886763
20
-0.3805284
40
0.3597255
50
89.6804936
51
99.1614436
0
ARC
8
DEFAULT_255_1_234
10
11.1681395
20
-0.2577869
40
0.235281
50
98.9830931
51
113.8908934
0
ARC
8
DEFAULT_255_1_234
10
11.1451805
20
-0.2036413
40
0.176479
50
114.1950727
51
127.3641004
0
LINE
8
DEFAULT_255_1_234
10
11.9223737
20
-0.0955037
11
11.803504
21
-0.0649831
0
LINE
8
DEFAULT_255_1_234
10
11.803504
20
-0.0649831
11
11.8629388
21
0.5181211
0
LINE
8
DEFAULT_255_1_234
10
11.8629388
20
0.5181211
11
12.4621065
21
0.5181211
0
LINE
8
DEFAULT_255_1_234
10
12.4621065
20
0.5181211
11
12.4621065
21
0.3807784
0
LINE
8
DEFAULT_255_1_234
10
12.4621065
20
0.3807784
11
11.9890371
21
0.3807784
0
LINE
8
DEFAULT_255_1_234
10
11.9890371
20
0.3807784
11
11.9536975
21
0.0619184
0
LINE
8
DEFAULT_255_1_234
10
11.7617389
20
-0.3436844
11
11.9022943
21
-0.3436844
0
LINE
8
DEFAULT_255_1_234
10
11.9617292
20
-0.0633768
11
11.9223737
21
-0.0955037
0
ARC
8
DEFAULT_255_1_234
10
12.1391759
20
-0.256077
40
0.3681349
50
93.7182161
51
120.2538958
0
ARC
8
DEFAULT_255_1_234
10
12.1486022
20
-0.3368606
40
0.449379
50
89.9660152
51
94.2496022
0
ARC
8
DEFAULT_255_1_234
10
12.1526755
20
-0.2779451
40
0.390482
50
73.8043271
51
90.5585896
0
ARC
8
DEFAULT_255_1_234
10
12.1761652
20
-0.1921398
40
0.3015334
50
41.3071453
51
73.5430202
0
ARC
8
DEFAULT_255_1_234
10
12.134548
20
-0.2279676
40
0.3564457
50
13.5075983
51
41.2174222
0
ARC
8
DEFAULT_255_1_234
10
11.9703684
20
-0.2709514
40
0.5261351
50
1.1331335
51
13.8829381
0
ARC
8
DEFAULT_255_1_234
10
11.8292052
20
-0.2785335
40
0.6674378
50
359.9919444
51
1.544251
0
ARC
8
DEFAULT_255_1_234
10
11.9568879
20
-0.282672
40
0.5397702
50
347.8572367
51
0.4293338
0
ARC
8
DEFAULT_255_1_234
10
12.1319197
20
-0.3223264
40
0.3603188
50
323.673004
51
348.1672506
0
ARC
8
DEFAULT_255_1_234
10
12.1613705
20
-0.3402832
40
0.3259678
50
316.8171152
51
323.1492751
0
ARC
8
DEFAULT_255_1_234
10
12.1674894
20
-0.343954
40
0.3189975
50
281.8396411
51
316.5457803
0
ARC
8
DEFAULT_255_1_234
10
12.1299157
20
-0.1884238
40
0.4789527
50
269.5770101
51
282.4214771
0
ARC
8
DEFAULT_255_1_234
10
12.1227969
20
-0.2097875
40
0.45759
50
256.2427136
51
270.4486331
0
ARC
8
DEFAULT_255_1_234
10
12.0928871
20
-0.3297771
40
0.3339303
50
228.9023911
51
256.3314342
0
ARC
8
DEFAULT_255_1_234
10
12.0855104
20
-0.3414254
40
0.32031
50
193.753695
51
228.5271154
0
ARC
8
DEFAULT_255_1_234
10
12.2093058
20
-0.30512
40
0.4492253
50
184.924711
51
194.497588
0
ARC
8
DEFAULT_255_1_234
10
12.2285625
20
-0.3015409
40
0.3289787
50
187.3600538
51
198.6732863
0
ARC
8
DEFAULT_255_1_234
10
12.1235919
20
-0.3379326
40
0.217884
50
198.4451669
51
217.794479
0
ARC
8
DEFAULT_255_1_234
10
12.0940094
20
-0.3588915
40
0.1816698
50
218.2887171
51
228.5612368
0
ARC
8
DEFAULT_255_1_234
10
12.1037881
20
-0.3457037
40
0.1980329
50
228.9654866
51
258.1234728
0
ARC
8
DEFAULT_255_1_234
10
12.1243591
20
-0.2576167
40
0.2884748
50
257.7258293
51
270.401361
0
ARC
8
DEFAULT_255_1_234
10
12.1288477
20
-0.3021179
40
0.2439788
50
269.4204404
51
286.4209037
0
ARC
8
DEFAULT_255_1_234
10
12.1436965
20
-0.3560343
40
0.1880666
50
286.7251356
51
320.600362
0
ARC
8
DEFAULT_255_1_234
10
12.105379
20
-0.3249405
40
0.2374121
50
320.6712579
51
344.5441685
0
ARC
8
DEFAULT_255_1_234
10
11.9897116
20
-0.2909955
40
0.3579479
50
344.2412205
51
356.7357071
0
ARC
8
DEFAULT_255_1_234
10
11.8648264
20
-0.2806556
40
0.4832297
50
356.3548756
51
0.0500261
0
ARC
8
DEFAULT_255_1_234
10
11.9984773
20
-0.277535
40
0.3495889
50
359.5576869
51
12.953486
0
ARC
8
DEFAULT_255_1_234
10
12.1039671
20
-0.2519566
40
0.2410532
50
12.6490276
51
41.6081334
0
ARC
8
DEFAULT_255_1_234
10
12.1270042
20
-0.2323679
40
0.2108218
50
41.7850273
51
85.9892764
0
ARC
8
DEFAULT_255_1_234
10
12.1146778
20
-0.3136538
40
0.2928454
50
84.6957577
51
90.0676183
0
ARC
8
DEFAULT_255_1_234
10
12.1123263
20
-0.3805284
40
0.3597255
50
89.6804936
51
99.1614436
0
ARC
8
DEFAULT_255_1_234
10
12.0917894
20
-0.2577869
40
0.235281
50
98.9830931
51
113.8908934
0
ARC
8
DEFAULT_255_1_234
10
12.0688304
20
-0.2036413
40
0.176479
50
114.1950727
51
127.3641004
0
LINE
8
DEFAULT_255_1_234
10
12.9833663
20
-0.0938974
11
12.9833663
21
-0.2151766
0
LINE
8
DEFAULT_255_1_234
10
12.9833663
20
-0.2151766
11
12.5914175
21
-0.2151766
0
LINE
8
DEFAULT_255_1_234
10
12.5914175
20
-0.2151766
11
12.5914175
21
-0.0938974
0
LINE
8
DEFAULT_255_1_234
10
12.5914175
20
-0.0938974
11
12.9833663
21
-0.0938974
0
LINE
8
DEFAULT_255_1_234
10
13.2998168
20
-0.0955037
11
13.1809471
21
-0.0649831
0
LINE
8
DEFAULT_255_1_234
10
13.1809471
20
-0.0649831
11
13.2403819
21
0.5181211
0
LINE
8
DEFAULT_255_1_234
10
13.2403819
20
0.5181211
11
13.8395496
21
0.5181211
0
LINE
8
DEFAULT_255_1_234
10
13.8395496
20
0.5181211
11
13.8395496
21
0.3807784
0
LINE
8
DEFAULT_255_1_234
10
13.8395496
20
0.3807784
11
13.3664802
21
0.3807784
0
LINE
8
DEFAULT_255_1_234
10
13.3664802
20
0.3807784
11
13.3311406
21
0.0619184
0
LINE
8
DEFAULT_255_1_234
10
13.139182
20
-0.3436844
11
13.2797375
21
-0.3436844
0
LINE
8
DEFAULT_255_1_234
10
13.3391723
20
-0.0633768
11
13.2998168
21
-0.0955037
0
ARC
8
DEFAULT_255_1_234
10
13.516619
20
-0.256077
40
0.3681349
50
93.7182161
51
120.2538958
0
ARC
8
DEFAULT_255_1_234
10
13.5260453
20
-0.3368606
40
0.449379
50
89.9660152
51
94.2496022
0
ARC
8
DEFAULT_255_1_234
10
13.5301187
20
-0.2779451
40
0.390482
50
73.8043271
51
90.5585896
0
ARC
8
DEFAULT_255_1_234
10
13.5536084
20
-0.1921398
40
0.3015334
50
41.3071453
51
73.5430202
0
ARC
8
DEFAULT_255_1_234
10
13.5119911
20
-0.2279676
40
0.3564457
50
13.5075983
51
41.2174222
0
ARC
8
DEFAULT_255_1_234
10
13.3478115
20
-0.2709514
40
0.5261351
50
1.1331335
51
13.8829381
0
ARC
8
DEFAULT_255_1_234
10
13.2066484
20
-0.2785335
40
0.6674378
50
359.9919444
51
1.544251
0
ARC
8
DEFAULT_255_1_234
10
13.334331
20
-0.282672
40
0.5397702
50
347.8572367
51
0.4293338
0
ARC
8
DEFAULT_255_1_234
10
13.5093628
20
-0.3223264
40
0.3603188
50
323.673004
51
348.1672506
0
ARC
8
DEFAULT_255_1_234
10
13.5388136
20
-0.3402832
40
0.3259678
50
316.8171152
51
323.1492751
0
ARC
8
DEFAULT_255_1_234
10
13.5449325
20
-0.343954
40
0.3189975
50
281.8396411
51
316.5457803
0
ARC
8
DEFAULT_255_1_234
10
13.5073588
20
-0.1884238
40
0.4789527
50
269.5770101
51
282.4214771
0
ARC
8
DEFAULT_255_1_234
10
13.50024
20
-0.2097875
40
0.45759
50
256.2427136
51
270.4486331
0
ARC
8
DEFAULT_255_1_234
10
13.4703302
20
-0.3297771
40
0.3339303
50
228.9023911
51
256.3314342
0
ARC
8
DEFAULT_255_1_234
10
13.4629535
20
-0.3414254
40
0.32031
50
193.753695
51
228.5271154
0
ARC
8
DEFAULT_255_1_234
10
13.5867489
20
-0.30512
40
0.4492253
50
184.924711
51
194.497588
0
ARC
8
DEFAULT_255_1_234
10
13.6060056
20
-0.3015409
40
0.3289787
50
187.3600538
51
198.6732863
0
ARC
8
DEFAULT_255_1_234
10
13.501035
20
-0.3379326
40
0.217884
50
198.4451669
51
217.794479
0
ARC
8
DEFAULT_255_1_234
10
13.4714525
20
-0.3588915
40
0.1816698
50
218.2887171
51
228.5612368
0
ARC
8
DEFAULT_255_1_234
10
13.4812312
20
-0.3457037
40
0.1980329
50
228.9654866
51
258.1234728
0
ARC
8
DEFAULT_255_1_234
10
13.5018022
20
-0.2576167
40
0.2884748
50
257.7258293
51
270.401361
0
ARC
8
DEFAULT_255_1_234
10
13.5062908
20
-0.3021179
40
0.2439788
50
269.4204404
51
286.4209037
0
ARC
8
DEFAULT_255_1_234
10
13.5211396
20
-0.3560343
40
0.1880666
50
286.7251356
51
320.600362
0
ARC
8
DEFAULT_255_1_234
10
13.4828221
20
-0.3249405
40
0.2374121
50
320.6712579
51
344.5441685
0
ARC
8
DEFAULT_255_1_234
10
13.3671547
20
-0.2909955
40
0.3579479
50
344.2412205
51
356.7357071
0
ARC
8
DEFAULT_255_1_234
10
13.2422695
20
-0.2806556
40
0.4832297
50
356.3548756
51
0.0500261
0
ARC
8
DEFAULT_255_1_234
10
13.3759205
20
-0.277535
40
0.3495889
50
359.5576869
51
12.953486
0
ARC
8
DEFAULT_255_1_234
10
13.4814102
20
-0.2519566
40
0.2410532
50
12.6490276
51
41.6081334
0
ARC
8
DEFAULT_255_1_234
10
13.5044473
20
-0.2323679
40
0.2108218
50
41.7850273
51
85.9892764
0
ARC
8
DEFAULT_255_1_234
10
13.4921209
20
-0.3136538
40
0.2928454
50
84.6957577
51
90.0676183
0
ARC
8
DEFAULT_255_1_234
10
13.4897694
20
-0.3805284
40
0.3597255
50
89.6804936
51
99.1614436
0
ARC
8
DEFAULT_255_1_234
10
13.4692325
20
-0.2577869
40
0.235281
50
98.9830931
51
113.8908934
0
ARC
8
DEFAULT_255_1_234
10
13.4462735
20
-0.2036413
40
0.176479
50
114.1950727
51
127.3641004
0
LINE
8
DEFAULT_255_1_234
10
14.4804823
20
-0.6513
11
14.0748795
21
-0.6513
0
LINE
8
DEFAULT_255_1_234
10
14.0748795
20
-0.6513
11
14.0748795
21
0.5181211
0
LINE
8
DEFAULT_255_1_234
10
14.0748795
20
0.5181211
11
14.4571903
21
0.5181211
0
LINE
8
DEFAULT_255_1_234
10
14.4861045
20
-0.1043386
11
14.2290889
21
-0.1043386
0
LINE
8
DEFAULT_255_1_234
10
14.2290889
20
-0.1043386
11
14.2290889
21
-0.5252017
0
LINE
8
DEFAULT_255_1_234
10
14.2290889
20
-0.5252017
11
14.483695
21
-0.5252017
0
LINE
8
DEFAULT_255_1_234
10
14.2290889
20
0.3912196
11
14.2290889
21
0.0193501
0
LINE
8
DEFAULT_255_1_234
10
14.2290889
20
0.0193501
11
14.4620093
21
0.0193501
0
LINE
8
DEFAULT_255_1_234
10
14.4571903
20
0.3912196
11
14.2290889
21
0.3912196
0
ARC
8
DEFAULT_255_1_234
10
14.4609612
20
-0.2186099
40
0.7367406
50
82.1257326
51
90.2932599
0
ARC
8
DEFAULT_255_1_234
10
14.4998566
20
0.0532013
40
0.4621653
50
69.9044149
51
82.2857423
0
ARC
8
DEFAULT_255_1_234
10
14.5569244
20
0.2074637
40
0.2976871
50
51.1838526
51
70.0181538
0
ARC
8
DEFAULT_255_1_234
10
14.582421
20
0.244524
40
0.2528517
50
12.1017251
51
50.4214761
0
ARC
8
DEFAULT_255_1_234
10
14.4440084
20
0.2097676
40
0.3955061
50
359.5251267
51
12.8211707
0
ARC
8
DEFAULT_255_1_234
10
14.6020011
20
0.2028344
40
0.2375281
50
323.4908128
51
0.8817314
0
ARC
8
DEFAULT_255_1_234
10
14.5601698
20
0.235155
40
0.2903817
50
298.6825083
51
323.2756573
0
ARC
8
DEFAULT_255_1_234
10
14.5240061
20
0.2952649
40
0.3604842
50
293.1999386
51
299.1396394
0
ARC
8
DEFAULT_255_1_234
10
14.5913033
20
-0.3132874
40
0.2871098
50
54.0011765
51
74.9167975
0
ARC
8
DEFAULT_255_1_234
10
14.6029393
20
-0.2935668
40
0.2643248
50
36.3580696
51
53.5291921
0
ARC
8
DEFAULT_255_1_234
10
14.5902635
20
-0.3026002
40
0.2798884
50
4.8189881
51
36.3089977
0
ARC
8
DEFAULT_255_1_234
10
14.512347
20
-0.313573
40
0.358478
50
359.9370252
51
5.5204067
0
ARC
8
DEFAULT_255_1_234
10
14.4798991
20
-0.3176333
40
0.3909429
50
344.7478609
51
0.5373281
0
ARC
8
DEFAULT_255_1_234
10
14.5789963
20
-0.3443456
40
0.2883093
50
311.1786488
51
344.6886812
0
ARC
8
DEFAULT_255_1_234
10
14.549801
20
-0.3080013
40
0.3348923
50
286.0418249
51
310.8441291
0
ARC
8
DEFAULT_255_1_234
10
14.4990842
20
-0.1433193
40
0.5071869
50
274.1042341
51
286.4071509
0
ARC
8
DEFAULT_255_1_234
10
14.4814098
20
0.0450229
40
0.6963234
50
269.9236873
51
274.445647
0
ARC
8
DEFAULT_255_1_234
10
14.4860098
20
-0.1889463
40
0.3362634
50
269.6055768
51
281.3740047
0
ARC
8
DEFAULT_255_1_234
10
14.5090736
20
-0.2982647
40
0.224546
50
281.1055983
51
302.5132223
0
ARC
8
DEFAULT_255_1_234
10
14.5237636
20
-0.3246177
40
0.1944357
50
303.0368945
51
311.8811219
0
ARC
8
DEFAULT_255_1_234
10
14.5309042
20
-0.333111
40
0.1833454
50
311.9916004
51
351.7143462
0
ARC
8
DEFAULT_255_1_234
10
14.4492272
20
-0.316607
40
0.2665871
50
350.7339597
51
0.2221581
0
ARC
8
DEFAULT_255_1_234
10
14.4384718
20
-0.3109533
40
0.2773789
50
359.0456241
51
17.2296242
0
ARC
8
DEFAULT_255_1_234
10
14.5423836
20
-0.2800837
40
0.1689915
50
17.6685481
51
78.9940892
0
ARC
8
DEFAULT_255_1_234
10
14.4906999
20
-0.4655776
40
0.3612658
50
76.5635957
51
90.6980921
0
LINE
8
DEFAULT_255_1_234
10
14.4862984
20
-0.1043387
11
14.4861045
21
-0.1043386
0
ARC
8
DEFAULT_255_1_234
10
14.464266
20
0.3479036
40
0.3285612
50
269.6064736
51
281.4533503
0
ARC
8
DEFAULT_255_1_234
10
14.4865479
20
0.2427688
40
0.2210975
50
281.2041486
51
302.5148063
0
ARC
8
DEFAULT_255_1_234
10
14.5002329
20
0.2181241
40
0.1929674
50
303.021671
51
309.8369575
0
ARC
8
DEFAULT_255_1_234
10
14.5185791
20
0.1975488
40
0.1654181
50
309.5228395
51
356.9509836
0
ARC
8
DEFAULT_255_1_234
10
14.4522373
20
0.2070932
40
0.2322512
50
355.4701227
51
0.0492546
0
ARC
8
DEFAULT_255_1_234
10
14.4243465
20
0.2093094
40
0.2601498
50
359.5558597
51
11.2096359
0
ARC
8
DEFAULT_255_1_234
10
14.5200754
20
0.229123
40
0.1623975
50
10.9182341
51
31.3230275
0
ARC
8
DEFAULT_255_1_234
10
14.5486488
20
0.2450214
40
0.1297302
50
31.8852677
51
52.1412565
0
ARC
8
DEFAULT_255_1_234
10
14.5212221
20
0.206275
40
0.1771663
50
52.8285564
51
71.9850297
0
ARC
8
DEFAULT_255_1_234
10
14.4836397
20
0.0956664
40
0.2939794
50
71.6863486
51
82.8455995
0
ARC
8
DEFAULT_255_1_234
10
14.4596933
20
-0.0852851
40
0.476506
50
82.6984714
51
90.1729175
0
ARC
8
DEFAULT_255_1_234
10
14.4574568
20
0.0370623
40
0.3541573
50
89.8708275
51
90.0431131
0
LINE
8
DEFAULT_255_1_234
10
15.8563191
20
-0.6513
11
15.7446779
21
-0.3460939
0
LINE
8
DEFAULT_255_1_234
10
15.7446779
20
-0.3460939
11
15.2547419
21
-0.3460939
0
LINE
8
DEFAULT_255_1_234
10
15.2547419
20
-0.3460939
11
15.1447071
21
-0.6513
0
LINE
8
DEFAULT_255_1_234
10
15.1447071
20
-0.6513
11
14.9856787
21
-0.6513
0
LINE
8
DEFAULT_255_1_234
10
14.9856787
20
-0.6513
11
15.4322433
21
0.5181211
0
LINE
8
DEFAULT_255_1_234
10
15.4322433
20
0.5181211
11
15.5671765
21
0.5181211
0
LINE
8
DEFAULT_255_1_234
10
15.5671765
20
0.5181211
11
16.0145443
21
-0.6513
0
LINE
8
DEFAULT_255_1_234
10
16.0145443
20
-0.6513
11
15.8563191
21
-0.6513
0
LINE
8
DEFAULT_255_1_234
10
15.4997099
20
0.3277689
11
15.301326
21
-0.2191925
0
LINE
8
DEFAULT_255_1_234
10
15.301326
20
-0.2191925
11
15.698897
21
-0.2191925
0
LINE
8
DEFAULT_255_1_234
10
15.698897
20
-0.2191925
11
15.4997099
21
0.3277689
0
LINE
8
DEFAULT_255_1_234
10
16.8667118
20
0.0402327
11
16.8667118
21
-0.1525291
0
LINE
8
DEFAULT_255_1_234
10
16.128595
20
-0.1726084
11
16.128595
21
0.0257755
0
LINE
8
DEFAULT_255_1_234
10
16.7181246
20
-0.1926877
11
16.7181246
21
0.0506739
0
LINE
8
DEFAULT_255_1_234
10
16.2771822
20
0.0619184
11
16.2771822
21
-0.1758211
0
ARC
8
DEFAULT_255_1_234
10
15.6420007
20
-0.1574195
40
1.2247208
50
353.8441951
51
0.2287902
0
ARC
8
DEFAULT_255_1_234
10
16.1059511
20
-0.2092194
40
0.7578929
50
344.4934747
51
353.9765454
0
ARC
8
DEFAULT_255_1_234
10
16.4052101
20
-0.2943019
40
0.4467846
50
329.2803592
51
344.7472793
0
ARC
8
DEFAULT_255_1_234
10
16.5044926
20
-0.3487982
40
0.3336173
50
324.9352394
51
328.6160465
0
ARC
8
DEFAULT_255_1_234
10
16.5422035
20
-0.3751573
40
0.2876076
50
280.580143
51
324.9173126
0
ARC
8
DEFAULT_255_1_234
10
16.5020827
20
-0.2080901
40
0.4592847
50
269.5977311
51
281.6734359
0
ARC
8
DEFAULT_255_1_234
10
16.4948733
20
-0.2200827
40
0.4472986
50
256.6228859
51
270.51044
0
ARC
8
DEFAULT_255_1_234
10
16.4546711
20
-0.3749123
40
0.2873874
50
215.8618325
51
257.2788573
0
ARC
8
DEFAULT_255_1_234
10
16.5567742
20
-0.3064023
40
0.4102928
50
197.9693508
51
215.2623606
0
ARC
8
DEFAULT_255_1_234
10
16.8052858
20
-0.2225291
40
0.6725652
50
187.8816417
51
198.2346507
0
ARC
8
DEFAULT_255_1_234
10
17.2011066
20
-0.1653921
40
1.0724845
50
180.8976217
51
188.0055519
0
ARC
8
DEFAULT_255_1_234
10
17.4811254
20
-0.1550223
40
1.3526448
50
180.7449369
51
181.1510016
0
ARC
8
DEFAULT_255_1_234
10
17.3233983
20
0.0306042
40
1.1948131
50
173.7675579
51
180.231553
0
ARC
8
DEFAULT_255_1_234
10
16.871613
20
0.0816666
40
0.7401564
50
164.3058563
51
173.9002247
0
ARC
8
DEFAULT_255_1_234
10
16.5804199
20
0.1655656
40
0.4371288
50
148.7922025
51
164.568378
0
ARC
8
DEFAULT_255_1_234
10
16.4852651
20
0.2186929
40
0.3282386
50
144.5883898
51
148.1176286
0
ARC
8
DEFAULT_255_1_234
10
16.4509549
20
0.2426315
40
0.2864044
50
101.6440918
51
144.514236
0
ARC
8
DEFAULT_255_1_234
10
16.4934616
20
0.0737069
40
0.4604934
50
89.5284041
51
102.5819763
0
ARC
8
DEFAULT_255_1_234
10
16.5013703
20
0.0698018
40
0.464401
50
77.0437873
51
90.5081339
0
ARC
8
DEFAULT_255_1_234
10
16.5415705
20
0.2340615
40
0.2953195
50
48.2778575
51
77.4994676
0
ARC
8
DEFAULT_255_1_234
10
16.5488337
20
0.2469746
40
0.2808655
50
36.3142134
51
47.6305865
0
ARC
8
DEFAULT_255_1_234
10
16.4619643
20
0.1884515
40
0.3855453
50
18.2931786
51
35.6769206
0
ARC
8
DEFAULT_255_1_234
10
16.2076402
20
0.1011593
40
0.654423
50
8.024666
51
18.5605216
0
ARC
8
DEFAULT_255_1_234
10
15.7913322
20
0.0396792
40
1.0752407
50
1.1274072
51
8.1718305
0
ARC
8
DEFAULT_255_1_234
10
15.4677513
20
0.0269885
40
1.3990231
50
0.5424119
51
1.3863029
0
ARC
8
DEFAULT_255_1_234
10
15.6498891
20
0.0542342
40
1.0682415
50
359.8090433
51
4.9407866
0
ARC
8
DEFAULT_255_1_234
10
16.0708905
20
0.0918113
40
0.6455691
50
4.8362157
51
12.2904523
0
ARC
8
DEFAULT_255_1_234
10
16.346402
20
0.1531965
40
0.3633074
50
12.0805627
51
23.8173984
0
ARC
8
DEFAULT_255_1_234
10
16.4637725
20
0.2028919
40
0.2358723
50
24.2871213
51
31.3935614
0
ARC
8
DEFAULT_255_1_234
10
16.5162422
20
0.2372233
40
0.1732111
50
30.7407893
51
82.4657128
0
ARC
8
DEFAULT_255_1_234
10
16.4982556
20
0.1488691
40
0.263235
50
81.1060089
51
90.2184952
0
ARC
8
DEFAULT_255_1_234
10
16.4946855
20
0.1746924
40
0.2374236
50
89.3806855
51
105.6762551
0
ARC
8
DEFAULT_255_1_234
10
16.4763486
20
0.2413567
40
0.1682847
50
105.7981136
51
149.7388061
0
ARC
8
DEFAULT_255_1_234
10
16.5827564
20
0.177395
40
0.2924306
50
149.4208916
51
163.6286378
0
ARC
8
DEFAULT_255_1_234
10
16.7918452
20
0.113625
40
0.5110213
50
163.3763315
51
172.1410975
0
ARC
8
DEFAULT_255_1_234
10
17.1219171
20
0.0663518
40
0.8444586
50
172.0259487
51
178.0703232
0
ARC
8
DEFAULT_255_1_234
10
17.4249261
20
0.0519906
40
1.1477868
50
177.8631668
51
179.5044149
0
ARC
8
DEFAULT_255_1_234
10
17.3176665
20
-0.1794611
40
1.0404907
50
179.7995573
51
185.2460446
0
ARC
8
DEFAULT_255_1_234
10
16.9133705
20
-0.2177487
40
0.6343885
50
185.1411642
51
193.0079639
0
ARC
8
DEFAULT_255_1_234
10
16.6490177
20
-0.2802359
40
0.3627568
50
192.7897626
51
205.2507664
0
ARC
8
DEFAULT_255_1_234
10
16.5443724
20
-0.3269585
40
0.2481908
50
205.8005384
51
211.2537509
0
ARC
8
DEFAULT_255_1_234
10
16.4920165
20
-0.362042
40
0.1852521
50
210.3789793
51
238.4008143
0
ARC
8
DEFAULT_255_1_234
10
16.4900686
20
-0.3573624
40
0.1882621
50
239.6520629
51
265.9793761
0
ARC
8
DEFAULT_255_1_234
10
16.4985887
20
-0.2901573
40
0.2559272
50
265.1315437
51
270.060332
0
ARC
8
DEFAULT_255_1_234
10
16.5014665
20
-0.3225466
40
0.2235528
50
269.3314664
51
287.2178029
0
ARC
8
DEFAULT_255_1_234
10
16.5152517
20
-0.3728721
40
0.1714108
50
287.7958004
51
329.080874
0
ARC
8
DEFAULT_255_1_234
10
16.4194974
20
-0.313107
40
0.2842745
50
328.6634704
51
343.3325132
0
ARC
8
DEFAULT_255_1_234
10
16.2021994
20
-0.2454137
40
0.5118644
50
343.0499468
51
351.9393422
0
ARC
8
DEFAULT_255_1_234
10
15.8555294
20
-0.1943051
40
0.8622784
50
351.8069023
51
357.7959224
0
ARC
8
DEFAULT_255_1_234
10
15.531985
20
-0.1775279
40
1.1862365
50
357.5871873
51
359.2677531
0
LINE
8
DEFAULT_255_1_234
10
17.7903617
20
0.0402327
11
17.7903617
21
-0.1525291
0
LINE
8
DEFAULT_255_1_234
10
17.0522449
20
-0.1726084
11
17.0522449
21
0.0257755
0
LINE
8
DEFAULT_255_1_234
10
17.6417745
20
-0.1926877
11
17.6417745
21
0.0506739
0
LINE
8
DEFAULT_255_1_234
10
17.2008321
20
0.0619184
11
17.2008321
21
-0.1758211
0
ARC
8
DEFAULT_255_1_234
10
16.5656506
20
-0.1574195
40
1.2247208
50
353.8441951
51
0.2287902
0
ARC
8
DEFAULT_255_1_234
10
17.029601
20
-0.2092194
40
0.7578929
50
344.4934747
51
353.9765454
0
ARC
8
DEFAULT_255_1_234
10
17.32886
20
-0.2943019
40
0.4467846
50
329.2803592
51
344.7472793
0
ARC
8
DEFAULT_255_1_234
10
17.4281425
20
-0.3487982
40
0.3336173
50
324.9352394
51
328.6160465
0
ARC
8
DEFAULT_255_1_234
10
17.4658534
20
-0.3751573
40
0.2876076
50
280.580143
51
324.9173126
0
ARC
8
DEFAULT_255_1_234
10
17.4257326
20
-0.2080901
40
0.4592847
50
269.5977311
51
281.6734359
0
ARC
8
DEFAULT_255_1_234
10
17.4185232
20
-0.2200827
40
0.4472986
50
256.6228859
51
270.51044
0
ARC
8
DEFAULT_255_1_234
10
17.378321
20
-0.3749123
40
0.2873874
50
215.8618325
51
257.2788573
0
ARC
8
DEFAULT_255_1_234
10
17.4804241
20
-0.3064023
40
0.4102928
50
197.9693508
51
215.2623606
0
ARC
8
DEFAULT_255_1_234
10
17.7289357
20
-0.2225291
40
0.6725652
50
187.8816417
51
198.2346507
0
ARC
8
DEFAULT_255_1_234
10
18.1247565
20
-0.1653921
40
1.0724845
50
180.8976217
51
188.0055519
0
ARC
8
DEFAULT_255_1_234
10
18.4047753
20
-0.1550223
40
1.3526448
50
180.7449369
51
181.1510016
0
ARC
8
DEFAULT_255_1_234
10
18.2470482
20
0.0306042
40
1.1948131
50
173.7675579
51
180.231553
0
ARC
8
DEFAULT_255_1_234
10
17.7952629
20
0.0816666
40
0.7401564
50
164.3058563
51
173.9002247
0
ARC
8
DEFAULT_255_1_234
10
17.5040698
20
0.1655656
40
0.4371288
50
148.7922025
51
164.568378
0
ARC
8
DEFAULT_255_1_234
10
17.408915
20
0.2186929
40
0.3282386
50
144.5883898
51
148.1176286
0
ARC
8
DEFAULT_255_1_234
10
17.3746048
20
0.2426315
40
0.2864044
50
101.6440918
51
144.514236
0
ARC
8
DEFAULT_255_1_234
10
17.4171115
20
0.0737069
40
0.4604934
50
89.5284041
51
102.5819763
0
ARC
8
DEFAULT_255_1_234
10
17.4250202
20
0.0698018
40
0.464401
50
77.0437873
51
90.5081339
0
ARC
8
DEFAULT_255_1_234
10
17.4652204
20
0.2340615
40
0.2953195
50
48.2778575
51
77.4994676
0
ARC
8
DEFAULT_255_1_234
10
17.4724836
20
0.2469746
40
0.2808655
50
36.3142134
51
47.6305865
0
ARC
8
DEFAULT_255_1_234
10
17.3856142
20
0.1884515
40
0.3855453
50
18.2931786
51
35.6769206
0
ARC
8
DEFAULT_255_1_234
10
17.1312901
20
0.1011593
40
0.654423
50
8.024666
51
18.5605216
0
ARC
8
DEFAULT_255_1_234
10
16.7149821
20
0.0396792
40
1.0752407
50
1.1274072
51
8.1718305
0
ARC
8
DEFAULT_255_1_234
10
16.3914012
20
0.0269885
40
1.3990231
50
0.5424119
51
1.3863029
0
ARC
8
DEFAULT_255_1_234
10
16.573539
20
0.0542342
40
1.0682415
50
359.8090433
51
4.9407866
0
ARC
8
DEFAULT_255_1_234
10
16.9945404
20
0.0918113
40
0.6455691
50
4.8362157
51
12.2904523
0
ARC
8
DEFAULT_255_1_234
10
17.2700519
20
0.1531965
40
0.3633074
50
12.0805627
51
23.8173984
0
ARC
8
DEFAULT_255_1_234
10
17.3874224
20
0.2028919
40
0.2358723
50
24.2871213
51
31.3935614
0
ARC
8
DEFAULT_255_1_234
10
17.4398921
20
0.2372233
40
0.1732111
50
30.7407893
51
82.4657128
0
ARC
8
DEFAULT_255_1_234
10
17.4219055
20
0.1488691
40
0.263235
50
81.1060089
51
90.2184952
0
ARC
8
DEFAULT_255_1_234
10
17.4183354
20
0.1746924
40
0.2374236
50
89.3806855
51
105.6762551
0
ARC
8
DEFAULT_255_1_234
10
17.3999985
20
0.2413567
40
0.1682847
50
105.7981136
51
149.7388061
0
ARC
8
DEFAULT_255_1_234
10
17.5064063
20
0.177395
40
0.2924306
50
149.4208916
51
163.6286378
0
ARC
8
DEFAULT_255_1_234
10
17.7154951
20
0.113625
40
0.5110213
50
163.3763315
51
172.1410975
0
ARC
8
DEFAULT_255_1_234
10
18.045567
20
0.0663518
40
0.8444586
50
172.0259487
51
178.0703232
0
ARC
8
DEFAULT_255_1_234
10
18.348576
20
0.0519906
40
1.1477868
50
177.8631668
51
179.5044149
0
ARC
8
DEFAULT_255_1_234
10
18.2413164
20
-0.1794611
40
1.0404907
50
179.7995573
51
185.2460446
0
ARC
8
DEFAULT_255_1_234
10
17.8370204
20
-0.2177487
40
0.6343885
50
185.1411642
51
193.0079639
0
ARC
8
DEFAULT_255_1_234
10
17.5726676
20
-0.2802359
40
0.3627568
50
192.7897626
51
205.2507664
0
ARC
8
DEFAULT_255_1_234
10
17.4680223
20
-0.3269585
40
0.2481908
50
205.8005384
51
211.2537509
0
ARC
8
DEFAULT_255_1_234
10
17.4156664
20
-0.362042
40
0.1852521
50
210.3789793
51
238.4008143
0
ARC
8
DEFAULT_255_1_234
10
17.4137185
20
-0.3573624
40
0.1882621
50
239.6520629
51
265.9793761
0
ARC
8
DEFAULT_255_1_234
10
17.4222386
20
-0.2901573
40
0.2559272
50
265.1315437
51
270.060332
0
ARC
8
DEFAULT_255_1_234
10
17.4251164
20
-0.3225466
40
0.2235528
50
269.3314664
51
287.2178029
0
ARC
8
DEFAULT_255_1_234
10
17.4389016
20
-0.3728721
40
0.1714108
50
287.7958004
51
329.080874
0
ARC
8
DEFAULT_255_1_234
10
17.3431473
20
-0.313107
40
0.2842745
50
328.6634704
51
343.3325132
0
ARC
8
DEFAULT_255_1_234
10
17.1258493
20
-0.2454137
40
0.5118644
50
343.0499468
51
351.9393422
0
ARC
8
DEFAULT_255_1_234
10
16.7791793
20
-0.1943051
40
0.8622784
50
351.8069023
51
357.7959224
0
ARC
8
DEFAULT_255_1_234
10
16.4556349
20
-0.1775279
40
1.1862365
50
357.5871873
51
359.2677531
0
LINE
8
DEFAULT_255_1_234
10
18.3051961
20
-0.0938974
11
18.3051961
21
-0.2151766
0
LINE
8
DEFAULT_255_1_234
10
18.3051961
20
-0.2151766
11
17.9132473
21
-0.2151766
0
LINE
8
DEFAULT_255_1_234
10
17.9132473
20
-0.2151766
11
17.9132473
21
-0.0938974
0
LINE
8
DEFAULT_255_1_234
10
17.9132473
20
-0.0938974
11
18.3051961
21
-0.0938974
0
LINE
8
DEFAULT_255_1_234
10
19.1678048
20
0.0402327
11
19.1678048
21
-0.1525291
0
LINE
8
DEFAULT_255_1_234
10
18.429688
20
-0.1726084
11
18.429688
21
0.0257755
0
LINE
8
DEFAULT_255_1_234
10
19.0192176
20
-0.1926877
11
19.0192176
21
0.0506739
0
LINE
8
DEFAULT_255_1_234
10
18.5782752
20
0.0619184
11
18.5782752
21
-0.1758211
0
ARC
8
DEFAULT_255_1_234
10
17.9430937
20
-0.1574195
40
1.2247208
50
353.8441951
51
0.2287902
0
ARC
8
DEFAULT_255_1_234
10
18.4070441
20
-0.2092194
40
0.7578929
50
344.4934747
51
353.9765454
0
ARC
8
DEFAULT_255_1_234
10
18.7063031
20
-0.2943019
40
0.4467846
50
329.2803592
51
344.7472793
0
ARC
8
DEFAULT_255_1_234
10
18.8055856
20
-0.3487982
40
0.3336173
50
324.9352394
51
328.6160465
0
ARC
8
DEFAULT_255_1_234
10
18.8432965
20
-0.3751573
40
0.2876076
50
280.580143
51
324.9173126
0
ARC
8
DEFAULT_255_1_234
10
18.8031757
20
-0.2080901
40
0.4592847
50
269.5977311
51
281.6734359
0
ARC
8
DEFAULT_255_1_234
10
18.7959663
20
-0.2200827
40
0.4472986
50
256.6228859
51
270.51044
0
ARC
8
DEFAULT_255_1_234
10
18.7557641
20
-0.3749123
40
0.2873874
50
215.8618325
51
257.2788573
0
ARC
8
DEFAULT_255_1_234
10
18.8578672
20
-0.3064023
40
0.4102928
50
197.9693508
51
215.2623606
0
ARC
8
DEFAULT_255_1_234
10
19.1063788
20
-0.2225291
40
0.6725652
50
187.8816417
51
198.2346507
0
ARC
8
DEFAULT_255_1_234
10
19.5021996
20
-0.1653921
40
1.0724845
50
180.8976217
51
188.0055519
0
ARC
8
DEFAULT_255_1_234
10
19.7822185
20
-0.1550223
40
1.3526448
50
180.7449369
51
181.1510016
0
ARC
8
DEFAULT_255_1_234
10
19.6244914
20
0.0306042
40
1.1948131
50
173.7675579
51
180.231553
0
ARC
8
DEFAULT_255_1_234
10
19.172706
20
0.0816666
40
0.7401564
50
164.3058563
51
173.9002247
0
ARC
8
DEFAULT_255_1_234
10
18.8815129
20
0.1655656
40
0.4371288
50
148.7922025
51
164.568378
0
ARC
8
DEFAULT_255_1_234
10
18.7863581
20
0.2186929
40
0.3282386
50
144.5883898
51
148.1176286
0
ARC
8
DEFAULT_255_1_234
10
18.7520479
20
0.2426315
40
0.2864044
50
101.6440918
51
144.514236
0
ARC
8
DEFAULT_255_1_234
10
18.7945546
20
0.0737069
40
0.4604934
50
89.5284041
51
102.5819763
0
ARC
8
DEFAULT_255_1_234
10
18.8024634
20
0.0698018
40
0.464401
50
77.0437873
51
90.5081339
0
ARC
8
DEFAULT_255_1_234
10
18.8426635
20
0.2340615
40
0.2953195
50
48.2778575
51
77.4994676
0
ARC
8
DEFAULT_255_1_234
10
18.8499267
20
0.2469746
40
0.2808655
50
36.3142134
51
47.6305865
0
ARC
8
DEFAULT_255_1_234
10
18.7630574
20
0.1884515
40
0.3855453
50
18.2931786
51
35.6769206
0
ARC
8
DEFAULT_255_1_234
10
18.5087332
20
0.1011593
40
0.654423
50
8.024666
51
18.5605216
0
ARC
8
DEFAULT_255_1_234
10
18.0924252
20
0.0396792
40
1.0752407
50
1.1274072
51
8.1718305
0
ARC
8
DEFAULT_255_1_234
10
17.7688443
20
0.0269885
40
1.3990231
50
0.5424119
51
1.3863029
0
ARC
8
DEFAULT_255_1_234
10
17.9509821
20
0.0542342
40
1.0682415
50
359.8090433
51
4.9407866
0
ARC
8
DEFAULT_255_1_234
10
18.3719835
20
0.0918113
40
0.6455691
50
4.8362157
51
12.2904523
0
ARC
8
DEFAULT_255_1_234
10
18.647495
20
0.1531965
40
0.3633074
50
12.0805627
51
23.8173984
0
ARC
8
DEFAULT_255_1_234
10
18.7648655
20
0.2028919
40
0.2358723
50
24.2871213
51
31.3935614
0
ARC
8
DEFAULT_255_1_234
10
18.8173352
20
0.2372233
40
0.1732111
50
30.7407893
51
82.4657128
0
ARC
8
DEFAULT_255_1_234
10
18.7993487
20
0.1488691
40
0.263235
50
81.1060089
51
90.2184952
0
ARC
8
DEFAULT_255_1_234
10
18.7957785
20
0.1746924
40
0.2374236
50
89.3806855
51
105.6762551
0
ARC
8
DEFAULT_255_1_234
10
18.7774416
20
0.2413567
40
0.1682847
50
105.7981136
51
149.7388061
0
ARC
8
DEFAULT_255_1_234
10
18.8838494
20
0.177395
40
0.2924306
50
149.4208916
51
163.6286378
0
ARC
8
DEFAULT_255_1_234
10
19.0929382
20
0.113625
40
0.5110213
50
163.3763315
51
172.1410975
0
ARC
8
DEFAULT_255_1_234
10
19.4230101
20
0.0663518
40
0.8444586
50
172.0259487
51
178.0703232
0
ARC
8
DEFAULT_255_1_234
10
19.7260191
20
0.0519906
40
1.1477868
50
177.8631668
51
179.5044149
0
ARC
8
DEFAULT_255_1_234
10
19.6187595
20
-0.1794611
40
1.0404907
50
179.7995573
51
185.2460446
0
ARC
8
DEFAULT_255_1_234
10
19.2144635
20
-0.2177487
40
0.6343885
50
185.1411642
51
193.0079639
0
ARC
8
DEFAULT_255_1_234
10
18.9501107
20
-0.2802359
40
0.3627568
50
192.7897626
51
205.2507664
0
ARC
8
DEFAULT_255_1_234
10
18.8454654
20
-0.3269585
40
0.2481908
50
205.8005384
51
211.2537509
0
ARC
8
DEFAULT_255_1_234
10
18.7931095
20
-0.362042
40
0.1852521
50
210.3789793
51
238.4008143
0
ARC
8
DEFAULT_255_1_234
10
18.7911617
20
-0.3573624
40
0.1882621
50
239.6520629
51
265.9793761
0
ARC
8
DEFAULT_255_1_234
10
18.7996817
20
-0.2901573
40
0.2559272
50
265.1315437
51
270.060332
0
ARC
8
DEFAULT_255_1_234
10
18.8025596
20
-0.3225466
40
0.2235528
50
269.3314664
51
287.2178029
0
ARC
8
DEFAULT_255_1_234
10
18.8163447
20
-0.3728721
40
0.1714108
50
287.7958004
51
329.080874
0
ARC
8
DEFAULT_255_1_234
10
18.7205904
20
-0.313107
40
0.2842745
50
328.6634704
51
343.3325132
0
ARC
8
DEFAULT_255_1_234
10
18.5032924
20
-0.2454137
40
0.5118644
50
343.0499468
51
351.9393422
0
ARC
8
DEFAULT_255_1_234
10
18.1566224
20
-0.1943051
40
0.8622784
50
351.8069023
51
357.7959224
0
ARC
8
DEFAULT_255_1_234
10
17.833078
20
-0.1775279
40
1.1862365
50
357.5871873
51
359.2677531
0
LINE
8
DEFAULT_255_1_234
10
20.1541022
20
-0.6513
11
20.0424611
21
-0.3460939
0
LINE
8
DEFAULT_255_1_234
10
20.0424611
20
-0.3460939
11
19.552525
21
-0.3460939
0
LINE
8
DEFAULT_255_1_234
10
19.552525
20
-0.3460939
11
19.4424902
21
-0.6513
0
LINE
8
DEFAULT_255_1_234
10
19.4424902
20
-0.6513
11
19.2834618
21
-0.6513
0
LINE
8
DEFAULT_255_1_234
10
19.2834618
20
-0.6513
11
19.7300265
21
0.5181211
0
LINE
8
DEFAULT_255_1_234
10
19.7300265
20
0.5181211
11
19.8649597
21
0.5181211
0
LINE
8
DEFAULT_255_1_234
10
19.8649597
20
0.5181211
11
20.3123275
21
-0.6513
0
LINE
8
DEFAULT_255_1_234
10
20.3123275
20
-0.6513
11
20.1541022
21
-0.6513
0
LINE
8
DEFAULT_255_1_234
10
19.7974931
20
0.3277689
11
19.5991091
21
-0.2191925
0
LINE
8
DEFAULT_255_1_234
10
19.5991091
20
-0.2191925
11
19.9966802
21
-0.2191925
0
LINE
8
DEFAULT_255_1_234
10
19.9966802
20
-0.2191925
11
19.7974931
21
0.3277689
0
LINE
8
DEFAULT_255_1_234
10
20.8753523
20
-0.6513
11
20.4697496
21
-0.6513
0
LINE
8
DEFAULT_255_1_234
10
20.4697496
20
-0.6513
11
20.4697496
21
0.5181211
0
LINE
8
DEFAULT_255_1_234
10
20.4697496
20
0.5181211
11
20.8520603
21
0.5181211
0
LINE
8
DEFAULT_255_1_234
10
20.8809746
20
-0.1043386
11
20.6239589
21
-0.1043386
0
LINE
8
DEFAULT_255_1_234
10
20.6239589
20
-0.1043386
11
20.6239589
21
-0.5252017
0
LINE
8
DEFAULT_255_1_234
10
20.6239589
20
-0.5252017
11
20.878565
21
-0.5252017
0
LINE
8
DEFAULT_255_1_234
10
20.6239589
20
0.3912196
11
20.6239589
21
0.0193501
0
LINE
8
DEFAULT_255_1_234
10
20.6239589
20
0.0193501
11
20.8568793
21
0.0193501
0
LINE
8
DEFAULT_255_1_234
10
20.8520603
20
0.3912196
11
20.6239589
21
0.3912196
0
ARC
8
DEFAULT_255_1_234
10
20.8558312
20
-0.2186099
40
0.7367406
50
82.1257326
51
90.2932599
0
ARC
8
DEFAULT_255_1_234
10
20.8947266
20
0.0532013
40
0.4621653
50
69.9044149
51
82.2857423
0
ARC
8
DEFAULT_255_1_234
10
20.9517944
20
0.2074637
40
0.2976871
50
51.1838526
51
70.0181538
0
ARC
8
DEFAULT_255_1_234
10
20.977291
20
0.244524
40
0.2528517
50
12.1017251
51
50.4214761
0
ARC
8
DEFAULT_255_1_234
10
20.8388784
20
0.2097676
40
0.3955061
50
359.5251267
51
12.8211707
0
ARC
8
DEFAULT_255_1_234
10
20.9968711
20
0.2028344
40
0.2375281
50
323.4908128
51
0.8817314
0
ARC
8
DEFAULT_255_1_234
10
20.9550398
20
0.235155
40
0.2903817
50
298.6825083
51
323.2756573
0
ARC
8
DEFAULT_255_1_234
10
20.9188761
20
0.2952649
40
0.3604842
50
293.1999386
51
299.1396394
0
ARC
8
DEFAULT_255_1_234
10
20.9861734
20
-0.3132874
40
0.2871098
50
54.0011765
51
74.9167975
0
ARC
8
DEFAULT_255_1_234
10
20.9978093
20
-0.2935668
40
0.2643248
50
36.3580696
51
53.5291921
0
ARC
8
DEFAULT_255_1_234
10
20.9851335
20
-0.3026002
40
0.2798884
50
4.8189881
51
36.3089977
0
ARC
8
DEFAULT_255_1_234
10
20.907217
20
-0.313573
40
0.358478
50
359.9370252
51
5.5204067
0
ARC
8
DEFAULT_255_1_234
10
20.8747692
20
-0.3176333
40
0.3909429
50
344.7478609
51
0.5373281
0
ARC
8
DEFAULT_255_1_234
10
20.9738663
20
-0.3443456
40
0.2883093
50
311.1786488
51
344.6886812
0
ARC
8
DEFAULT_255_1_234
10
20.944671
20
-0.3080013
40
0.3348923
50
286.0418249
51
310.8441291
0
ARC
8
DEFAULT_255_1_234
10
20.8939542
20
-0.1433193
40
0.5071869
50
274.1042341
51
286.4071509
0
ARC
8
DEFAULT_255_1_234
10
20.8762798
20
0.0450229
40
0.6963234
50
269.9236873
51
274.445647
0
ARC
8
DEFAULT_255_1_234
10
20.8808799
20
-0.1889463
40
0.3362634
50
269.6055768
51
281.3740047
0
ARC
8
DEFAULT_255_1_234
10
20.9039437
20
-0.2982647
40
0.224546
50
281.1055983
51
302.5132223
0
ARC
8
DEFAULT_255_1_234
10
20.9186336
20
-0.3246177
40
0.1944357
50
303.0368945
51
311.8811219
0
ARC
8
DEFAULT_255_1_234
10
20.9257743
20
-0.333111
40
0.1833454
50
311.9916004
51
351.7143462
0
ARC
8
DEFAULT_255_1_234
10
20.8440973
20
-0.316607
40
0.2665871
50
350.7339597
51
0.2221581
0
ARC
8
DEFAULT_255_1_234
10
20.8333419
20
-0.3109533
40
0.2773789
50
359.0456241
51
17.2296242
0
ARC
8
DEFAULT_255_1_234
10
20.9372536
20
-0.2800837
40
0.1689915
50
17.6685481
51
78.9940892
0
ARC
8
DEFAULT_255_1_234
10
20.88557
20
-0.4655776
40
0.3612658
50
76.5635957
51
90.6980921
0
LINE
8
DEFAULT_255_1_234
10
20.8811684
20
-0.1043387
11
20.8809746
21
-0.1043386
0
ARC
8
DEFAULT_255_1_234
10
20.859136
20
0.3479036
40
0.3285612
50
269.6064736
51
281.4533503
0
ARC
8
DEFAULT_255_1_234
10
20.881418
20
0.2427688
40
0.2210975
50
281.2041486
51
302.5148063
0
ARC
8
DEFAULT_255_1_234
10
20.895103
20
0.2181241
40
0.1929674
50
303.021671
51
309.8369575
0
ARC
8
DEFAULT_255_1_234
10
20.9134491
20
0.1975488
40
0.1654181
50
309.5228395
51
356.9509836
0
ARC
8
DEFAULT_255_1_234
10
20.8471073
20
0.2070932
40
0.2322512
50
355.4701227
51
0.0492546
0
ARC
8
DEFAULT_255_1_234
10
20.8192165
20
0.2093094
40
0.2601498
50
359.5558597
51
11.2096359
0
ARC
8
DEFAULT_255_1_234
10
20.9149455
20
0.229123
40
0.1623975
50
10.9182341
51
31.3230275
0
ARC
8
DEFAULT_255_1_234
10
20.9435188
20
0.2450214
40
0.1297302
50
31.8852677
51
52.1412565
0
ARC
8
DEFAULT_255_1_234
10
20.9160921
20
0.206275
40
0.1771663
50
52.8285564
51
71.9850297
0
ARC
8
DEFAULT_255_1_234
10
20.8785097
20
0.0956664
40
0.2939794
50
71.6863486
51
82.8455995
0
ARC
8
DEFAULT_255_1_234
10
20.8545633
20
-0.0852851
40
0.476506
50
82.6984714
51
90.1729175
0
ARC
8
DEFAULT_255_1_234
10
20.8523268
20
0.0370623
40
0.3541573
50
89.8708275
51
90.0431131
0
LINE
8
DEFAULT_255_1_234
10
22.1885416
20
0.0402327
11
22.1885416
21
-0.1525291
0
LINE
8
DEFAULT_255_1_234
10
21.4504248
20
-0.1726084
11
21.4504248
21
0.0257755
0
LINE
8
DEFAULT_255_1_234
10
22.0399544
20
-0.1926877
11
22.0399544
21
0.0506739
0
LINE
8
DEFAULT_255_1_234
10
21.599012
20
0.0619184
11
21.599012
21
-0.1758211
0
ARC
8
DEFAULT_255_1_234
10
20.9638305
20
-0.1574195
40
1.2247208
50
353.8441951
51
0.2287902
0
ARC
8
DEFAULT_255_1_234
10
21.4277809
20
-0.2092194
40
0.7578929
50
344.4934747
51
353.9765454
0
ARC
8
DEFAULT_255_1_234
10
21.7270399
20
-0.2943019
40
0.4467846
50
329.2803592
51
344.7472793
0
ARC
8
DEFAULT_255_1_234
10
21.8263224
20
-0.3487982
40
0.3336173
50
324.9352394
51
328.6160465
0
ARC
8
DEFAULT_255_1_234
10
21.8640333
20
-0.3751573
40
0.2876076
50
280.580143
51
324.9173126
0
ARC
8
DEFAULT_255_1_234
10
21.8239125
20
-0.2080901
40
0.4592847
50
269.5977311
51
281.6734359
0
ARC
8
DEFAULT_255_1_234
10
21.8167031
20
-0.2200827
40
0.4472986
50
256.6228859
51
270.51044
0
ARC
8
DEFAULT_255_1_234
10
21.7765009
20
-0.3749123
40
0.2873874
50
215.8618325
51
257.2788573
0
ARC
8
DEFAULT_255_1_234
10
21.878604
20
-0.3064023
40
0.4102928
50
197.9693508
51
215.2623606
0
ARC
8
DEFAULT_255_1_234
10
22.1271156
20
-0.2225291
40
0.6725652
50
187.8816417
51
198.2346507
0
ARC
8
DEFAULT_255_1_234
10
22.5229364
20
-0.1653921
40
1.0724845
50
180.8976217
51
188.0055519
0
ARC
8
DEFAULT_255_1_234
10
22.8029552
20
-0.1550223
40
1.3526448
50
180.7449369
51
181.1510016
0
ARC
8
DEFAULT_255_1_234
10
22.6452281
20
0.0306042
40
1.1948131
50
173.7675579
51
180.231553
0
ARC
8
DEFAULT_255_1_234
10
22.1934428
20
0.0816666
40
0.7401564
50
164.3058563
51
173.9002247
0
ARC
8
DEFAULT_255_1_234
10
21.9022497
20
0.1655656
40
0.4371288
50
148.7922025
51
164.568378
0
ARC
8
DEFAULT_255_1_234
10
21.8070949
20
0.2186929
40
0.3282386
50
144.5883898
51
148.1176286
0
ARC
8
DEFAULT_255_1_234
10
21.7727847
20
0.2426315
40
0.2864044
50
101.6440918
51
144.514236
0
ARC
8
DEFAULT_255_1_234
10
21.8152914
20
0.0737069
40
0.4604934
50
89.5284041
51
102.5819763
0
ARC
8
DEFAULT_255_1_234
10
21.8232001
20
0.0698018
40
0.464401
50
77.0437873
51
90.5081339
0
ARC
8
DEFAULT_255_1_234
10
21.8634003
20
0.2340615
40
0.2953195
50
48.2778575
51
77.4994676
0
ARC
8
DEFAULT_255_1_234
10
21.8706634
20
0.2469746
40
0.2808655
50
36.3142134
51
47.6305865
0
ARC
8
DEFAULT_255_1_234
10
21.7837941
20
0.1884515
40
0.3855453
50
18.2931786
51
35.6769206
0
ARC
8
DEFAULT_255_1_234
10
21.52947
20
0.1011593
40
0.654423
50
8.024666
51
18.5605216
0
ARC
8
DEFAULT_255_1_234
10
21.113162
20
0.0396792
40
1.0752407
50
1.1274072
51
8.1718305
0
ARC
8
DEFAULT_255_1_234
10
20.7895811
20
0.0269885
40
1.3990231
50
0.5424119
51
1.3863029
0
ARC
8
DEFAULT_255_1_234
10
20.9717189
20
0.0542342
40
1.0682415
50
359.8090433
51
4.9407866
0
ARC
8
DEFAULT_255_1_234
10
21.3927203
20
0.0918113
40
0.6455691
50
4.8362157
51
12.2904523
0
ARC
8
DEFAULT_255_1_234
10
21.6682317
20
0.1531965
40
0.3633074
50
12.0805627
51
23.8173984
0
ARC
8
DEFAULT_255_1_234
10
21.7856023
20
0.2028919
40
0.2358723
50
24.2871213
51
31.3935614
0
ARC
8
DEFAULT_255_1_234
10
21.838072
20
0.2372233
40
0.1732111
50
30.7407893
51
82.4657128
0
ARC
8
DEFAULT_255_1_234
10
21.8200854
20
0.1488691
40
0.263235
50
81.1060089
51
90.2184952
0
ARC
8
DEFAULT_255_1_234
10
21.8165153
20
0.1746924
40
0.2374236
50
89.3806855
51
105.6762551
0
ARC
8
DEFAULT_255_1_234
10
21.7981784
20
0.2413567
40
0.1682847
50
105.7981136
51
149.7388061
0
ARC
8
DEFAULT_255_1_234
10
21.9045862
20
0.177395
40
0.2924306
50
149.4208916
51
163.6286378
0
ARC
8
DEFAULT_255_1_234
10
22.113675
20
0.113625
40
0.5110213
50
163.3763315
51
172.1410975
0
ARC
8
DEFAULT_255_1_234
10
22.4437469
20
0.0663518
40
0.8444586
50
172.0259487
51
178.0703232
0
ARC
8
DEFAULT_255_1_234
10
22.7467559
20
0.0519906
40
1.1477868
50
177.8631668
51
179.5044149
0
ARC
8
DEFAULT_255_1_234
10
22.6394963
20
-0.1794611
40
1.0404907
50
179.7995573
51
185.2460446
0
ARC
8
DEFAULT_255_1_234
10
22.2352002
20
-0.2177487
40
0.6343885
50
185.1411642
51
193.0079639
0
ARC
8
DEFAULT_255_1_234
10
21.9708475
20
-0.2802359
40
0.3627568
50
192.7897626
51
205.2507664
0
ARC
8
DEFAULT_255_1_234
10
21.8662022
20
-0.3269585
40
0.2481908
50
205.8005384
51
211.2537509
0
ARC
8
DEFAULT_255_1_234
10
21.8138462
20
-0.362042
40
0.1852521
50
210.3789793
51
238.4008143
0
ARC
8
DEFAULT_255_1_234
10
21.8118984
20
-0.3573624
40
0.1882621
50
239.6520629
51
265.9793761
0
ARC
8
DEFAULT_255_1_234
10
21.8204185
20
-0.2901573
40
0.2559272
50
265.1315437
51
270.060332
0
ARC
8
DEFAULT_255_1_234
10
21.8232963
20
-0.3225466
40
0.2235528
50
269.3314664
51
287.2178029
0
ARC
8
DEFAULT_255_1_234
10
21.8370815
20
-0.3728721
40
0.1714108
50
287.7958004
51
329.080874
0
ARC
8
DEFAULT_255_1_234
10
21.7413272
20
-0.313107
40
0.2842745
50
328.6634704
51
343.3325132
0
ARC
8
DEFAULT_255_1_234
10
21.5240292
20
-0.2454137
40
0.5118644
50
343.0499468
51
351.9393422
0
ARC
8
DEFAULT_255_1_234
10
21.1773592
20
-0.1943051
40
0.8622784
50
351.8069023
51
357.7959224
0
ARC
8
DEFAULT_255_1_234
10
20.8538148
20
-0.1775279
40
1.1862365
50
357.5871873
51
359.2677531
0
ARC
8
DEFAULT_255_2_778
10
7.7537338
20
52.3387992
40
3.0484709
50
251.6854144
51
258.6071955
0
ARC
8
DEFAULT_255_2_778
10
7.539521
20
51.2571738
40
1.9458471
50
258.4992492
51
268.3986479
0
ARC
8
DEFAULT_255_2_778
10
7.5172314
20
50.8269206
40
1.5151737
50
268.7865272
51
269.9950384
0
ARC
8
DEFAULT_255_2_778
10
7.5277432
20
50.3757355
40
1.0640417
50
269.426895
51
279.6711067
0
ARC
8
DEFAULT_255_2_778
10
7.6417753
20
49.7461746
40
0.4243233
50
278.7731084
51
300.3324923
0
ARC
8
DEFAULT_255_2_778
10
7.760746
20
49.5435552
40
0.1893587
50
300.2240287
51
1.9041213
0
ARC
8
DEFAULT_255_2_778
10
7.7452705
20
49.5527089
40
0.2047497
50
359.1991369
51
359.99965
0
ARC
8
DEFAULT_255_2_778
10
7.7523233
20
49.5535378
40
0.1976988
50
359.7594145
51
47.1793976
0
ARC
8
DEFAULT_255_2_778
10
7.6187277
20
49.404931
40
0.3975169
50
47.6144502
51
60.8366176
0
ARC
8
DEFAULT_255_2_778
10
7.0190958
20
48.3889865
40
1.5771337
50
59.799464
51
64.8885807
0
ARC
8
DEFAULT_255_2_778
10
6.0948833
20
46.4599682
40
3.7160912
50
64.6076081
51
66.8386974
0
ARC
8
DEFAULT_255_2_778
10
9.6419609
20
54.8230052
40
5.368109
50
244.3032309
51
247.1393781
0
ARC
8
DEFAULT_255_2_778
10
8.5507088
20
52.563018
40
2.8584574
50
240.2323579
51
244.3709759
0
ARC
8
DEFAULT_255_2_778
10
7.7800475
20
51.2261591
40
1.315392
50
233.2209971
51
240.4606284
0
ARC
8
DEFAULT_255_2_778
10
7.3561477
20
50.6550187
40
0.6041399
50
225.6990744
51
232.9899679
0
ARC
8
DEFAULT_255_2_778
10
7.3965073
20
50.6794214
40
0.6499005
50
178.2783416
51
224.6550883
0
ARC
8
DEFAULT_255_2_778
10
7.5059624
20
50.7127974
40
0.7591885
50
157.033673
51
181.0453383
0
ARC
8
DEFAULT_255_2_778
10
7.378439
20
50.7536396
40
0.6259551
50
124.9113017
51
155.9211516
0
ARC
8
DEFAULT_255_2_778
10
7.5960466
20
50.4450681
40
1.0035357
50
100.4079723
51
125.0168617
0
ARC
8
DEFAULT_255_2_778
10
7.6991199
20
49.9510046
40
1.5081396
50
89.6483922
51
100.8684975
0
ARC
8
DEFAULT_255_2_778
10
7.7083242
20
49.5987988
40
1.8603169
50
89.5079487
51
89.9984402
0
ARC
8
DEFAULT_255_2_778
10
7.7099573
20
49.5335694
40
1.9255311
50
83.9170631
51
89.5732113
0
ARC
8
DEFAULT_255_2_778
10
7.5071517
20
47.5259957
40
3.9433074
50
80.7325723
51
84.0779772
0
ARC
8
DEFAULT_255_2_778
10
7.0208457
20
44.503082
40
7.0050837
50
78.5086351
51
80.7886813
0
ARC
8
DEFAULT_255_2_778
10
7.6620177
20
49.1025544
40
1.9415426
50
67.135818
51
78.0934208
0
ARC
8
DEFAULT_255_2_778
10
7.7851814
20
49.6729809
40
1.3579807
50
78.2126325
51
89.7333975
0
ARC
8
DEFAULT_255_2_778
10
7.7793853
20
50.0881211
40
0.9429038
50
89.2638155
51
100.5666868
0
ARC
8
DEFAULT_255_2_778
10
7.6660949
20
50.6579419
40
0.362036
50
99.4784875
51
124.329414
0
ARC
8
DEFAULT_255_2_778
10
7.5705593
20
50.806051
40
0.1859067
50
125.7571195
51
182.2824883
0
ARC
8
DEFAULT_255_2_778
10
7.5493239
20
50.7993629
40
0.1645253
50
180.2492993
51
239.8144161
0
ARC
8
DEFAULT_255_2_778
10
7.932718
20
51.3994128
40
0.876484
50
237.8725734
51
242.8068846
0
ARC
8
DEFAULT_255_2_778
10
9.4175857
20
54.2159958
40
4.0604642
50
242.3328458
51
244.031083
0
ARC
8
DEFAULT_255_2_778
10
12.3804066
20
60.2644314
40
10.7955807
50
243.950624
51
244.8024316
0
ARC
8
DEFAULT_255_2_778
10
15.4009918
20
66.6484175
40
17.8580926
50
244.7535425
51
244.9563234
0
ARC
8
DEFAULT_255_2_778
10
5.8652927
20
46.1468264
40
4.7527588
50
62.2505456
51
65.4301556
0
ARC
8
DEFAULT_255_2_778
10
6.9275435
20
48.1549172
40
2.4810291
50
57.2951304
51
62.3684211
0
ARC
8
DEFAULT_255_2_778
10
7.6807233
20
49.3182235
40
1.0952081
50
48.7345704
51
57.5685367
0
ARC
8
DEFAULT_255_2_778
10
8.0117486
20
49.7057722
40
0.5856147
50
44.3236031
51
48.0704418
0
ARC
8
DEFAULT_255_2_778
10
7.9783002
20
49.6857468
40
0.6236013
50
1.3523843
51
43.4925744
0
ARC
8
DEFAULT_255_2_778
10
7.7103531
20
49.6528151
40
0.8926473
50
359.9763756
51
3.0599076
0
ARC
8
DEFAULT_255_2_778
10
7.8645343
20
49.6377407
40
0.7386124
50
333.0361889
51
1.1408766
0
ARC
8
DEFAULT_255_2_778
10
7.8947908
20
49.6446919
40
0.7150741
50
300.8430083
51
331.4403095
0
ARC
8
DEFAULT_255_2_778
10
7.694568
20
49.9582162
40
1.0869673
50
281.4258583
51
301.4316118
0
ARC
8
DEFAULT_255_2_778
10
7.5632666
20
50.5664414
40
1.7091691
50
270.2273513
51
281.7010805
0
ARC
8
DEFAULT_255_2_778
10
7.5453797
20
51.0431043
40
2.1859577
50
269.9983113
51
270.6466065
0
LINE
8
DEFAULT_255_2_778
10
7.5453153
20
48.8571465
11
7.5438002
21
48.857147
0
ARC
8
DEFAULT_255_2_778
10
7.5509161
20
52.0400969
40
3.1829579
50
256.2431122
51
269.871909
0
ARC
8
DEFAULT_255_2_778
10
21.7538511
20
52.2646629
40
2.9720345
50
251.5709223
51
258.7508181
0
ARC
8
DEFAULT_255_2_778
10
21.5538128
20
51.2414385
40
1.9294488
50
258.6495077
51
268.8281511
0
ARC
8
DEFAULT_255_2_778
10
21.5355488
20
50.8466193
40
1.5343723
50
269.2085037
51
269.9981866
0
ARC
8
DEFAULT_255_2_778
10
21.5473849
20
50.3782184
40
1.0660376
50
269.3612297
51
279.5899087
0
ARC
8
DEFAULT_255_2_778
10
21.6608439
20
49.7467324
40
0.424527
50
278.6895227
51
300.2363944
0
ARC
8
DEFAULT_255_2_778
10
21.7799083
20
49.5432793
40
0.188796
50
300.1108484
51
1.9024905
0
ARC
8
DEFAULT_255_2_778
10
21.7439577
20
49.5539221
40
0.2246851
50
358.8842611
51
0.0019649
0
ARC
8
DEFAULT_255_2_778
10
21.7769791
20
49.5578385
40
0.1917038
50
358.831716
51
47.0900458
0
ARC
8
DEFAULT_255_2_778
10
21.6364654
20
49.398484
40
0.4041259
50
47.8812665
51
61.174665
0
ARC
8
DEFAULT_255_2_778
10
21.0418848
20
48.3785117
40
1.5846568
50
60.1210877
51
65.1917015
0
ARC
8
DEFAULT_255_2_778
10
20.1415278
20
46.4729122
40
3.6922188
50
64.9168629
51
67.1565628
0
ARC
8
DEFAULT_255_2_778
10
23.6275467
20
54.7444888
40
5.2839333
50
244.2656926
51
247.1407051
0
ARC
8
DEFAULT_255_2_778
10
22.5594997
20
52.536265
40
2.8309849
50
240.1545061
51
244.3326325
0
ARC
8
DEFAULT_255_2_778
10
21.7856548
20
51.2002346
40
1.2870531
50
232.697515
51
240.4357497
0
ARC
8
DEFAULT_255_2_778
10
21.3705506
20
50.6492218
40
0.5972006
50
225.5850892
51
232.3393736
0
ARC
8
DEFAULT_255_2_778
10
21.4133941
20
50.6787933
40
0.6483829
50
178.7795739
51
224.7095916
0
ARC
8
DEFAULT_255_2_778
10
21.6669319
20
50.7028135
40
0.9018316
50
179.997867
51
180.6487041
0
ARC
8
DEFAULT_255_2_778
10
21.5167738
20
50.7166249
40
0.7517998
50
156.9195758
51
181.050088
0
ARC
8
DEFAULT_255_2_778
10
21.3928482
20
50.7560712
40
0.6224513
50
124.7111133
51
155.7879672
0
ARC
8
DEFAULT_255_2_778
10
21.6055459
20
50.4641942
40
0.9835402
50
101.7934503
51
125.2143527
0
ARC
8
DEFAULT_255_2_778
10
21.729848
20
49.9116326
40
1.5498677
50
89.5248728
51
102.1166783
0
ARC
8
DEFAULT_255_2_778
10
21.7283109
20
49.3580834
40
2.1034129
50
83.2889725
51
89.6080411
0
ARC
8
DEFAULT_255_2_778
10
21.529975
20
47.5902668
40
3.8823067
50
79.4764054
51
83.4308492
0
ARC
8
DEFAULT_255_2_778
10
21.2186357
20
45.8370673
40
5.6628977
50
78.2224868
51
79.6190915
0
ARC
8
DEFAULT_255_2_778
10
21.6838473
20
49.1145715
40
1.9311543
50
67.1323814
51
78.3148813
0
ARC
8
DEFAULT_255_2_778
10
21.801359
20
49.6660614
40
1.3672981
50
78.4565774
51
89.7552271
0
ARC
8
DEFAULT_255_2_778
10
21.7951366
20
50.096947
40
0.9364778
50
89.2619009
51
100.5950934
0
ARC
8
DEFAULT_255_2_778
10
21.6824182
20
50.6624169
40
0.3599879
50
99.5087086
51
124.406715
0
ARC
8
DEFAULT_255_2_778
10
21.5878565
20
50.808843
40
0.1858061
50
125.8630185
51
182.2986975
0
ARC
8
DEFAULT_255_2_778
10
21.5497296
20
50.8013047
40
0.1475296
50
179.9666559
51
180.100057
0
ARC
8
DEFAULT_255_2_778
10
21.566185
20
50.801293
40
0.163985
50
180.0859454
51
239.8819968
0
ARC
8
DEFAULT_255_2_778
10
21.9379018
20
51.3880619
40
0.8584853
50
238.072871
51
243.0442008
0
ARC
8
DEFAULT_255_2_778
10
23.4872034
20
54.3530845
40
4.2038426
50
242.5409111
51
244.1884903
0
ARC
8
DEFAULT_255_2_778
10
26.6463384
20
60.847696
40
11.4260319
50
244.1076525
51
244.9219574
0
ARC
8
DEFAULT_255_2_778
10
29.9038827
20
67.771355
40
19.0777309
50
244.8743531
51
245.066969
0
ARC
8
DEFAULT_255_2_778
10
19.8865272
20
46.1791274
40
4.7250654
50
62.0340028
51
65.293009
0
ARC
8
DEFAULT_255_2_778
10
20.9507744
20
48.1740758
40
2.464003
50
57.1127289
51
62.13736
0
ARC
8
DEFAULT_255_2_778
10
21.7037139
20
49.3277906
40
1.0863604
50
48.3695509
51
57.4197129
0
ARC
8
DEFAULT_255_2_778
10
22.0286268
20
49.7045419
40
0.5889589
50
44.472493
51
47.6467012
0
ARC
8
DEFAULT_255_2_778
10
21.9979457
20
49.6874032
40
0.6229283
50
1.2061613
51
43.6203607
0
ARC
8
DEFAULT_255_2_778
10
21.7312413
20
49.6549903
40
0.890659
50
359.9779196
51
2.9299178
0
ARC
8
DEFAULT_255_2_778
10
21.8802547
20
49.6398837
40
0.7417924
50
333.172934
51
1.140392
0
ARC
8
DEFAULT_255_2_778
10
21.9146167
20
49.6445736
40
0.7135172
50
300.9808035
51
331.5913995
0
ARC
8
DEFAULT_255_2_778
10
21.7182603
20
49.9544862
40
1.0803281
50
281.9040909
51
301.4483918
0
ARC
8
DEFAULT_255_2_778
10
21.5848425
20
50.5530518
40
1.6935565
50
270.5796874
51
282.1436175
0
ARC
8
DEFAULT_255_2_778
10
21.5636722
20
51.0479735
40
2.1887267
50
269.9959074
51
271.0027751
0
LINE
8
DEFAULT_255_2_778
10
21.5635158
20
48.8592468
11
21.5625002
21
48.859247
0
ARC
8
DEFAULT_255_2_778
10
21.5700221
20
52.0480174
40
3.1887792
50
256.2556596
51
269.8648469
0
LINE
8
DEFAULT_255_2_778
10
6.7958002
20
48.950047
11
6.7958002
21
49.444747
0
LINE
8
DEFAULT_255_2_778
10
8.4164002
20
51.367747
11
8.4164002
21
50.891547
0
LINE
8
DEFAULT_255_2_778
10
6.7940002
20
48.948447
11
6.7958002
21
48.950047
0
LINE
8
DEFAULT_255_2_778
10
8.9866002
20
51.417247
11
9.6629002
21
51.417247
0
LINE
8
DEFAULT_255_2_778
10
9.6629002
20
51.417247
11
9.6629002
21
48.909847
0
LINE
8
DEFAULT_255_2_778
10
9.6629002
20
48.909847
11
8.9866002
21
48.909847
0
LINE
8
DEFAULT_255_2_778
10
8.9866002
20
48.909847
11
8.9866002
21
51.417247
0
LINE
8
DEFAULT_255_2_778
10
10.2809002
20
48.909847
11
10.2809002
21
51.417247
0
LINE
8
DEFAULT_255_2_778
10
10.2809002
20
51.417247
11
12.0132002
21
51.417247
0
LINE
8
DEFAULT_255_2_778
10
12.0132002
20
51.417247
11
12.0132002
21
50.963547
0
LINE
8
DEFAULT_255_2_778
10
12.0132002
20
50.963547
11
10.9321002
21
50.963547
0
LINE
8
DEFAULT_255_2_778
10
10.9321002
20
50.963547
11
10.9321002
21
50.397247
0
LINE
8
DEFAULT_255_2_778
10
10.9321002
20
50.397247
11
11.8735002
21
50.397247
0
LINE
8
DEFAULT_255_2_778
10
11.8735002
20
50.397247
11
11.8735002
21
49.983747
0
LINE
8
DEFAULT_255_2_778
10
11.8735002
20
49.983747
11
10.9321002
21
49.983747
0
LINE
8
DEFAULT_255_2_778
10
10.9321002
20
49.983747
11
10.9321002
21
49.388447
0
LINE
8
DEFAULT_255_2_778
10
10.9321002
20
49.388447
11
12.0412002
21
49.388447
0
LINE
8
DEFAULT_255_2_778
10
12.0412002
20
49.388447
11
12.0412002
21
48.908247
0
LINE
8
DEFAULT_255_2_778
10
12.0412002
20
48.908247
11
10.2809002
21
48.909847
0
LINE
8
DEFAULT_255_2_778
10
12.4817002
20
48.909847
11
12.4817002
21
51.417247
0
LINE
8
DEFAULT_255_2_778
10
12.4817002
20
51.417247
11
13.3575002
21
51.417247
0
LINE
8
DEFAULT_255_2_778
10
13.3575002
20
51.417247
11
13.9671002
21
49.814947
0
LINE
8
DEFAULT_255_2_778
10
13.9671002
20
49.814947
11
14.5897002
21
51.417247
0
LINE
8
DEFAULT_255_2_778
10
14.5897002
20
51.417247
11
15.4215002
21
51.417247
0
LINE
8
DEFAULT_255_2_778
10
15.4215002
20
51.417247
11
15.4215002
21
48.909847
0
LINE
8
DEFAULT_255_2_778
10
15.4215002
20
48.909847
11
14.7812002
21
48.909847
0
LINE
8
DEFAULT_255_2_778
10
14.7812002
20
48.909847
11
14.7812002
21
50.685647
0
LINE
8
DEFAULT_255_2_778
10
14.7812002
20
50.685647
11
14.0724002
21
48.885447
0
LINE
8
DEFAULT_255_2_778
10
14.0724002
20
48.885447
11
13.6515002
21
48.885447
0
LINE
8
DEFAULT_255_2_778
10
13.6515002
20
48.885447
11
12.9559002
21
50.685647
0
LINE
8
DEFAULT_255_2_778
10
12.9559002
20
50.685647
11
12.9559002
21
48.909547
0
LINE
8
DEFAULT_255_2_778
10
12.9559002
20
48.909547
11
12.4817002
21
48.909847
0
LINE
8
DEFAULT_255_2_778
10
16.0409002
20
48.909847
11
16.0409002
21
51.417247
0
LINE
8
DEFAULT_255_2_778
10
16.0409002
20
51.417247
11
17.7731002
21
51.417247
0
LINE
8
DEFAULT_255_2_778
10
17.7731002
20
51.417247
11
17.7731002
21
50.963547
0
LINE
8
DEFAULT_255_2_778
10
17.7731002
20
50.963547
11
16.6921002
21
50.963547
0
LINE
8
DEFAULT_255_2_778
10
16.6921002
20
50.963547
11
16.6921002
21
50.397247
0
LINE
8
DEFAULT_255_2_778
10
16.6921002
20
50.397247
11
17.6334002
21
50.397247
0
LINE
8
DEFAULT_255_2_778
10
17.6334002
20
50.397247
11
17.6334002
21
49.983747
0
LINE
8
DEFAULT_255_2_778
10
17.6334002
20
49.983747
11
16.6921002
21
49.983747
0
LINE
8
DEFAULT_255_2_778
10
16.6921002
20
49.983747
11
16.6921002
21
49.388447
0
LINE
8
DEFAULT_255_2_778
10
16.6921002
20
49.388447
11
17.8030002
21
49.388447
0
LINE
8
DEFAULT_255_2_778
10
17.8030002
20
49.388447
11
17.8030002
21
48.908247
0
LINE
8
DEFAULT_255_2_778
10
17.8030002
20
48.908247
11
16.0409002
21
48.909847
0
LINE
8
DEFAULT_255_2_778
10
18.2454002
20
48.909847
11
18.2454002
21
51.417247
0
LINE
8
DEFAULT_255_2_778
10
18.2454002
20
51.417247
11
19.0283002
21
51.417247
0
LINE
8
DEFAULT_255_2_778
10
19.0283002
20
51.417247
11
19.8586002
21
49.738447
0
LINE
8
DEFAULT_255_2_778
10
19.8586002
20
49.738447
11
19.8586002
21
51.417247
0
LINE
8
DEFAULT_255_2_778
10
19.8586002
20
51.417247
11
20.3343002
21
51.417247
0
LINE
8
DEFAULT_255_2_778
10
20.3343002
20
51.417247
11
20.3343002
21
48.909847
0
LINE
8
DEFAULT_255_2_778
10
20.3343002
20
48.909847
11
19.5739002
21
48.909847
0
LINE
8
DEFAULT_255_2_778
10
19.5739002
20
48.909847
11
18.7214002
21
50.611047
0
LINE
8
DEFAULT_255_2_778
10
18.7214002
20
50.611047
11
18.7214002
21
48.909847
0
LINE
8
DEFAULT_255_2_778
10
18.7214002
20
48.909847
11
18.2454002
21
48.909847
0
LINE
8
DEFAULT_255_2_778
10
20.8143002
20
48.950247
11
20.8143002
21
49.445047
0
LINE
8
DEFAULT_255_2_778
10
22.3745002
20
51.380747
11
22.4343002
21
51.370147
0
LINE
8
DEFAULT_255_2_778
10
22.4343002
20
51.370147
11
22.4343002
21
50.893947
0
LINE
8
DEFAULT_255_2_778
10
20.8124002
20
48.950547
11
20.8143002
21
48.950247
0
LINE
8
DEFAULT_255_1_234
10
8.1050023
20
47.1434849
11
7.9499897
21
47.1434849
0
LINE
8
DEFAULT_255_1_234
10
7.2576539
20
46.6511394
11
7.4126665
21
46.6511394
0
ARC
8
DEFAULT_255_1_234
10
8.015871
20
48.0381768
40
1.252368
50
248.9199003
51
254.1439814
0
ARC
8
DEFAULT_255_1_234
10
7.8478205
20
47.6055234
40
0.788226
50
241.633709
51
249.0064503
0
ARC
8
DEFAULT_255_1_234
10
7.69496
20
47.3254317
40
0.4691427
50
230.498225
51
241.8087113
0
ARC
8
DEFAULT_255_1_234
10
7.6165174
20
47.2254906
40
0.3421437
50
227.4064532
51
229.9881192
0
ARC
8
DEFAULT_255_1_234
10
7.5677694
20
47.1779088
40
0.2741476
50
200.6781896
51
228.1763934
0
ARC
8
DEFAULT_255_1_234
10
7.5750005
20
47.1764077
40
0.2804109
50
179.5061581
51
199.8694617
0
ARC
8
DEFAULT_255_1_234
10
7.5740757
20
47.183821
40
0.2795204
50
132.4834203
51
181.0242172
0
ARC
8
DEFAULT_255_1_234
10
7.6336339
20
47.1275704
40
0.3612768
50
129.2532479
51
133.4242687
0
ARC
8
DEFAULT_255_1_234
10
7.6482789
20
47.1055965
40
0.3875675
50
101.98776
51
128.8742646
0
ARC
8
DEFAULT_255_1_234
10
7.6881399
20
46.9334741
40
0.5642249
50
89.5906553
51
102.3169264
0
ARC
8
DEFAULT_255_1_234
10
7.6951891
20
46.9653148
40
0.5323783
50
77.2360837
51
90.3248275
0
ARC
8
DEFAULT_255_1_234
10
7.7158971
20
47.06204
40
0.4334697
50
63.837784
51
77.0809408
0
ARC
8
DEFAULT_255_1_234
10
7.7436732
20
47.1137911
40
0.3747796
50
45.9864267
51
64.1607727
0
ARC
8
DEFAULT_255_1_234
10
7.7697614
20
47.1435866
40
0.3352302
50
32.2747395
51
45.6547121
0
ARC
8
DEFAULT_255_1_234
10
7.7764054
20
47.145488
40
0.328603
50
359.6507365
51
32.6130309
0
ARC
8
DEFAULT_255_1_234
10
7.682115
20
47.145966
40
0.2678863
50
359.469343
51
14.9832209
0
ARC
8
DEFAULT_255_1_234
10
7.7526212
20
47.1648539
40
0.1948938
50
14.9781179
51
48.2004265
0
ARC
8
DEFAULT_255_1_234
10
7.7361856
20
47.1441983
40
0.2212521
50
48.5927837
51
74.1241538
0
ARC
8
DEFAULT_255_1_234
10
7.7028346
20
47.0341248
40
0.3362561
50
73.7888341
51
86.6652678
0
ARC
8
DEFAULT_255_1_234
10
7.6925911
20
46.9133881
40
0.4573953
50
86.2640471
51
90.0526343
0
ARC
8
DEFAULT_255_1_234
10
7.6897624
20
46.9529192
40
0.4178709
50
89.6697524
51
99.2309573
0
ARC
8
DEFAULT_255_1_234
10
7.6655075
20
47.0973964
40
0.2713749
50
99.069534
51
113.7658566
0
ARC
8
DEFAULT_255_1_234
10
7.6381266
20
47.1619677
40
0.2012469
50
114.0401004
51
127.9850673
0
ARC
8
DEFAULT_255_1_234
10
7.614083
20
47.191573
40
0.1631167
50
127.7287463
51
176.7105154
0
ARC
8
DEFAULT_255_1_234
10
7.6819547
20
47.1814693
40
0.2315392
50
175.1779447
51
180.0581938
0
ARC
8
DEFAULT_255_1_234
10
7.5976394
20
47.1802428
40
0.1472271
50
179.6142195
51
228.1246017
0
ARC
8
DEFAULT_255_1_234
10
7.6418063
20
47.2211308
40
0.2072299
50
226.5779593
51
230.8800004
0
ARC
8
DEFAULT_255_1_234
10
7.6889141
20
47.2836636
40
0.2854818
50
231.4635071
51
241.9260842
0
ARC
8
DEFAULT_255_1_234
10
7.8086319
20
47.50398
40
0.53622
50
241.7178533
51
248.3259551
0
ARC
8
DEFAULT_255_1_234
10
7.9471691
20
47.8472064
40
0.9063478
50
248.2007737
51
252.4528373
0
ARC
8
DEFAULT_255_1_234
10
8.0675416
20
48.2193441
40
1.2974635
50
252.3391078
51
254.3469452
0
ARC
8
DEFAULT_255_1_234
10
7.3133119
20
45.5216148
40
1.5037162
50
71.0197183
51
74.4087047
0
ARC
8
DEFAULT_255_1_234
10
7.4827804
20
46.0108111
40
0.9859993
50
66.1847285
51
71.086374
0
ARC
8
DEFAULT_255_1_234
10
7.6384116
20
46.36122
40
0.6025855
50
59.3536294
51
66.2691831
0
ARC
8
DEFAULT_255_1_234
10
7.7272769
20
46.5115609
40
0.4279449
50
49.1020879
51
59.3293958
0
ARC
8
DEFAULT_255_1_234
10
7.8091509
20
46.6048834
40
0.3038015
50
32.7919921
51
49.2505539
0
ARC
8
DEFAULT_255_1_234
10
7.8412599
20
46.6277191
40
0.264448
50
31.1181161
51
32.4005348
0
ARC
8
DEFAULT_255_1_234
10
7.8324136
20
46.6241779
40
0.2738556
50
8.1116974
51
30.7958831
0
ARC
8
DEFAULT_255_1_234
10
7.7513804
20
46.6103753
40
0.3560327
50
359.8389159
51
8.4706516
0
ARC
8
DEFAULT_255_1_234
10
7.8139596
20
46.6055137
40
0.2934776
50
337.4731098
51
0.7537279
0
ARC
8
DEFAULT_255_1_234
10
7.8318291
20
46.6035387
40
0.2762607
50
307.5917067
51
336.4315538
0
ARC
8
DEFAULT_255_1_234
10
7.7858119
20
46.6548102
40
0.3449979
50
307.6551545
51
308.4529766
0
ARC
8
DEFAULT_255_1_234
10
7.7627838
20
46.690325
40
0.3871988
50
284.3734338
51
307.1424381
0
ARC
8
DEFAULT_255_1_234
10
7.7132668
20
46.8724932
40
0.5759636
50
272.4382747
51
284.646547
0
ARC
8
DEFAULT_255_1_234
10
7.7005876
20
47.0524893
40
0.7563528
50
269.9708387
51
272.8178037
0
ARC
8
DEFAULT_255_1_234
10
7.6962916
20
46.8486716
40
0.5525489
50
248.2707594
51
270.4055579
0
ARC
8
DEFAULT_255_1_234
10
7.6908657
20
46.8296192
40
0.5328452
50
246.1383403
51
248.0542782
0
ARC
8
DEFAULT_255_1_234
10
7.6490036
20
46.7416843
40
0.4355005
50
233.1670131
51
246.4950969
0
ARC
8
DEFAULT_255_1_234
10
7.5935941
20
46.6668812
40
0.3424126
50
215.3403242
51
233.0843104
0
ARC
8
DEFAULT_255_1_234
10
7.5663372
20
46.6470549
40
0.3087104
50
179.2419209
51
215.2648451
0
ARC
8
DEFAULT_255_1_234
10
7.6430966
20
46.6484666
40
0.2304457
50
179.335461
51
199.1045811
0
ARC
8
DEFAULT_255_1_234
10
7.6098643
20
46.6397766
40
0.1962176
50
199.8828939
51
232.7063202
0
ARC
8
DEFAULT_255_1_234
10
7.6570911
20
46.6991788
40
0.2720938
50
232.3738199
51
255.5136649
0
ARC
8
DEFAULT_255_1_234
10
7.6911778
20
46.8235835
40
0.4010747
50
255.2446292
51
267.5320849
0
ARC
8
DEFAULT_255_1_234
10
7.6999401
20
46.9468702
40
0.5246356
50
267.1557994
51
270.0286766
0
ARC
8
DEFAULT_255_1_234
10
7.7027173
20
46.902495
40
0.4802668
50
269.7000017
51
278.1660162
0
ARC
8
DEFAULT_255_1_234
10
7.7283178
20
46.7294515
40
0.3053425
50
278.0231263
51
290.625471
0
ARC
8
DEFAULT_255_1_234
10
7.7630865
20
46.6367025
40
0.206291
50
290.6619762
51
307.0370976
0
ARC
8
DEFAULT_255_1_234
10
7.7931254
20
46.5998504
40
0.1587906
50
306.3943566
51
355.3030547
0
ARC
8
DEFAULT_255_1_234
10
7.7419186
20
46.6075113
40
0.2104809
50
354.3660432
51
0.0698737
0
ARC
8
DEFAULT_255_1_234
10
7.7561531
20
46.6097617
40
0.1962563
50
359.417946
51
16.1971788
0
ARC
8
DEFAULT_255_1_234
10
7.8016841
20
46.6222418
40
0.149053
50
16.4723299
51
52.6262157
0
ARC
8
DEFAULT_255_1_234
10
7.7195895
20
46.5138433
40
0.2850296
50
52.7386432
51
62.4979148
0
ARC
8
DEFAULT_255_1_234
10
7.5810972
20
46.2532283
40
0.5801521
50
62.2515216
51
68.1220564
0
ARC
8
DEFAULT_255_1_234
10
7.4090883
20
45.8304872
40
1.0365451
50
68.0062803
51
71.8053402
0
ARC
8
DEFAULT_255_1_234
10
7.2295255
20
45.2919758
40
1.6042013
50
71.7183119
51
73.9258742
0
LINE
8
DEFAULT_255_1_234
10
8.4704464
20
47.4816211
11
8.4704464
21
46.3122
0
LINE
8
DEFAULT_255_1_234
10
8.4704464
20
46.3122
11
8.316237
21
46.3122
0
LINE
8
DEFAULT_255_1_234
10
8.316237
20
46.3122
11
8.316237
21
47.4816211
0
LINE
8
DEFAULT_255_1_234
10
8.316237
20
47.4816211
11
8.4704464
21
47.4816211
0
LINE
8
DEFAULT_255_1_234
10
8.7523604
20
47.4816211
11
8.9515475
21
47.4816211
0
LINE
8
DEFAULT_255_1_234
10
8.9515475
20
47.4816211
11
9.3338583
21
46.5274506
0
LINE
8
DEFAULT_255_1_234
10
9.3338583
20
46.5274506
11
9.716169
21
47.4816211
0
LINE
8
DEFAULT_255_1_234
10
9.716169
20
47.4816211
11
9.9161593
21
47.4816211
0
LINE
8
DEFAULT_255_1_234
10
9.9161593
20
47.4816211
11
9.9161593
21
46.3122
0
LINE
8
DEFAULT_255_1_234
10
9.9161593
20
46.3122
11
9.7619499
21
46.3122
0
LINE
8
DEFAULT_255_1_234
10
9.7619499
20
46.3122
11
9.7619499
21
46.7675996
0
LINE
8
DEFAULT_255_1_234
10
9.7619499
20
46.7675996
11
9.776407
21
47.2591419
0
LINE
8
DEFAULT_255_1_234
10
9.776407
20
47.2591419
11
9.3924899
21
46.3122
0
LINE
8
DEFAULT_255_1_234
10
9.3924899
20
46.3122
11
9.2744234
21
46.3122
0
LINE
8
DEFAULT_255_1_234
10
9.2744234
20
46.3122
11
8.8913095
21
47.2567324
0
LINE
8
DEFAULT_255_1_234
10
8.8913095
20
47.2567324
11
8.9065698
21
46.7675996
0
LINE
8
DEFAULT_255_1_234
10
8.9065698
20
46.7675996
11
8.9065698
21
46.3122
0
LINE
8
DEFAULT_255_1_234
10
8.9065698
20
46.3122
11
8.7523604
21
46.3122
0
LINE
8
DEFAULT_255_1_234
10
8.7523604
20
46.3122
11
8.7523604
21
47.4816211
0
LINE
8
DEFAULT_255_1_234
10
10.9602853
20
46.3122
11
10.8486441
21
46.6174061
0
LINE
8
DEFAULT_255_1_234
10
10.8486441
20
46.6174061
11
10.3587081
21
46.6174061
0
LINE
8
DEFAULT_255_1_234
10
10.3587081
20
46.6174061
11
10.2486732
21
46.3122
0
LINE
8
DEFAULT_255_1_234
10
10.2486732
20
46.3122
11
10.0896448
21
46.3122
0
LINE
8
DEFAULT_255_1_234
10
10.0896448
20
46.3122
11
10.5362095
21
47.4816211
0
LINE
8
DEFAULT_255_1_234
10
10.5362095
20
47.4816211
11
10.6711427
21
47.4816211
0
LINE
8
DEFAULT_255_1_234
10
10.6711427
20
47.4816211
11
11.1185105
21
46.3122
0
LINE
8
DEFAULT_255_1_234
10
11.1185105
20
46.3122
11
10.9602853
21
46.3122
0
LINE
8
DEFAULT_255_1_234
10
10.6036761
20
47.2912689
11
10.4052921
21
46.7443075
0
LINE
8
DEFAULT_255_1_234
10
10.4052921
20
46.7443075
11
10.8028632
21
46.7443075
0
LINE
8
DEFAULT_255_1_234
10
10.8028632
20
46.7443075
11
10.6036761
21
47.2912689
0
LINE
8
DEFAULT_255_1_234
10
11.980316
20
47.4816211
11
11.980316
21
47.3547196
0
LINE
8
DEFAULT_255_1_234
10
11.980316
20
47.3547196
11
11.6044307
21
47.3547196
0
LINE
8
DEFAULT_255_1_234
10
11.6044307
20
47.3547196
11
11.6044307
21
46.3122
0
LINE
8
DEFAULT_255_1_234
10
11.6044307
20
46.3122
11
11.4510245
21
46.3122
0
LINE
8
DEFAULT_255_1_234
10
11.4510245
20
46.3122
11
11.4510245
21
47.3547196
0
LINE
8
DEFAULT_255_1_234
10
11.4510245
20
47.3547196
11
11.0759423
21
47.3547196
0
LINE
8
DEFAULT_255_1_234
10
11.0759423
20
47.3547196
11
11.0759423
21
47.4816211
0
LINE
8
DEFAULT_255_1_234
10
11.0759423
20
47.4816211
11
11.980316
21
47.4816211
0
LINE
8
DEFAULT_255_1_234
10
12.3192554
20
47.4816211
11
12.3192554
21
46.3122
0
LINE
8
DEFAULT_255_1_234
10
12.3192554
20
46.3122
11
12.165046
21
46.3122
0
LINE
8
DEFAULT_255_1_234
10
12.165046
20
46.3122
11
12.165046
21
47.4816211
0
LINE
8
DEFAULT_255_1_234
10
12.165046
20
47.4816211
11
12.3192554
21
47.4816211
0
LINE
8
DEFAULT_255_1_234
10
13.306356
20
46.6832663
11
13.4613686
21
46.6832663
0
LINE
8
DEFAULT_255_1_234
10
12.5610107
20
46.8422947
11
12.5610107
21
46.9547391
0
LINE
8
DEFAULT_255_1_234
10
13.4613686
20
47.1057357
11
13.306356
21
47.1057357
0
LINE
8
DEFAULT_255_1_234
10
12.7160232
20
46.9507232
11
12.7160232
21
46.8374757
0
ARC
8
DEFAULT_255_1_234
10
12.9133072
20
46.7429846
40
0.5513052
50
340.1774281
51
353.7814284
0
ARC
8
DEFAULT_255_1_234
10
13.0704425
20
46.6844582
40
0.3836379
50
311.4558989
51
340.4421614
0
ARC
8
DEFAULT_255_1_234
10
13.0671093
20
46.6955528
40
0.3941894
50
282.4333181
51
310.7513653
0
ARC
8
DEFAULT_255_1_234
10
13.0231832
20
46.8770679
40
0.5809175
50
269.9358511
51
282.809604
0
ARC
8
DEFAULT_255_1_234
10
13.0179899
20
47.0228212
40
0.7266847
50
270.0021091
51
270.3581957
0
ARC
8
DEFAULT_255_1_234
10
13.0127315
20
46.7627585
40
0.4666519
50
250.7884749
51
270.6489167
0
ARC
8
DEFAULT_255_1_234
10
12.995915
20
46.6990319
40
0.4009729
50
219.3627325
51
250.0611886
0
ARC
8
DEFAULT_255_1_234
10
13.0788361
20
46.7695042
40
0.5097822
50
193.5479632
51
219.5756669
0
ARC
8
DEFAULT_255_1_234
10
13.3159982
20
46.8310919
40
0.7547848
50
181.1218675
51
193.87563
0
ARC
8
DEFAULT_255_1_234
10
13.5230163
20
46.842158
40
0.9620055
50
179.9918545
51
181.5394234
0
ARC
8
DEFAULT_255_1_234
10
13.3379265
20
46.9584788
40
0.7769248
50
169.5837241
51
180.2757934
0
ARC
8
DEFAULT_255_1_234
10
13.1542203
20
46.9924229
40
0.590109
50
155.0365899
51
169.6003176
0
ARC
8
DEFAULT_255_1_234
10
13.0406667
20
47.0471677
40
0.4640625
50
136.783148
51
155.2472683
0
ARC
8
DEFAULT_255_1_234
10
13.0017144
20
47.0802562
40
0.4130255
50
121.7633186
51
136.428115
0
ARC
8
DEFAULT_255_1_234
10
13.0152106
20
47.0553227
40
0.4413323
50
95.6459699
51
121.5490577
0
ARC
8
DEFAULT_255_1_234
10
13.0309388
20
46.9444949
40
0.55319
50
89.924208
51
96.1377933
0
ARC
8
DEFAULT_255_1_234
10
13.0359821
20
46.9563542
40
0.5413475
50
76.6779277
51
90.4563316
0
ARC
8
DEFAULT_255_1_234
10
13.0753444
20
47.1154114
40
0.3775041
50
47.485847
51
76.9287264
0
ARC
8
DEFAULT_255_1_234
10
13.0606417
20
47.1054159
40
0.3948286
50
16.5424086
51
46.8933463
0
ARC
8
DEFAULT_255_1_234
10
12.8998574
20
47.0525861
40
0.564021
50
5.4072051
51
17.0365086
0
ARC
8
DEFAULT_255_1_234
10
12.7559591
20
47.0294679
40
0.5556559
50
7.8891745
51
15.9239216
0
ARC
8
DEFAULT_255_1_234
10
12.9546605
20
47.0871631
40
0.3487515
50
15.7653144
51
27.9410532
0
ARC
8
DEFAULT_255_1_234
10
13.0650822
20
47.146279
40
0.2235026
50
27.8166557
51
46.4008329
0
ARC
8
DEFAULT_255_1_234
10
13.0700465
20
47.1457082
40
0.2205286
50
47.4371857
51
75.0698205
0
ARC
8
DEFAULT_255_1_234
10
13.039186
20
47.0382765
40
0.3322915
50
74.7008593
51
87.8124495
0
ARC
8
DEFAULT_255_1_234
10
13.0318547
20
46.9326844
40
0.4380987
50
87.3814673
51
90.0240855
0
ARC
8
DEFAULT_255_1_234
10
13.0280091
20
47.0504291
40
0.3203749
50
89.3451631
51
108.5745436
0
ARC
8
DEFAULT_255_1_234
10
13.0143196
20
47.1017908
40
0.2673494
50
109.2998449
51
143.3037509
0
ARC
8
DEFAULT_255_1_234
10
13.0905268
20
47.0431881
40
0.3634757
50
143.0753173
51
163.1916937
0
ARC
8
DEFAULT_255_1_234
10
13.2856996
20
46.9815967
40
0.5681262
50
162.9373603
51
174.6208611
0
ARC
8
DEFAULT_255_1_234
10
13.5483038
20
46.952801
40
0.8322832
50
174.3419979
51
180.1430411
0
ARC
8
DEFAULT_255_1_234
10
13.4552194
20
46.8333698
40
0.7392076
50
179.6817502
51
189.150529
0
ARC
8
DEFAULT_255_1_234
10
13.2051443
20
46.791719
40
0.4856932
50
188.9910863
51
203.5773039
0
ARC
8
DEFAULT_255_1_234
10
13.0971775
20
46.7469211
40
0.3688271
50
203.9077269
51
215.1312379
0
ARC
8
DEFAULT_255_1_234
10
13.0048869
20
46.6753941
40
0.2522457
50
213.9071664
51
263.8849284
0
ARC
8
DEFAULT_255_1_234
10
13.0174198
20
46.7538518
40
0.3316174
50
263.1758525
51
270.1031083
0
ARC
8
DEFAULT_255_1_234
10
13.020629
20
46.8785365
40
0.4563091
50
269.6719807
51
279.0609165
0
ARC
8
DEFAULT_255_1_234
10
13.0473058
20
46.7172907
40
0.2928759
50
278.8750225
51
293.6346586
0
ARC
8
DEFAULT_255_1_234
10
13.0793266
20
46.64209
40
0.2111472
50
293.8553404
51
310.0518804
0
ARC
8
DEFAULT_255_1_234
10
13.079812
20
46.6358516
40
0.2060917
50
311.0646779
51
332.0108348
0
ARC
8
DEFAULT_255_1_234
10
12.9605847
20
46.7015978
40
0.3422352
50
331.6588543
51
343.2878891
0
ARC
8
DEFAULT_255_1_234
10
12.7543362
20
46.7649798
40
0.5580003
50
343.1446044
51
351.010618
0
ARC
8
DEFAULT_255_1_234
10
12.6002008
20
46.7930871
40
0.7146438
50
350.7157277
51
351.1602153
0
LINE
8
DEFAULT_255_1_234
10
14.7400213
20
46.9788343
11
14.7400213
21
46.852736
0
LINE
8
DEFAULT_255_1_234
10
14.7400213
20
46.852736
11
14.2332186
21
46.852736
0
LINE
8
DEFAULT_255_1_234
10
14.2332186
20
46.852736
11
14.2332186
21
46.4382983
0
LINE
8
DEFAULT_255_1_234
10
14.2332186
20
46.4382983
11
14.821945
21
46.4382983
0
LINE
8
DEFAULT_255_1_234
10
14.821945
20
46.4382983
11
14.821945
21
46.3122
0
LINE
8
DEFAULT_255_1_234
10
14.821945
20
46.3122
11
14.0790092
21
46.3122
0
LINE
8
DEFAULT_255_1_234
10
14.0790092
20
46.3122
11
14.0790092
21
47.4816211
0
LINE
8
DEFAULT_255_1_234
10
14.0790092
20
47.4816211
11
14.8139133
21
47.4816211
0
LINE
8
DEFAULT_255_1_234
10
14.8139133
20
47.4816211
11
14.8139133
21
47.3547196
0
LINE
8
DEFAULT_255_1_234
10
14.8139133
20
47.3547196
11
14.2332186
21
47.3547196
0
LINE
8
DEFAULT_255_1_234
10
14.2332186
20
47.3547196
11
14.2332186
21
46.9788343
0
LINE
8
DEFAULT_255_1_234
10
14.2332186
20
46.9788343
11
14.7400213
21
46.9788343
0
LINE
8
DEFAULT_255_1_234
10
15.8379599
20
47.4816211
11
15.8379599
21
47.3547196
0
LINE
8
DEFAULT_255_1_234
10
15.8379599
20
47.3547196
11
15.4620746
21
47.3547196
0
LINE
8
DEFAULT_255_1_234
10
15.4620746
20
47.3547196
11
15.4620746
21
46.3122
0
LINE
8
DEFAULT_255_1_234
10
15.4620746
20
46.3122
11
15.3086684
21
46.3122
0
LINE
8
DEFAULT_255_1_234
10
15.3086684
20
46.3122
11
15.3086684
21
47.3547196
0
LINE
8
DEFAULT_255_1_234
10
15.3086684
20
47.3547196
11
14.9335862
21
47.3547196
0
LINE
8
DEFAULT_255_1_234
10
14.9335862
20
47.3547196
11
14.9335862
21
47.4816211
0
LINE
8
DEFAULT_255_1_234
10
14.9335862
20
47.4816211
11
15.8379599
21
47.4816211
0
LINE
8
DEFAULT_255_1_234
10
16.7391209
20
46.4334792
11
16.7391209
21
46.3122
0
LINE
8
DEFAULT_255_1_234
10
16.7391209
20
46.3122
11
15.9728931
21
46.3122
0
LINE
8
DEFAULT_255_1_234
10
15.9728931
20
46.3122
11
15.9728931
21
46.4190221
0
LINE
8
DEFAULT_255_1_234
10
15.9728931
20
46.4190221
11
16.3776927
21
46.8687995
0
LINE
8
DEFAULT_255_1_234
10
16.0989914
20
47.1370595
11
15.9504042
21
47.1370595
0
LINE
8
DEFAULT_255_1_234
10
16.4652387
20
46.7732218
11
16.1520009
21
46.4334792
0
LINE
8
DEFAULT_255_1_234
10
16.1520009
20
46.4334792
11
16.7391209
21
46.4334792
0
ARC
8
DEFAULT_255_1_234
10
15.0286761
20
48.0617527
40
1.8008286
50
318.5132453
51
320.7828378
0
ARC
8
DEFAULT_255_1_234
10
15.5573735
20
47.6314426
40
1.1191493
50
320.7372736
51
323.9737074
0
ARC
8
DEFAULT_255_1_234
10
15.9493591
20
47.3474361
40
0.6350923
50
323.8961724
51
328.6421089
0
ARC
8
DEFAULT_255_1_234
10
16.1540187
20
47.2212031
40
0.3946393
50
328.8299013
51
331.789948
0
ARC
8
DEFAULT_255_1_234
10
16.2537365
20
47.1697509
40
0.2824501
50
331.4255242
51
352.9364833
0
ARC
8
DEFAULT_255_1_234
10
16.2673866
20
47.1666976
40
0.2685315
50
353.2248685
51
0.0169286
0
ARC
8
DEFAULT_255_1_234
10
16.2883743
20
47.168995
40
0.2475536
50
359.4866256
51
15.9339782
0
ARC
8
DEFAULT_255_1_234
10
16.3390728
20
47.1826286
40
0.1950618
50
16.1714718
51
43.5284424
0
ARC
8
DEFAULT_255_1_234
10
16.3468037
20
47.1903573
40
0.184134
50
43.4415429
51
83.1661404
0
ARC
8
DEFAULT_255_1_234
10
16.3333955
20
47.1166771
40
0.258926
50
82.160215
51
90.1505798
0
ARC
8
DEFAULT_255_1_234
10
16.3302382
20
47.0629865
40
0.3126255
50
89.5460705
51
102.5418777
0
ARC
8
DEFAULT_255_1_234
10
16.3059468
20
47.1660665
40
0.2067346
50
102.1739365
51
129.2061916
0
ARC
8
DEFAULT_255_1_234
10
16.298054
20
47.1785094
40
0.1921118
50
129.7279328
51
135.7542026
0
ARC
8
DEFAULT_255_1_234
10
16.3102068
20
47.1688045
40
0.2075944
50
136.175737
51
166.3674722
0
ARC
8
DEFAULT_255_1_234
10
16.4108987
20
47.1418182
40
0.3118201
50
165.9092917
51
178.8683903
0
ARC
8
DEFAULT_255_1_234
10
16.4973848
20
47.1371179
40
0.3983935
50
178.438168
51
180.0083905
0
ARC
8
DEFAULT_255_1_234
10
16.357245
20
47.1410231
40
0.4068601
50
163.2878735
51
180.5581814
0
ARC
8
DEFAULT_255_1_234
10
16.2770712
20
47.163084
40
0.3237344
50
133.454115
51
162.9470031
0
ARC
8
DEFAULT_255_1_234
10
16.2949253
20
47.1441
40
0.349795
50
100.7869394
51
133.4384016
0
ARC
8
DEFAULT_255_1_234
10
16.3297024
20
46.9892319
40
0.5084616
50
89.6605301
51
101.3704185
0
ARC
8
DEFAULT_255_1_234
10
16.3363363
20
46.9953496
40
0.502348
50
78.2171172
51
90.4130393
0
ARC
8
DEFAULT_255_1_234
10
16.3718442
20
47.1577637
40
0.3361092
50
55.9268222
51
78.4888551
0
ARC
8
DEFAULT_255_1_234
10
16.3914882
20
47.1916324
40
0.2970617
50
47.9292255
51
55.4054003
0
ARC
8
DEFAULT_255_1_234
10
16.4016442
20
47.2019502
40
0.2825983
50
4.3347696
51
48.0560701
0
ARC
8
DEFAULT_255_1_234
10
16.2920836
20
47.1849601
40
0.393225
50
359.925209
51
5.5967654
0
ARC
8
DEFAULT_255_1_234
10
16.3349728
20
47.1905816
40
0.3503892
50
337.8914096
51
358.9967724
0
ARC
8
DEFAULT_255_1_234
10
16.063614
20
47.2952706
40
0.6412172
50
326.9135351
51
338.3505194
0
ARC
8
DEFAULT_255_1_234
10
15.6650444
20
47.5507284
40
1.1146189
50
319.6472867
51
327.095818
0
ARC
8
DEFAULT_255_1_234
10
15.2817447
20
47.8669
40
1.6114559
50
317.2586784
51
319.9046139
0
LINE
8
DEFAULT_255_1_234
10
17.6298407
20
47.0037327
11
17.6298407
21
46.8109709
0
LINE
8
DEFAULT_255_1_234
10
16.891724
20
46.7908916
11
16.891724
21
46.9892755
0
LINE
8
DEFAULT_255_1_234
10
17.4812536
20
46.7708123
11
17.4812536
21
47.0141739
0
LINE
8
DEFAULT_255_1_234
10
17.0403111
20
47.0254184
11
17.0403111
21
46.7876789
0
ARC
8
DEFAULT_255_1_234
10
16.4051297
20
46.8060805
40
1.2247208
50
353.8441951
51
0.2287902
0
ARC
8
DEFAULT_255_1_234
10
16.86908
20
46.7542806
40
0.7578929
50
344.4934747
51
353.9765454
0
ARC
8
DEFAULT_255_1_234
10
17.1683391
20
46.6691981
40
0.4467846
50
329.2803592
51
344.7472793
0
ARC
8
DEFAULT_255_1_234
10
17.2676216
20
46.6147018
40
0.3336173
50
324.9352394
51
328.6160465
0
ARC
8
DEFAULT_255_1_234
10
17.3053324
20
46.5883427
40
0.2876076
50
280.580143
51
324.9173126
0
ARC
8
DEFAULT_255_1_234
10
17.2652117
20
46.7554099
40
0.4592847
50
269.5977311
51
281.6734359
0
ARC
8
DEFAULT_255_1_234
10
17.2580022
20
46.7434173
40
0.4472986
50
256.6228859
51
270.51044
0
ARC
8
DEFAULT_255_1_234
10
17.2178
20
46.5885877
40
0.2873874
50
215.8618325
51
257.2788573
0
ARC
8
DEFAULT_255_1_234
10
17.3199032
20
46.6570977
40
0.4102928
50
197.9693508
51
215.2623606
0
ARC
8
DEFAULT_255_1_234
10
17.5684147
20
46.7409709
40
0.6725652
50
187.8816417
51
198.2346507
0
ARC
8
DEFAULT_255_1_234
10
17.9642356
20
46.7981079
40
1.0724845
50
180.8976217
51
188.0055519
0
ARC
8
DEFAULT_255_1_234
10
18.2442544
20
46.8084777
40
1.3526448
50
180.7449369
51
181.1510016
0
ARC
8
DEFAULT_255_1_234
10
18.0865273
20
46.9941042
40
1.1948131
50
173.7675579
51
180.231553
0
ARC
8
DEFAULT_255_1_234
10
17.634742
20
47.0451666
40
0.7401564
50
164.3058563
51
173.9002247
0
ARC
8
DEFAULT_255_1_234
10
17.3435488
20
47.1290656
40
0.4371288
50
148.7922025
51
164.568378
0
ARC
8
DEFAULT_255_1_234
10
17.2483941
20
47.1821929
40
0.3282386
50
144.5883898
51
148.1176286
0
ARC
8
DEFAULT_255_1_234
10
17.2140838
20
47.2061315
40
0.2864044
50
101.6440918
51
144.514236
0
ARC
8
DEFAULT_255_1_234
10
17.2565905
20
47.0372069
40
0.4604934
50
89.5284041
51
102.5819763
0
ARC
8
DEFAULT_255_1_234
10
17.2644993
20
47.0333018
40
0.464401
50
77.0437873
51
90.5081339
0
ARC
8
DEFAULT_255_1_234
10
17.3046995
20
47.1975615
40
0.2953195
50
48.2778575
51
77.4994676
0
ARC
8
DEFAULT_255_1_234
10
17.3119626
20
47.2104746
40
0.2808655
50
36.3142134
51
47.6305865
0
ARC
8
DEFAULT_255_1_234
10
17.2250933
20
47.1519515
40
0.3855453
50
18.2931786
51
35.6769206
0
ARC
8
DEFAULT_255_1_234
10
16.9707692
20
47.0646593
40
0.654423
50
8.024666
51
18.5605216
0
ARC
8
DEFAULT_255_1_234
10
16.5544612
20
47.0031792
40
1.0752407
50
1.1274072
51
8.1718305
0
ARC
8
DEFAULT_255_1_234
10
16.2308802
20
46.9904885
40
1.3990231
50
0.5424119
51
1.3863029
0
ARC
8
DEFAULT_255_1_234
10
16.413018
20
47.0177342
40
1.0682415
50
359.8090433
51
4.9407866
0
ARC
8
DEFAULT_255_1_234
10
16.8340194
20
47.0553113
40
0.6455691
50
4.8362157
51
12.2904523
0
ARC
8
DEFAULT_255_1_234
10
17.1095309
20
47.1166965
40
0.3633074
50
12.0805627
51
23.8173984
0
ARC
8
DEFAULT_255_1_234
10
17.2269014
20
47.1663919
40
0.2358723
50
24.2871213
51
31.3935614
0
ARC
8
DEFAULT_255_1_234
10
17.2793712
20
47.2007233
40
0.1732111
50
30.7407893
51
82.4657128
0
ARC
8
DEFAULT_255_1_234
10
17.2613846
20
47.1123691
40
0.263235
50
81.1060089
51
90.2184952
0
ARC
8
DEFAULT_255_1_234
10
17.2578145
20
47.1381924
40
0.2374236
50
89.3806855
51
105.6762551
0
ARC
8
DEFAULT_255_1_234
10
17.2394775
20
47.2048567
40
0.1682847
50
105.7981136
51
149.7388061
0
ARC
8
DEFAULT_255_1_234
10
17.3458854
20
47.140895
40
0.2924306
50
149.4208916
51
163.6286378
0
ARC
8
DEFAULT_255_1_234
10
17.5549742
20
47.077125
40
0.5110213
50
163.3763315
51
172.1410975
0
ARC
8
DEFAULT_255_1_234
10
17.8850461
20
47.0298518
40
0.8444586
50
172.0259487
51
178.0703232
0
ARC
8
DEFAULT_255_1_234
10
18.188055
20
47.0154906
40
1.1477868
50
177.8631668
51
179.5044149
0
ARC
8
DEFAULT_255_1_234
10
18.0807955
20
46.7840389
40
1.0404907
50
179.7995573
51
185.2460446
0
ARC
8
DEFAULT_255_1_234
10
17.6764994
20
46.7457513
40
0.6343885
50
185.1411642
51
193.0079639
0
ARC
8
DEFAULT_255_1_234
10
17.4121467
20
46.6832641
40
0.3627568
50
192.7897626
51
205.2507664
0
ARC
8
DEFAULT_255_1_234
10
17.3075014
20
46.6365415
40
0.2481908
50
205.8005384
51
211.2537509
0
ARC
8
DEFAULT_255_1_234
10
17.2551454
20
46.601458
40
0.1852521
50
210.3789793
51
238.4008143
0
ARC
8
DEFAULT_255_1_234
10
17.2531976
20
46.6061376
40
0.1882621
50
239.6520629
51
265.9793761
0
ARC
8
DEFAULT_255_1_234
10
17.2617176
20
46.6733427
40
0.2559272
50
265.1315437
51
270.060332
0
ARC
8
DEFAULT_255_1_234
10
17.2645955
20
46.6409534
40
0.2235528
50
269.3314664
51
287.2178029
0
ARC
8
DEFAULT_255_1_234
10
17.2783807
20
46.5906279
40
0.1714108
50
287.7958004
51
329.080874
0
ARC
8
DEFAULT_255_1_234
10
17.1826264
20
46.650393
40
0.2842745
50
328.6634704
51
343.3325132
0
ARC
8
DEFAULT_255_1_234
10
16.9653284
20
46.7180863
40
0.5118644
50
343.0499468
51
351.9393422
0
ARC
8
DEFAULT_255_1_234
10
16.6186584
20
46.7691949
40
0.8622784
50
351.8069023
51
357.7959224
0
ARC
8
DEFAULT_255_1_234
10
16.295114
20
46.7859721
40
1.1862365
50
357.5871873
51
359.2677531
0
LINE
8
DEFAULT_255_1_234
10
18.5534906
20
47.0037327
11
18.5534906
21
46.8109709
0
LINE
8
DEFAULT_255_1_234
10
17.8153739
20
46.7908916
11
17.8153739
21
46.9892755
0
LINE
8
DEFAULT_255_1_234
10
18.4049035
20
46.7708123
11
18.4049035
21
47.0141739
0
LINE
8
DEFAULT_255_1_234
10
17.963961
20
47.0254184
11
17.963961
21
46.7876789
0
ARC
8
DEFAULT_255_1_234
10
17.3287796
20
46.8060805
40
1.2247208
50
353.8441951
51
0.2287902
0
ARC
8
DEFAULT_255_1_234
10
17.7927299
20
46.7542806
40
0.7578929
50
344.4934747
51
353.9765454
0
ARC
8
DEFAULT_255_1_234
10
18.091989
20
46.6691981
40
0.4467846
50
329.2803592
51
344.7472793
0
ARC
8
DEFAULT_255_1_234
10
18.1912715
20
46.6147018
40
0.3336173
50
324.9352394
51
328.6160465
0
ARC
8
DEFAULT_255_1_234
10
18.2289823
20
46.5883427
40
0.2876076
50
280.580143
51
324.9173126
0
ARC
8
DEFAULT_255_1_234
10
18.1888616
20
46.7554099
40
0.4592847
50
269.5977311
51
281.6734359
0
ARC
8
DEFAULT_255_1_234
10
18.1816521
20
46.7434173
40
0.4472986
50
256.6228859
51
270.51044
0
ARC
8
DEFAULT_255_1_234
10
18.1414499
20
46.5885877
40
0.2873874
50
215.8618325
51
257.2788573
0
ARC
8
DEFAULT_255_1_234
10
18.2435531
20
46.6570977
40
0.4102928
50
197.9693508
51
215.2623606
0
ARC
8
DEFAULT_255_1_234
10
18.4920647
20
46.7409709
40
0.6725652
50
187.8816417
51
198.2346507
0
ARC
8
DEFAULT_255_1_234
10
18.8878855
20
46.7981079
40
1.0724845
50
180.8976217
51
188.0055519
0
ARC
8
DEFAULT_255_1_234
10
19.1679043
20
46.8084777
40
1.3526448
50
180.7449369
51
181.1510016
0
ARC
8
DEFAULT_255_1_234
10
19.0101772
20
46.9941042
40
1.1948131
50
173.7675579
51
180.231553
0
ARC
8
DEFAULT_255_1_234
10
18.5583919
20
47.0451666
40
0.7401564
50
164.3058563
51
173.9002247
0
ARC
8
DEFAULT_255_1_234
10
18.2671987
20
47.1290656
40
0.4371288
50
148.7922025
51
164.568378
0
ARC
8
DEFAULT_255_1_234
10
18.172044
20
47.1821929
40
0.3282386
50
144.5883898
51
148.1176286
0
ARC
8
DEFAULT_255_1_234
10
18.1377337
20
47.2061315
40
0.2864044
50
101.6440918
51
144.514236
0
ARC
8
DEFAULT_255_1_234
10
18.1802404
20
47.0372069
40
0.4604934
50
89.5284041
51
102.5819763
0
ARC
8
DEFAULT_255_1_234
10
18.1881492
20
47.0333018
40
0.464401
50
77.0437873
51
90.5081339
0
ARC
8
DEFAULT_255_1_234
10
18.2283494
20
47.1975615
40
0.2953195
50
48.2778575
51
77.4994676
0
ARC
8
DEFAULT_255_1_234
10
18.2356125
20
47.2104746
40
0.2808655
50
36.3142134
51
47.6305865
0
ARC
8
DEFAULT_255_1_234
10
18.1487432
20
47.1519515
40
0.3855453
50
18.2931786
51
35.6769206
0
ARC
8
DEFAULT_255_1_234
10
17.8944191
20
47.0646593
40
0.654423
50
8.024666
51
18.5605216
0
ARC
8
DEFAULT_255_1_234
10
17.4781111
20
47.0031792
40
1.0752407
50
1.1274072
51
8.1718305
0
ARC
8
DEFAULT_255_1_234
10
17.1545301
20
46.9904885
40
1.3990231
50
0.5424119
51
1.3863029
0
ARC
8
DEFAULT_255_1_234
10
17.3366679
20
47.0177342
40
1.0682415
50
359.8090433
51
4.9407866
0
ARC
8
DEFAULT_255_1_234
10
17.7576693
20
47.0553113
40
0.6455691
50
4.8362157
51
12.2904523
0
ARC
8
DEFAULT_255_1_234
10
18.0331808
20
47.1166965
40
0.3633074
50
12.0805627
51
23.8173984
0
ARC
8
DEFAULT_255_1_234
10
18.1505513
20
47.1663919
40
0.2358723
50
24.2871213
51
31.3935614
0
ARC
8
DEFAULT_255_1_234
10
18.2030211
20
47.2007233
40
0.1732111
50
30.7407893
51
82.4657128
0
ARC
8
DEFAULT_255_1_234
10
18.1850345
20
47.1123691
40
0.263235
50
81.1060089
51
90.2184952
0
ARC
8
DEFAULT_255_1_234
10
18.1814644
20
47.1381924
40
0.2374236
50
89.3806855
51
105.6762551
0
ARC
8
DEFAULT_255_1_234
10
18.1631274
20
47.2048567
40
0.1682847
50
105.7981136
51
149.7388061
0
ARC
8
DEFAULT_255_1_234
10
18.2695353
20
47.140895
40
0.2924306
50
149.4208916
51
163.6286378
0
ARC
8
DEFAULT_255_1_234
10
18.4786241
20
47.077125
40
0.5110213
50
163.3763315
51
172.1410975
0
ARC
8
DEFAULT_255_1_234
10
18.808696
20
47.0298518
40
0.8444586
50
172.0259487
51
178.0703232
0
ARC
8
DEFAULT_255_1_234
10
19.1117049
20
47.0154906
40
1.1477868
50
177.8631668
51
179.5044149
0
ARC
8
DEFAULT_255_1_234
10
19.0044454
20
46.7840389
40
1.0404907
50
179.7995573
51
185.2460446
0
ARC
8
DEFAULT_255_1_234
10
18.6001493
20
46.7457513
40
0.6343885
50
185.1411642
51
193.0079639
0
ARC
8
DEFAULT_255_1_234
10
18.3357966
20
46.6832641
40
0.3627568
50
192.7897626
51
205.2507664
0
ARC
8
DEFAULT_255_1_234
10
18.2311513
20
46.6365415
40
0.2481908
50
205.8005384
51
211.2537509
0
ARC
8
DEFAULT_255_1_234
10
18.1787953
20
46.601458
40
0.1852521
50
210.3789793
51
238.4008143
0
ARC
8
DEFAULT_255_1_234
10
18.1768475
20
46.6061376
40
0.1882621
50
239.6520629
51
265.9793761
0
ARC
8
DEFAULT_255_1_234
10
18.1853675
20
46.6733427
40
0.2559272
50
265.1315437
51
270.060332
0
ARC
8
DEFAULT_255_1_234
10
18.1882454
20
46.6409534
40
0.2235528
50
269.3314664
51
287.2178029
0
ARC
8
DEFAULT_255_1_234
10
18.2020306
20
46.5906279
40
0.1714108
50
287.7958004
51
329.080874
0
ARC
8
DEFAULT_255_1_234
10
18.1062763
20
46.650393
40
0.2842745
50
328.6634704
51
343.3325132
0
ARC
8
DEFAULT_255_1_234
10
17.8889783
20
46.7180863
40
0.5118644
50
343.0499468
51
351.9393422
0
ARC
8
DEFAULT_255_1_234
10
17.5423083
20
46.7691949
40
0.8622784
50
351.8069023
51
357.7959224
0
ARC
8
DEFAULT_255_1_234
10
17.2187639
20
46.7859721
40
1.1862365
50
357.5871873
51
359.2677531
0
LINE
8
DEFAULT_255_1_234
10
18.7823952
20
47.4816211
11
18.9815823
21
47.4816211
0
LINE
8
DEFAULT_255_1_234
10
18.9815823
20
47.4816211
11
19.363893
21
46.5274506
0
LINE
8
DEFAULT_255_1_234
10
19.363893
20
46.5274506
11
19.7462038
21
47.4816211
0
LINE
8
DEFAULT_255_1_234
10
19.7462038
20
47.4816211
11
19.946194
21
47.4816211
0
LINE
8
DEFAULT_255_1_234
10
19.946194
20
47.4816211
11
19.946194
21
46.3122
0
LINE
8
DEFAULT_255_1_234
10
19.946194
20
46.3122
11
19.7919847
21
46.3122
0
LINE
8
DEFAULT_255_1_234
10
19.7919847
20
46.3122
11
19.7919847
21
46.7675996
0
LINE
8
DEFAULT_255_1_234
10
19.7919847
20
46.7675996
11
19.8064418
21
47.2591419
0
LINE
8
DEFAULT_255_1_234
10
19.8064418
20
47.2591419
11
19.4225247
21
46.3122
0
LINE
8
DEFAULT_255_1_234
10
19.4225247
20
46.3122
11
19.3044582
21
46.3122
0
LINE
8
DEFAULT_255_1_234
10
19.3044582
20
46.3122
11
18.9213442
21
47.2567324
0
LINE
8
DEFAULT_255_1_234
10
18.9213442
20
47.2567324
11
18.9366045
21
46.7675996
0
LINE
8
DEFAULT_255_1_234
10
18.9366045
20
46.7675996
11
18.9366045
21
46.3122
0
LINE
8
DEFAULT_255_1_234
10
18.9366045
20
46.3122
11
18.7823952
21
46.3122
0
LINE
8
DEFAULT_255_1_234
10
18.7823952
20
46.3122
11
18.7823952
21
47.4816211
0
LINE
8
DEFAULT_255_1_234
10
20.648168
20
46.7700091
11
20.3726793
21
46.7700091
0
LINE
8
DEFAULT_255_1_234
10
20.3726793
20
46.7700091
11
20.3726793
21
46.3122
0
LINE
8
DEFAULT_255_1_234
10
20.3726793
20
46.3122
11
20.21847
21
46.3122
0
LINE
8
DEFAULT_255_1_234
10
20.21847
20
46.3122
11
20.21847
21
47.4816211
0
LINE
8
DEFAULT_255_1_234
10
20.21847
20
47.4816211
11
20.6497743
21
47.4816211
0
LINE
8
DEFAULT_255_1_234
10
20.3726793
20
47.3547196
11
20.3726793
21
46.8961074
0
LINE
8
DEFAULT_255_1_234
10
20.3726793
20
46.8961074
11
20.6497743
21
46.8961074
0
LINE
8
DEFAULT_255_1_234
10
20.6586092
20
47.3547196
11
20.3726793
21
47.3547196
0
ARC
8
DEFAULT_255_1_234
10
20.653987
20
46.8757195
40
0.6059162
50
78.8378113
51
90.3983573
0
ARC
8
DEFAULT_255_1_234
10
20.6955884
20
47.0777879
40
0.3996205
50
58.9632738
51
79.0810598
0
ARC
8
DEFAULT_255_1_234
10
20.7257426
20
47.1337721
40
0.3361177
50
48.0197965
51
58.447194
0
ARC
8
DEFAULT_255_1_234
10
20.7346287
20
47.1423225
40
0.3238191
50
3.3375044
51
48.1766626
0
ARC
8
DEFAULT_255_1_234
10
20.6116126
20
47.1246171
40
0.4477806
50
359.9477528
51
4.6829065
0
ARC
8
DEFAULT_255_1_234
10
20.6239443
20
47.1203628
40
0.4354656
50
346.1877825
51
0.5060252
0
ARC
8
DEFAULT_255_1_234
10
20.7598311
20
47.0850731
40
0.295089
50
310.8831995
51
346.5426355
0
ARC
8
DEFAULT_255_1_234
10
20.7289731
20
47.1267695
40
0.3468331
50
286.6925341
51
310.2288297
0
ARC
8
DEFAULT_255_1_234
10
20.6720562
20
47.3057882
40
0.5346654
50
274.6850312
51
287.0245141
0
ARC
8
DEFAULT_255_1_234
10
20.6495285
20
47.5266932
40
0.7566852
50
269.8969846
51
275.018904
0
ARC
8
DEFAULT_255_1_234
10
20.6522876
20
47.3187707
40
0.4226708
50
269.6593078
51
279.4153575
0
ARC
8
DEFAULT_255_1_234
10
20.6780151
20
47.1697133
40
0.2714146
50
279.2049762
51
294.9900808
0
ARC
8
DEFAULT_255_1_234
10
20.7070477
20
47.1049508
40
0.2004525
50
295.2888114
51
311.2911209
0
ARC
8
DEFAULT_255_1_234
10
20.7141371
20
47.094422
40
0.1878703
50
311.7854996
51
347.2861051
0
ARC
8
DEFAULT_255_1_234
10
20.615753
20
47.1197092
40
0.2894234
50
346.6893224
51
0.1059443
0
ARC
8
DEFAULT_255_1_234
10
20.5402425
20
47.1225685
40
0.3649409
50
359.6350983
51
0.0053152
0
ARC
8
DEFAULT_255_1_234
10
20.6372753
20
47.1250937
40
0.2679199
50
359.4672059
51
15.5933957
0
ARC
8
DEFAULT_255_1_234
10
20.6997642
20
47.1419779
40
0.2031932
50
15.7442113
51
46.6203375
0
ARC
8
DEFAULT_255_1_234
10
20.6849862
20
47.1249484
40
0.2257226
50
46.8628658
51
75.6676503
0
ARC
8
DEFAULT_255_1_234
10
20.6555683
20
47.0190718
40
0.3355939
50
75.276167
51
88.2915297
0
ARC
8
DEFAULT_255_1_234
10
20.649739
20
46.9312524
40
0.4235602
50
87.8575022
51
88.8000139
0
LINE
8
DEFAULT_255_1_234
10
4.5992137
20
45.5029433
11
4.5992137
21
44.3279
0
LINE
8
DEFAULT_255_1_234
10
4.5992137
20
44.3279
11
4.4498234
21
44.3279
0
LINE
8
DEFAULT_255_1_234
10
4.4498234
20
44.3279
11
4.4498234
21
45.3182133
0
LINE
8
DEFAULT_255_1_234
10
4.4498234
20
45.3182133
11
4.1502396
21
45.2081785
0
LINE
8
DEFAULT_255_1_234
10
4.1502396
20
45.2081785
11
4.1502396
21
45.3431117
0
LINE
8
DEFAULT_255_1_234
10
4.1502396
20
45.3431117
11
4.5759217
21
45.5029433
0
LINE
8
DEFAULT_255_1_234
10
4.5759217
20
45.5029433
11
4.5992137
21
45.5029433
0
LINE
8
DEFAULT_255_1_234
10
5.2280988
20
45.4973211
11
5.2280988
21
44.4539983
0
LINE
8
DEFAULT_255_1_234
10
5.2280988
20
44.4539983
11
5.7822888
21
44.4539983
0
LINE
8
DEFAULT_255_1_234
10
5.7822888
20
44.4539983
11
5.7822888
21
44.3279
0
LINE
8
DEFAULT_255_1_234
10
5.7822888
20
44.3279
11
5.0730863
21
44.3279
0
LINE
8
DEFAULT_255_1_234
10
5.0730863
20
44.3279
11
5.0730863
21
45.4973211
0
LINE
8
DEFAULT_255_1_234
10
5.0730863
20
45.4973211
11
5.2280988
21
45.4973211
0
LINE
8
DEFAULT_255_1_234
10
6.3605739
20
45.2965276
11
6.3605739
21
44.9551788
0
LINE
8
DEFAULT_255_1_234
10
6.3605739
20
44.9551788
11
6.6866625
21
44.9551788
0
LINE
8
DEFAULT_255_1_234
10
6.6866625
20
44.9551788
11
6.6866625
21
44.8146233
0
LINE
8
DEFAULT_255_1_234
10
6.6866625
20
44.8146233
11
6.3605739
21
44.8146233
0
LINE
8
DEFAULT_255_1_234
10
6.3605739
20
44.8146233
11
6.3605739
21
44.4451634
0
LINE
8
DEFAULT_255_1_234
10
6.3605739
20
44.4451634
11
6.2111836
21
44.4451634
0
LINE
8
DEFAULT_255_1_234
10
6.2111836
20
44.4451634
11
6.2111836
21
44.8146233
0
LINE
8
DEFAULT_255_1_234
10
6.2111836
20
44.8146233
11
5.885095
21
44.8146233
0
LINE
8
DEFAULT_255_1_234
10
5.885095
20
44.8146233
11
5.885095
21
44.9551788
0
LINE
8
DEFAULT_255_1_234
10
5.885095
20
44.9551788
11
6.2111836
21
44.9551788
0
LINE
8
DEFAULT_255_1_234
10
6.2111836
20
44.9551788
11
6.2111836
21
45.2965276
0
LINE
8
DEFAULT_255_1_234
10
6.2111836
20
45.2965276
11
6.3605739
21
45.2965276
0
LINE
8
DEFAULT_255_1_234
10
4.5101392
20
4.6404
11
4.1045364
21
4.6404
0
LINE
8
DEFAULT_255_1_234
10
4.1045364
20
4.6404
11
4.1045364
21
5.8098211
0
LINE
8
DEFAULT_255_1_234
10
4.1045364
20
5.8098211
11
4.4868471
21
5.8098211
0
LINE
8
DEFAULT_255_1_234
10
4.5157614
20
5.1873614
11
4.2587458
21
5.1873614
0
LINE
8
DEFAULT_255_1_234
10
4.2587458
20
5.1873614
11
4.2587458
21
4.7664983
0
LINE
8
DEFAULT_255_1_234
10
4.2587458
20
4.7664983
11
4.5133519
21
4.7664983
0
LINE
8
DEFAULT_255_1_234
10
4.2587458
20
5.6829196
11
4.2587458
21
5.3110501
0
LINE
8
DEFAULT_255_1_234
10
4.2587458
20
5.3110501
11
4.4916662
21
5.3110501
0
LINE
8
DEFAULT_255_1_234
10
4.4868471
20
5.6829196
11
4.2587458
21
5.6829196
0
ARC
8
DEFAULT_255_1_234
10
4.490618
20
5.0730901
40
0.7367406
50
82.1257326
51
90.2932599
0
ARC
8
DEFAULT_255_1_234
10
4.5295135
20
5.3449013
40
0.4621653
50
69.9044149
51
82.2857423
0
ARC
8
DEFAULT_255_1_234
10
4.5865813
20
5.4991637
40
0.2976871
50
51.1838526
51
70.0181538
0
ARC
8
DEFAULT_255_1_234
10
4.6120779
20
5.536224
40
0.2528517
50
12.1017251
51
50.4214761
0
ARC
8
DEFAULT_255_1_234
10
4.4736653
20
5.5014676
40
0.3955061
50
359.5251267
51
12.8211707
0
ARC
8
DEFAULT_255_1_234
10
4.6316579
20
5.4945344
40
0.2375281
50
323.4908128
51
0.8817314
0
ARC
8
DEFAULT_255_1_234
10
4.5898266
20
5.526855
40
0.2903817
50
298.6825083
51
323.2756573
0
ARC
8
DEFAULT_255_1_234
10
4.5536629
20
5.5869649
40
0.3604842
50
293.1999386
51
299.1396394
0
ARC
8
DEFAULT_255_1_234
10
4.6209602
20
4.9784126
40
0.2871098
50
54.0011765
51
74.9167975
0
ARC
8
DEFAULT_255_1_234
10
4.6325961
20
4.9981332
40
0.2643248
50
36.3580696
51
53.5291921
0
ARC
8
DEFAULT_255_1_234
10
4.6199203
20
4.9890998
40
0.2798884
50
4.8189881
51
36.3089977
0
ARC
8
DEFAULT_255_1_234
10
4.5420038
20
4.978127
40
0.358478
50
359.9370252
51
5.5204067
0
ARC
8
DEFAULT_255_1_234
10
4.509556
20
4.9740667
40
0.3909429
50
344.7478609
51
0.5373281
0
ARC
8
DEFAULT_255_1_234
10
4.6086531
20
4.9473544
40
0.2883093
50
311.1786488
51
344.6886812
0
ARC
8
DEFAULT_255_1_234
10
4.5794578
20
4.9836987
40
0.3348923
50
286.0418249
51
310.8441291
0
ARC
8
DEFAULT_255_1_234
10
4.528741
20
5.1483807
40
0.5071869
50
274.1042341
51
286.4071509
0
ARC
8
DEFAULT_255_1_234
10
4.5110666
20
5.3367229
40
0.6963234
50
269.9236873
51
274.445647
0
ARC
8
DEFAULT_255_1_234
10
4.5156667
20
5.1027537
40
0.3362634
50
269.6055768
51
281.3740047
0
ARC
8
DEFAULT_255_1_234
10
4.5387305
20
4.9934353
40
0.224546
50
281.1055983
51
302.5132223
0
ARC
8
DEFAULT_255_1_234
10
4.5534204
20
4.9670823
40
0.1944357
50
303.0368945
51
311.8811219
0
ARC
8
DEFAULT_255_1_234
10
4.5605611
20
4.958589
40
0.1833454
50
311.9916004
51
351.7143462
0
ARC
8
DEFAULT_255_1_234
10
4.4788841
20
4.975093
40
0.2665871
50
350.7339597
51
0.2221581
0
ARC
8
DEFAULT_255_1_234
10
4.4681287
20
4.9807467
40
0.2773789
50
359.0456241
51
17.2296242
0
ARC
8
DEFAULT_255_1_234
10
4.5720404
20
5.0116163
40
0.1689915
50
17.6685481
51
78.9940892
0
ARC
8
DEFAULT_255_1_234
10
4.5203568
20
4.8261224
40
0.3612658
50
76.5635957
51
90.6980921
0
LINE
8
DEFAULT_255_1_234
10
4.5159552
20
5.1873613
11
4.5157614
21
5.1873614
0
ARC
8
DEFAULT_255_1_234
10
4.4939228
20
5.6396036
40
0.3285612
50
269.6064736
51
281.4533503
0
ARC
8
DEFAULT_255_1_234
10
4.5162048
20
5.5344688
40
0.2210975
50
281.2041486
51
302.5148063
0
ARC
8
DEFAULT_255_1_234
10
4.5298898
20
5.5098241
40
0.1929674
50
303.021671
51
309.8369575
0
ARC
8
DEFAULT_255_1_234
10
4.5482359
20
5.4892488
40
0.1654181
50
309.5228395
51
356.9509836
0
ARC
8
DEFAULT_255_1_234
10
4.4818942
20
5.4987932
40
0.2322512
50
355.4701227
51
0.0492546
0
ARC
8
DEFAULT_255_1_234
10
4.4540033
20
5.5010094
40
0.2601498
50
359.5558597
51
11.2096359
0
ARC
8
DEFAULT_255_1_234
10
4.5497323
20
5.520823
40
0.1623975
50
10.9182341
51
31.3230275
0
ARC
8
DEFAULT_255_1_234
10
4.5783056
20
5.5367214
40
0.1297302
50
31.8852677
51
52.1412565
0
ARC
8
DEFAULT_255_1_234
10
4.5508789
20
5.497975
40
0.1771663
50
52.8285564
51
71.9850297
0
ARC
8
DEFAULT_255_1_234
10
4.5132965
20
5.3873664
40
0.2939794
50
71.6863486
51
82.8455995
0
ARC
8
DEFAULT_255_1_234
10
4.4893501
20
5.2064149
40
0.476506
50
82.6984714
51
90.1729175
0
ARC
8
DEFAULT_255_1_234
10
4.4871136
20
5.3287623
40
0.3541573
50
89.8708275
51
90.0431131
0
LINE
8
DEFAULT_255_1_234
10
5.8562585
20
4.7616792
11
5.8562585
21
4.6404
0
LINE
8
DEFAULT_255_1_234
10
5.8562585
20
4.6404
11
5.0900307
21
4.6404
0
LINE
8
DEFAULT_255_1_234
10
5.0900307
20
4.6404
11
5.0900307
21
4.7472221
0
LINE
8
DEFAULT_255_1_234
10
5.0900307
20
4.7472221
11
5.4948303
21
5.1969995
0
LINE
8
DEFAULT_255_1_234
10
5.216129
20
5.4652595
11
5.0675418
21
5.4652595
0
LINE
8
DEFAULT_255_1_234
10
5.5823762
20
5.1014218
11
5.2691384
21
4.7616792
0
LINE
8
DEFAULT_255_1_234
10
5.2691384
20
4.7616792
11
5.8562585
21
4.7616792
0
ARC
8
DEFAULT_255_1_234
10
4.1458136
20
6.3899527
40
1.8008286
50
318.5132453
51
320.7828378
0
ARC
8
DEFAULT_255_1_234
10
4.674511
20
5.9596426
40
1.1191493
50
320.7372736
51
323.9737074
0
ARC
8
DEFAULT_255_1_234
10
5.0664967
20
5.6756361
40
0.6350923
50
323.8961724
51
328.6421089
0
ARC
8
DEFAULT_255_1_234
10
5.2711562
20
5.5494031
40
0.3946393
50
328.8299013
51
331.789948
0
ARC
8
DEFAULT_255_1_234
10
5.3708741
20
5.4979509
40
0.2824501
50
331.4255242
51
352.9364833
0
ARC
8
DEFAULT_255_1_234
10
5.3845241
20
5.4948976
40
0.2685315
50
353.2248685
51
0.0169286
0
ARC
8
DEFAULT_255_1_234
10
5.4055118
20
5.497195
40
0.2475536
50
359.4866256
51
15.9339782
0
ARC
8
DEFAULT_255_1_234
10
5.4562104
20
5.5108286
40
0.1950618
50
16.1714718
51
43.5284424
0
ARC
8
DEFAULT_255_1_234
10
5.4639412
20
5.5185573
40
0.184134
50
43.4415429
51
83.1661404
0
ARC
8
DEFAULT_255_1_234
10
5.450533
20
5.4448771
40
0.258926
50
82.160215
51
90.1505798
0
ARC
8
DEFAULT_255_1_234
10
5.4473758
20
5.3911865
40
0.3126255
50
89.5460705
51
102.5418777
0
ARC
8
DEFAULT_255_1_234
10
5.4230844
20
5.4942665
40
0.2067346
50
102.1739365
51
129.2061916
0
ARC
8
DEFAULT_255_1_234
10
5.4151916
20
5.5067094
40
0.1921118
50
129.7279328
51
135.7542026
0
ARC
8
DEFAULT_255_1_234
10
5.4273443
20
5.4970045
40
0.2075944
50
136.175737
51
166.3674722
0
ARC
8
DEFAULT_255_1_234
10
5.5280362
20
5.4700182
40
0.3118201
50
165.9092917
51
178.8683903
0
ARC
8
DEFAULT_255_1_234
10
5.6145224
20
5.4653179
40
0.3983935
50
178.438168
51
180.0083905
0
ARC
8
DEFAULT_255_1_234
10
5.4743826
20
5.4692231
40
0.4068601
50
163.2878735
51
180.5581814
0
ARC
8
DEFAULT_255_1_234
10
5.3942087
20
5.491284
40
0.3237344
50
133.454115
51
162.9470031
0
ARC
8
DEFAULT_255_1_234
10
5.4120629
20
5.4723
40
0.349795
50
100.7869394
51
133.4384016
0
ARC
8
DEFAULT_255_1_234
10
5.44684
20
5.3174319
40
0.5084616
50
89.6605301
51
101.3704185
0
ARC
8
DEFAULT_255_1_234
10
5.4534739
20
5.3235496
40
0.502348
50
78.2171172
51
90.4130393
0
ARC
8
DEFAULT_255_1_234
10
5.4889817
20
5.4859637
40
0.3361092
50
55.9268222
51
78.4888551
0
ARC
8
DEFAULT_255_1_234
10
5.5086257
20
5.5198324
40
0.2970617
50
47.9292255
51
55.4054003
0
ARC
8
DEFAULT_255_1_234
10
5.5187818
20
5.5301502
40
0.2825983
50
4.3347696
51
48.0560701
0
ARC
8
DEFAULT_255_1_234
10
5.4092212
20
5.5131601
40
0.393225
50
359.925209
51
5.5967654
0
ARC
8
DEFAULT_255_1_234
10
5.4521103
20
5.5187816
40
0.3503892
50
337.8914096
51
358.9967724
0
ARC
8
DEFAULT_255_1_234
10
5.1807515
20
5.6234706
40
0.6412172
50
326.9135351
51
338.3505194
0
ARC
8
DEFAULT_255_1_234
10
4.7821819
20
5.8789284
40
1.1146189
50
319.6472867
51
327.095818
0
ARC
8
DEFAULT_255_1_234
10
4.3988822
20
6.1951
40
1.6114559
50
317.2586784
51
319.9046139
0
LINE
8
DEFAULT_255_1_234
10
4.5025392
20
12.5779
11
4.0969364
21
12.5779
0
LINE
8
DEFAULT_255_1_234
10
4.0969364
20
12.5779
11
4.0969364
21
13.7473211
0
LINE
8
DEFAULT_255_1_234
10
4.0969364
20
13.7473211
11
4.4792471
21
13.7473211
0
LINE
8
DEFAULT_255_1_234
10
4.5081614
20
13.1248614
11
4.2511458
21
13.1248614
0
LINE
8
DEFAULT_255_1_234
10
4.2511458
20
13.1248614
11
4.2511458
21
12.7039983
0
LINE
8
DEFAULT_255_1_234
10
4.2511458
20
12.7039983
11
4.5057519
21
12.7039983
0
LINE
8
DEFAULT_255_1_234
10
4.2511458
20
13.6204196
11
4.2511458
21
13.2485501
0
LINE
8
DEFAULT_255_1_234
10
4.2511458
20
13.2485501
11
4.4840662
21
13.2485501
0
LINE
8
DEFAULT_255_1_234
10
4.4792471
20
13.6204196
11
4.2511458
21
13.6204196
0
ARC
8
DEFAULT_255_1_234
10
4.483018
20
13.0105901
40
0.7367406
50
82.1257326
51
90.2932599
0
ARC
8
DEFAULT_255_1_234
10
4.5219135
20
13.2824013
40
0.4621653
50
69.9044149
51
82.2857423
0
ARC
8
DEFAULT_255_1_234
10
4.5789813
20
13.4366637
40
0.2976871
50
51.1838526
51
70.0181538
0
ARC
8
DEFAULT_255_1_234
10
4.6044779
20
13.473724
40
0.2528517
50
12.1017251
51
50.4214761
0
ARC
8
DEFAULT_255_1_234
10
4.4660653
20
13.4389676
40
0.3955061
50
359.5251267
51
12.8211707
0
ARC
8
DEFAULT_255_1_234
10
4.6240579
20
13.4320344
40
0.2375281
50
323.4908128
51
0.8817314
0
ARC
8
DEFAULT_255_1_234
10
4.5822266
20
13.464355
40
0.2903817
50
298.6825083
51
323.2756573
0
ARC
8
DEFAULT_255_1_234
10
4.5460629
20
13.5244649
40
0.3604842
50
293.1999386
51
299.1396394
0
ARC
8
DEFAULT_255_1_234
10
4.6133602
20
12.9159126
40
0.2871098
50
54.0011765
51
74.9167975
0
ARC
8
DEFAULT_255_1_234
10
4.6249961
20
12.9356332
40
0.2643248
50
36.3580696
51
53.5291921
0
ARC
8
DEFAULT_255_1_234
10
4.6123203
20
12.9265998
40
0.2798884
50
4.8189881
51
36.3089977
0
ARC
8
DEFAULT_255_1_234
10
4.5344038
20
12.915627
40
0.358478
50
359.9370252
51
5.5204067
0
ARC
8
DEFAULT_255_1_234
10
4.501956
20
12.9115667
40
0.3909429
50
344.7478609
51
0.5373281
0
ARC
8
DEFAULT_255_1_234
10
4.6010531
20
12.8848544
40
0.2883093
50
311.1786488
51
344.6886812
0
ARC
8
DEFAULT_255_1_234
10
4.5718578
20
12.9211987
40
0.3348923
50
286.0418249
51
310.8441291
0
ARC
8
DEFAULT_255_1_234
10
4.521141
20
13.0858807
40
0.5071869
50
274.1042341
51
286.4071509
0
ARC
8
DEFAULT_255_1_234
10
4.5034666
20
13.2742229
40
0.6963234
50
269.9236873
51
274.445647
0
ARC
8
DEFAULT_255_1_234
10
4.5080667
20
13.0402537
40
0.3362634
50
269.6055768
51
281.3740047
0
ARC
8
DEFAULT_255_1_234
10
4.5311305
20
12.9309353
40
0.224546
50
281.1055983
51
302.5132223
0
ARC
8
DEFAULT_255_1_234
10
4.5458204
20
12.9045823
40
0.1944357
50
303.0368945
51
311.8811219
0
ARC
8
DEFAULT_255_1_234
10
4.5529611
20
12.896089
40
0.1833454
50
311.9916004
51
351.7143462
0
ARC
8
DEFAULT_255_1_234
10
4.4712841
20
12.912593
40
0.2665871
50
350.7339597
51
0.2221581
0
ARC
8
DEFAULT_255_1_234
10
4.4605287
20
12.9182467
40
0.2773789
50
359.0456241
51
17.2296242
0
ARC
8
DEFAULT_255_1_234
10
4.5644404
20
12.9491163
40
0.1689915
50
17.6685481
51
78.9940892
0
ARC
8
DEFAULT_255_1_234
10
4.5127568
20
12.7636224
40
0.3612658
50
76.5635957
51
90.6980921
0
LINE
8
DEFAULT_255_1_234
10
4.5083552
20
13.1248613
11
4.5081614
21
13.1248614
0
ARC
8
DEFAULT_255_1_234
10
4.4863228
20
13.5771036
40
0.3285612
50
269.6064736
51
281.4533503
0
ARC
8
DEFAULT_255_1_234
10
4.5086048
20
13.4719688
40
0.2210975
50
281.2041486
51
302.5148063
0
ARC
8
DEFAULT_255_1_234
10
4.5222898
20
13.4473241
40
0.1929674
50
303.021671
51
309.8369575
0
ARC
8
DEFAULT_255_1_234
10
4.5406359
20
13.4267488
40
0.1654181
50
309.5228395
51
356.9509836
0
ARC
8
DEFAULT_255_1_234
10
4.4742942
20
13.4362932
40
0.2322512
50
355.4701227
51
0.0492546
0
ARC
8
DEFAULT_255_1_234
10
4.4464033
20
13.4385094
40
0.2601498
50
359.5558597
51
11.2096359
0
ARC
8
DEFAULT_255_1_234
10
4.5421323
20
13.458323
40
0.1623975
50
10.9182341
51
31.3230275
0
ARC
8
DEFAULT_255_1_234
10
4.5707056
20
13.4742214
40
0.1297302
50
31.8852677
51
52.1412565
0
ARC
8
DEFAULT_255_1_234
10
4.5432789
20
13.435475
40
0.1771663
50
52.8285564
51
71.9850297
0
ARC
8
DEFAULT_255_1_234
10
4.5056965
20
13.3248664
40
0.2939794
50
71.6863486
51
82.8455995
0
ARC
8
DEFAULT_255_1_234
10
4.4817501
20
13.1439149
40
0.476506
50
82.6984714
51
90.1729175
0
ARC
8
DEFAULT_255_1_234
10
4.4795136
20
13.2662623
40
0.3541573
50
89.8708275
51
90.0431131
0
LINE
8
DEFAULT_255_1_234
10
5.5707604
20
13.7529433
11
5.5707604
21
12.5779
0
LINE
8
DEFAULT_255_1_234
10
5.5707604
20
12.5779
11
5.42137
21
12.5779
0
LINE
8
DEFAULT_255_1_234
10
5.42137
20
12.5779
11
5.42137
21
13.5682133
0
LINE
8
DEFAULT_255_1_234
10
5.42137
20
13.5682133
11
5.1217862
21
13.4581785
0
LINE
8
DEFAULT_255_1_234
10
5.1217862
20
13.4581785
11
5.1217862
21
13.5931117
0
LINE
8
DEFAULT_255_1_234
10
5.1217862
20
13.5931117
11
5.5474683
21
13.7529433
0
LINE
8
DEFAULT_255_1_234
10
5.5474683
20
13.7529433
11
5.5707604
21
13.7529433
0
LINE
8
DEFAULT_255_1_234
10
4.9705293
20
20.5154
11
4.8588881
21
20.8206061
0
LINE
8
DEFAULT_255_1_234
10
4.8588881
20
20.8206061
11
4.3689521
21
20.8206061
0
LINE
8
DEFAULT_255_1_234
10
4.3689521
20
20.8206061
11
4.2589173
21
20.5154
0
LINE
8
DEFAULT_255_1_234
10
4.2589173
20
20.5154
11
4.0998889
21
20.5154
0
LINE
8
DEFAULT_255_1_234
10
4.0998889
20
20.5154
11
4.5464535
21
21.6848211
0
LINE
8
DEFAULT_255_1_234
10
4.5464535
20
21.6848211
11
4.6813867
21
21.6848211
0
LINE
8
DEFAULT_255_1_234
10
4.6813867
20
21.6848211
11
5.1287545
21
20.5154
0
LINE
8
DEFAULT_255_1_234
10
5.1287545
20
20.5154
11
4.9705293
21
20.5154
0
LINE
8
DEFAULT_255_1_234
10
4.6139201
20
21.4944689
11
4.4155362
21
20.9475075
0
LINE
8
DEFAULT_255_1_234
10
4.4155362
20
20.9475075
11
4.8131072
21
20.9475075
0
LINE
8
DEFAULT_255_1_234
10
4.8131072
20
20.9475075
11
4.6139201
21
21.4944689
0
LINE
8
DEFAULT_255_1_234
10
6.0138521
20
20.6366792
11
6.0138521
21
20.5154
0
LINE
8
DEFAULT_255_1_234
10
6.0138521
20
20.5154
11
5.2476243
21
20.5154
0
LINE
8
DEFAULT_255_1_234
10
5.2476243
20
20.5154
11
5.2476243
21
20.6222221
0
LINE
8
DEFAULT_255_1_234
10
5.2476243
20
20.6222221
11
5.6524239
21
21.0719995
0
LINE
8
DEFAULT_255_1_234
10
5.3737226
20
21.3402595
11
5.2251354
21
21.3402595
0
LINE
8
DEFAULT_255_1_234
10
5.7399698
20
20.9764218
11
5.426732
21
20.6366792
0
LINE
8
DEFAULT_255_1_234
10
5.426732
20
20.6366792
11
6.0138521
21
20.6366792
0
ARC
8
DEFAULT_255_1_234
10
4.3034072
20
22.2649527
40
1.8008286
50
318.5132453
51
320.7828378
0
ARC
8
DEFAULT_255_1_234
10
4.8321047
20
21.8346426
40
1.1191493
50
320.7372736
51
323.9737074
0
ARC
8
DEFAULT_255_1_234
10
5.2240903
20
21.5506361
40
0.6350923
50
323.8961724
51
328.6421089
0
ARC
8
DEFAULT_255_1_234
10
5.4287498
20
21.4244031
40
0.3946393
50
328.8299013
51
331.789948
0
ARC
8
DEFAULT_255_1_234
10
5.5284677
20
21.3729509
40
0.2824501
50
331.4255242
51
352.9364833
0
ARC
8
DEFAULT_255_1_234
10
5.5421177
20
21.3698976
40
0.2685315
50
353.2248685
51
0.0169286
0
ARC
8
DEFAULT_255_1_234
10
5.5631054
20
21.372195
40
0.2475536
50
359.4866256
51
15.9339782
0
ARC
8
DEFAULT_255_1_234
10
5.613804
20
21.3858286
40
0.1950618
50
16.1714718
51
43.5284424
0
ARC
8
DEFAULT_255_1_234
10
5.6215348
20
21.3935573
40
0.184134
50
43.4415429
51
83.1661404
0
ARC
8
DEFAULT_255_1_234
10
5.6081266
20
21.3198771
40
0.258926
50
82.160215
51
90.1505798
0
ARC
8
DEFAULT_255_1_234
10
5.6049694
20
21.2661865
40
0.3126255
50
89.5460705
51
102.5418777
0
ARC
8
DEFAULT_255_1_234
10
5.580678
20
21.3692665
40
0.2067346
50
102.1739365
51
129.2061916
0
ARC
8
DEFAULT_255_1_234
10
5.5727852
20
21.3817094
40
0.1921118
50
129.7279328
51
135.7542026
0
ARC
8
DEFAULT_255_1_234
10
5.5849379
20
21.3720045
40
0.2075944
50
136.175737
51
166.3674722
0
ARC
8
DEFAULT_255_1_234
10
5.6856298
20
21.3450182
40
0.3118201
50
165.9092917
51
178.8683903
0
ARC
8
DEFAULT_255_1_234
10
5.772116
20
21.3403179
40
0.3983935
50
178.438168
51
180.0083905
0
ARC
8
DEFAULT_255_1_234
10
5.6319762
20
21.3442231
40
0.4068601
50
163.2878735
51
180.5581814
0
ARC
8
DEFAULT_255_1_234
10
5.5518023
20
21.366284
40
0.3237344
50
133.454115
51
162.9470031
0
ARC
8
DEFAULT_255_1_234
10
5.5696565
20
21.3473
40
0.349795
50
100.7869394
51
133.4384016
0
ARC
8
DEFAULT_255_1_234
10
5.6044336
20
21.1924319
40
0.5084616
50
89.6605301
51
101.3704185
0
ARC
8
DEFAULT_255_1_234
10
5.6110675
20
21.1985496
40
0.502348
50
78.2171172
51
90.4130393
0
ARC
8
DEFAULT_255_1_234
10
5.6465753
20
21.3609637
40
0.3361092
50
55.9268222
51
78.4888551
0
ARC
8
DEFAULT_255_1_234
10
5.6662193
20
21.3948324
40
0.2970617
50
47.9292255
51
55.4054003
0
ARC
8
DEFAULT_255_1_234
10
5.6763754
20
21.4051502
40
0.2825983
50
4.3347696
51
48.0560701
0
ARC
8
DEFAULT_255_1_234
10
5.5668148
20
21.3881601
40
0.393225
50
359.925209
51
5.5967654
0
ARC
8
DEFAULT_255_1_234
10
5.6097039
20
21.3937816
40
0.3503892
50
337.8914096
51
358.9967724
0
ARC
8
DEFAULT_255_1_234
10
5.3383451
20
21.4984706
40
0.6412172
50
326.9135351
51
338.3505194
0
ARC
8
DEFAULT_255_1_234
10
4.9397755
20
21.7539284
40
1.1146189
50
319.6472867
51
327.095818
0
ARC
8
DEFAULT_255_1_234
10
4.5564758
20
22.0701
40
1.6114559
50
317.2586784
51
319.9046139
0
LINE
8
DEFAULT_255_1_234
10
4.9617293
20
28.4529
11
4.8500881
21
28.7581061
0
LINE
8
DEFAULT_255_1_234
10
4.8500881
20
28.7581061
11
4.3601521
21
28.7581061
0
LINE
8
DEFAULT_255_1_234
10
4.3601521
20
28.7581061
11
4.2501173
21
28.4529
0
LINE
8
DEFAULT_255_1_234
10
4.2501173
20
28.4529
11
4.0910889
21
28.4529
0
LINE
8
DEFAULT_255_1_234
10
4.0910889
20
28.4529
11
4.5376535
21
29.6223211
0
LINE
8
DEFAULT_255_1_234
10
4.5376535
20
29.6223211
11
4.6725867
21
29.6223211
0
LINE
8
DEFAULT_255_1_234
10
4.6725867
20
29.6223211
11
5.1199545
21
28.4529
0
LINE
8
DEFAULT_255_1_234
10
5.1199545
20
28.4529
11
4.9617293
21
28.4529
0
LINE
8
DEFAULT_255_1_234
10
4.6051201
20
29.4319689
11
4.4067362
21
28.8850075
0
LINE
8
DEFAULT_255_1_234
10
4.4067362
20
28.8850075
11
4.8043072
21
28.8850075
0
LINE
8
DEFAULT_255_1_234
10
4.8043072
20
28.8850075
11
4.6051201
21
29.4319689
0
LINE
8
DEFAULT_255_1_234
10
5.727154
20
29.6279433
11
5.727154
21
28.4529
0
LINE
8
DEFAULT_255_1_234
10
5.727154
20
28.4529
11
5.5777636
21
28.4529
0
LINE
8
DEFAULT_255_1_234
10
5.5777636
20
28.4529
11
5.5777636
21
29.4432133
0
LINE
8
DEFAULT_255_1_234
10
5.5777636
20
29.4432133
11
5.2781798
21
29.3331785
0
LINE
8
DEFAULT_255_1_234
10
5.2781798
20
29.3331785
11
5.2781798
21
29.4681117
0
LINE
8
DEFAULT_255_1_234
10
5.2781798
20
29.4681117
11
5.7038619
21
29.6279433
0
LINE
8
DEFAULT_255_1_234
10
5.7038619
20
29.6279433
11
5.727154
21
29.6279433
0
LINE
8
DEFAULT_255_1_234
10
4.8771119
20
36.5116792
11
4.8771119
21
36.3904
0
LINE
8
DEFAULT_255_1_234
10
4.8771119
20
36.3904
11
4.110884
21
36.3904
0
LINE
8
DEFAULT_255_1_234
10
4.110884
20
36.3904
11
4.110884
21
36.4972221
0
LINE
8
DEFAULT_255_1_234
10
4.110884
20
36.4972221
11
4.5156836
21
36.9469995
0
LINE
8
DEFAULT_255_1_234
10
4.2369823
20
37.2152595
11
4.0883952
21
37.2152595
0
LINE
8
DEFAULT_255_1_234
10
4.6032296
20
36.8514218
11
4.2899918
21
36.5116792
0
LINE
8
DEFAULT_255_1_234
10
4.2899918
20
36.5116792
11
4.8771119
21
36.5116792
0
ARC
8
DEFAULT_255_1_234
10
3.166667
20
38.1399527
40
1.8008286
50
318.5132453
51
320.7828378
0
ARC
8
DEFAULT_255_1_234
10
3.6953644
20
37.7096426
40
1.1191493
50
320.7372736
51
323.9737074
0
ARC
8
DEFAULT_255_1_234
10
4.0873501
20
37.4256361
40
0.6350923
50
323.8961724
51
328.6421089
0
ARC
8
DEFAULT_255_1_234
10
4.2920096
20
37.2994031
40
0.3946393
50
328.8299013
51
331.789948
0
ARC
8
DEFAULT_255_1_234
10
4.3917274
20
37.2479509
40
0.2824501
50
331.4255242
51
352.9364833
0
ARC
8
DEFAULT_255_1_234
10
4.4053775
20
37.2448976
40
0.2685315
50
353.2248685
51
0.0169286
0
ARC
8
DEFAULT_255_1_234
10
4.4263652
20
37.247195
40
0.2475536
50
359.4866256
51
15.9339782
0
ARC
8
DEFAULT_255_1_234
10
4.4770637
20
37.2608286
40
0.1950618
50
16.1714718
51
43.5284424
0
ARC
8
DEFAULT_255_1_234
10
4.4847946
20
37.2685573
40
0.184134
50
43.4415429
51
83.1661404
0
ARC
8
DEFAULT_255_1_234
10
4.4713864
20
37.1948771
40
0.258926
50
82.160215
51
90.1505798
0
ARC
8
DEFAULT_255_1_234
10
4.4682291
20
37.1411865
40
0.3126255
50
89.5460705
51
102.5418777
0
ARC
8
DEFAULT_255_1_234
10
4.4439377
20
37.2442665
40
0.2067346
50
102.1739365
51
129.2061916
0
ARC
8
DEFAULT_255_1_234
10
4.4360449
20
37.2567094
40
0.1921118
50
129.7279328
51
135.7542026
0
ARC
8
DEFAULT_255_1_234
10
4.4481977
20
37.2470045
40
0.2075944
50
136.175737
51
166.3674722
0
ARC
8
DEFAULT_255_1_234
10
4.5488896
20
37.2200182
40
0.3118201
50
165.9092917
51
178.8683903
0
ARC
8
DEFAULT_255_1_234
10
4.6353757
20
37.2153179
40
0.3983935
50
178.438168
51
180.0083905
0
ARC
8
DEFAULT_255_1_234
10
4.4952359
20
37.2192231
40
0.4068601
50
163.2878735
51
180.5581814
0
ARC
8
DEFAULT_255_1_234
10
4.4150621
20
37.241284
40
0.3237344
50
133.454115
51
162.9470031
0
ARC
8
DEFAULT_255_1_234
10
4.4329162
20
37.2223
40
0.349795
50
100.7869394
51
133.4384016
0
ARC
8
DEFAULT_255_1_234
10
4.4676934
20
37.0674319
40
0.5084616
50
89.6605301
51
101.3704185
0
ARC
8
DEFAULT_255_1_234
10
4.4743273
20
37.0735496
40
0.502348
50
78.2171172
51
90.4130393
0
ARC
8
DEFAULT_255_1_234
10
4.5098351
20
37.2359637
40
0.3361092
50
55.9268222
51
78.4888551
0
ARC
8
DEFAULT_255_1_234
10
4.5294791
20
37.2698324
40
0.2970617
50
47.9292255
51
55.4054003
0
ARC
8
DEFAULT_255_1_234
10
4.5396352
20
37.2801502
40
0.2825983
50
4.3347696
51
48.0560701
0
ARC
8
DEFAULT_255_1_234
10
4.4300745
20
37.2631601
40
0.393225
50
359.925209
51
5.5967654
0
ARC
8
DEFAULT_255_1_234
10
4.4729637
20
37.2687816
40
0.3503892
50
337.8914096
51
358.9967724
0
ARC
8
DEFAULT_255_1_234
10
4.2016049
20
37.3734706
40
0.6412172
50
326.9135351
51
338.3505194
0
ARC
8
DEFAULT_255_1_234
10
3.8030353
20
37.6289284
40
1.1146189
50
319.6472867
51
327.095818
0
ARC
8
DEFAULT_255_1_234
10
3.4197356
20
37.9451
40
1.6114559
50
317.2586784
51
319.9046139
0
LINE
8
DEFAULT_255_1_234
10
5.2280988
20
37.5598211
11
5.2280988
21
36.5164983
0
LINE
8
DEFAULT_255_1_234
10
5.2280988
20
36.5164983
11
5.7822888
21
36.5164983
0
LINE
8
DEFAULT_255_1_234
10
5.7822888
20
36.5164983
11
5.7822888
21
36.3904
0
LINE
8
DEFAULT_255_1_234
10
5.7822888
20
36.3904
11
5.0730863
21
36.3904
0
LINE
8
DEFAULT_255_1_234
10
5.0730863
20
36.3904
11
5.0730863
21
37.5598211
0
LINE
8
DEFAULT_255_1_234
10
5.0730863
20
37.5598211
11
5.2280988
21
37.5598211
0
LINE
8
DEFAULT_255_1_234
10
6.3605739
20
37.3590276
11
6.3605739
21
37.0176788
0
LINE
8
DEFAULT_255_1_234
10
6.3605739
20
37.0176788
11
6.6866625
21
37.0176788
0
LINE
8
DEFAULT_255_1_234
10
6.6866625
20
37.0176788
11
6.6866625
21
36.8771233
0
LINE
8
DEFAULT_255_1_234
10
6.6866625
20
36.8771233
11
6.3605739
21
36.8771233
0
LINE
8
DEFAULT_255_1_234
10
6.3605739
20
36.8771233
11
6.3605739
21
36.5076634
0
LINE
8
DEFAULT_255_1_234
10
6.3605739
20
36.5076634
11
6.2111836
21
36.5076634
0
LINE
8
DEFAULT_255_1_234
10
6.2111836
20
36.5076634
11
6.2111836
21
36.8771233
0
LINE
8
DEFAULT_255_1_234
10
6.2111836
20
36.8771233
11
5.885095
21
36.8771233
0
LINE
8
DEFAULT_255_1_234
10
5.885095
20
36.8771233
11
5.885095
21
37.0176788
0
LINE
8
DEFAULT_255_1_234
10
5.885095
20
37.0176788
11
6.2111836
21
37.0176788
0
LINE
8
DEFAULT_255_1_234
10
6.2111836
20
37.0176788
11
6.2111836
21
37.3590276
0
LINE
8
DEFAULT_255_1_234
10
6.2111836
20
37.3590276
11
6.3605739
21
37.3590276
0
LINE
8
DEFAULT_255_1_234
10
22.5123137
20
45.5029433
11
22.5123137
21
44.3279
0
LINE
8
DEFAULT_255_1_234
10
22.5123137
20
44.3279
11
22.3629234
21
44.3279
0
LINE
8
DEFAULT_255_1_234
10
22.3629234
20
44.3279
11
22.3629234
21
45.3182133
0
LINE
8
DEFAULT_255_1_234
10
22.3629234
20
45.3182133
11
22.0633396
21
45.2081785
0
LINE
8
DEFAULT_255_1_234
10
22.0633396
20
45.2081785
11
22.0633396
21
45.3431117
0
LINE
8
DEFAULT_255_1_234
10
22.0633396
20
45.3431117
11
22.4890217
21
45.5029433
0
LINE
8
DEFAULT_255_1_234
10
22.4890217
20
45.5029433
11
22.5123137
21
45.5029433
0
LINE
8
DEFAULT_255_1_234
10
22.9861863
20
45.4973211
11
23.1853734
21
45.4973211
0
LINE
8
DEFAULT_255_1_234
10
23.1853734
20
45.4973211
11
23.5676841
21
44.5431506
0
LINE
8
DEFAULT_255_1_234
10
23.5676841
20
44.5431506
11
23.9499949
21
45.4973211
0
LINE
8
DEFAULT_255_1_234
10
23.9499949
20
45.4973211
11
24.1499852
21
45.4973211
0
LINE
8
DEFAULT_255_1_234
10
24.1499852
20
45.4973211
11
24.1499852
21
44.3279
0
LINE
8
DEFAULT_255_1_234
10
24.1499852
20
44.3279
11
23.9957758
21
44.3279
0
LINE
8
DEFAULT_255_1_234
10
23.9957758
20
44.3279
11
23.9957758
21
44.7832996
0
LINE
8
DEFAULT_255_1_234
10
23.9957758
20
44.7832996
11
24.0102329
21
45.2748419
0
LINE
8
DEFAULT_255_1_234
10
24.0102329
20
45.2748419
11
23.6263158
21
44.3279
0
LINE
8
DEFAULT_255_1_234
10
23.6263158
20
44.3279
11
23.5082493
21
44.3279
0
LINE
8
DEFAULT_255_1_234
10
23.5082493
20
44.3279
11
23.1251354
21
45.2724324
0
LINE
8
DEFAULT_255_1_234
10
23.1251354
20
45.2724324
11
23.1403957
21
44.7832996
0
LINE
8
DEFAULT_255_1_234
10
23.1403957
20
44.7832996
11
23.1403957
21
44.3279
0
LINE
8
DEFAULT_255_1_234
10
23.1403957
20
44.3279
11
22.9861863
21
44.3279
0
LINE
8
DEFAULT_255_1_234
10
22.9861863
20
44.3279
11
22.9861863
21
45.4973211
0
LINE
8
DEFAULT_255_1_234
10
22.7902119
20
36.5116792
11
22.7902119
21
36.3904
0
LINE
8
DEFAULT_255_1_234
10
22.7902119
20
36.3904
11
22.023984
21
36.3904
0
LINE
8
DEFAULT_255_1_234
10
22.023984
20
36.3904
11
22.023984
21
36.4972221
0
LINE
8
DEFAULT_255_1_234
10
22.023984
20
36.4972221
11
22.4287836
21
36.9469995
0
LINE
8
DEFAULT_255_1_234
10
22.1500823
20
37.2152595
11
22.0014952
21
37.2152595
0
LINE
8
DEFAULT_255_1_234
10
22.5163296
20
36.8514218
11
22.2030918
21
36.5116792
0
LINE
8
DEFAULT_255_1_234
10
22.2030918
20
36.5116792
11
22.7902119
21
36.5116792
0
ARC
8
DEFAULT_255_1_234
10
21.079767
20
38.1399527
40
1.8008286
50
318.5132453
51
320.7828378
0
ARC
8
DEFAULT_255_1_234
10
21.6084644
20
37.7096426
40
1.1191493
50
320.7372736
51
323.9737074
0
ARC
8
DEFAULT_255_1_234
10
22.0004501
20
37.4256361
40
0.6350923
50
323.8961724
51
328.6421089
0
ARC
8
DEFAULT_255_1_234
10
22.2051096
20
37.2994031
40
0.3946393
50
328.8299013
51
331.789948
0
ARC
8
DEFAULT_255_1_234
10
22.3048274
20
37.2479509
40
0.2824501
50
331.4255242
51
352.9364833
0
ARC
8
DEFAULT_255_1_234
10
22.3184775
20
37.2448976
40
0.2685315
50
353.2248685
51
0.0169286
0
ARC
8
DEFAULT_255_1_234
10
22.3394652
20
37.247195
40
0.2475536
50
359.4866256
51
15.9339782
0
ARC
8
DEFAULT_255_1_234
10
22.3901637
20
37.2608286
40
0.1950618
50
16.1714718
51
43.5284424
0
ARC
8
DEFAULT_255_1_234
10
22.3978946
20
37.2685573
40
0.184134
50
43.4415429
51
83.1661404
0
ARC
8
DEFAULT_255_1_234
10
22.3844864
20
37.1948771
40
0.258926
50
82.160215
51
90.1505798
0
ARC
8
DEFAULT_255_1_234
10
22.3813291
20
37.1411865
40
0.3126255
50
89.5460705
51
102.5418777
0
ARC
8
DEFAULT_255_1_234
10
22.3570377
20
37.2442665
40
0.2067346
50
102.1739365
51
129.2061916
0
ARC
8
DEFAULT_255_1_234
10
22.3491449
20
37.2567094
40
0.1921118
50
129.7279328
51
135.7542026
0
ARC
8
DEFAULT_255_1_234
10
22.3612977
20
37.2470045
40
0.2075944
50
136.175737
51
166.3674722
0
ARC
8
DEFAULT_255_1_234
10
22.4619896
20
37.2200182
40
0.3118201
50
165.9092917
51
178.8683903
0
ARC
8
DEFAULT_255_1_234
10
22.5484757
20
37.2153179
40
0.3983935
50
178.438168
51
180.0083905
0
ARC
8
DEFAULT_255_1_234
10
22.4083359
20
37.2192231
40
0.4068601
50
163.2878735
51
180.5581814
0
ARC
8
DEFAULT_255_1_234
10
22.3281621
20
37.241284
40
0.3237344
50
133.454115
51
162.9470031
0
ARC
8
DEFAULT_255_1_234
10
22.3460162
20
37.2223
40
0.349795
50
100.7869394
51
133.4384016
0
ARC
8
DEFAULT_255_1_234
10
22.3807934
20
37.0674319
40
0.5084616
50
89.6605301
51
101.3704185
0
ARC
8
DEFAULT_255_1_234
10
22.3874273
20
37.0735496
40
0.502348
50
78.2171172
51
90.4130393
0
ARC
8
DEFAULT_255_1_234
10
22.4229351
20
37.2359637
40
0.3361092
50
55.9268222
51
78.4888551
0
ARC
8
DEFAULT_255_1_234
10
22.4425791
20
37.2698324
40
0.2970617
50
47.9292255
51
55.4054003
0
ARC
8
DEFAULT_255_1_234
10
22.4527352
20
37.2801502
40
0.2825983
50
4.3347696
51
48.0560701
0
ARC
8
DEFAULT_255_1_234
10
22.3431745
20
37.2631601
40
0.393225
50
359.925209
51
5.5967654
0
ARC
8
DEFAULT_255_1_234
10
22.3860637
20
37.2687816
40
0.3503892
50
337.8914096
51
358.9967724
0
ARC
8
DEFAULT_255_1_234
10
22.1147049
20
37.3734706
40
0.6412172
50
326.9135351
51
338.3505194
0
ARC
8
DEFAULT_255_1_234
10
21.7161353
20
37.6289284
40
1.1146189
50
319.6472867
51
327.095818
0
ARC
8
DEFAULT_255_1_234
10
21.3328356
20
37.9451
40
1.6114559
50
317.2586784
51
319.9046139
0
LINE
8
DEFAULT_255_1_234
10
22.9861863
20
37.5598211
11
23.1853734
21
37.5598211
0
LINE
8
DEFAULT_255_1_234
10
23.1853734
20
37.5598211
11
23.5676841
21
36.6056506
0
LINE
8
DEFAULT_255_1_234
10
23.5676841
20
36.6056506
11
23.9499949
21
37.5598211
0
LINE
8
DEFAULT_255_1_234
10
23.9499949
20
37.5598211
11
24.1499852
21
37.5598211
0
LINE
8
DEFAULT_255_1_234
10
24.1499852
20
37.5598211
11
24.1499852
21
36.3904
0
LINE
8
DEFAULT_255_1_234
10
24.1499852
20
36.3904
11
23.9957758
21
36.3904
0
LINE
8
DEFAULT_255_1_234
10
23.9957758
20
36.3904
11
23.9957758
21
36.8457996
0
LINE
8
DEFAULT_255_1_234
10
23.9957758
20
36.8457996
11
24.0102329
21
37.3373419
0
LINE
8
DEFAULT_255_1_234
10
24.0102329
20
37.3373419
11
23.6263158
21
36.3904
0
LINE
8
DEFAULT_255_1_234
10
23.6263158
20
36.3904
11
23.5082493
21
36.3904
0
LINE
8
DEFAULT_255_1_234
10
23.5082493
20
36.3904
11
23.1251354
21
37.3349324
0
LINE
8
DEFAULT_255_1_234
10
23.1251354
20
37.3349324
11
23.1403957
21
36.8457996
0
LINE
8
DEFAULT_255_1_234
10
23.1403957
20
36.8457996
11
23.1403957
21
36.3904
0
LINE
8
DEFAULT_255_1_234
10
23.1403957
20
36.3904
11
22.9861863
21
36.3904
0
LINE
8
DEFAULT_255_1_234
10
22.9861863
20
36.3904
11
22.9861863
21
37.5598211
0
ENDSEC
0
EOF