0
SECTION
2
HEADER
9
$MEASUREMENT
70
1
0
ENDSEC
0
SECTION
2
TABLES
0
TABLE
2
LTYPE
0
LTYPE
72
65
70
64
2
CONTINUOUS
3
______
73
0
40
0
0
ENDTAB
0
TABLE
2
LAYER
0
LAYER
2
DEFAULT_255_2_778
70
0
62
255
6
CONTINUOUS
0
ENDTAB
0
ENDSEC
0
SECTION
2
ENTITIES
0
ARC
8
DEFAULT_255_2_778
10
45.4074305
20
54.7627999
40
0.6785324
50
89.9858383
51
180.0057064
0
ARC
8
DEFAULT_255_2_778
10
45.4075161
20
54.7626502
40
0.6786179
50
179.9930603
51
270.0069337
0
ARC
8
DEFAULT_255_2_778
10
43.0320337
20
0.292065
40
0.4243326
50
270.0087153
51
315.0221423
0
ARC
8
DEFAULT_255_2_778
10
43.0332601
20
0.2917433
40
0.4232383
50
314.935594
51
0.0016778
0
ARC
8
DEFAULT_255_2_778
10
43.2790723
20
0.2918498
40
0.1774261
50
359.9695889
51
0.091236
0
LINE
8
DEFAULT_255_2_778
10
43.4562982
20
64.3401324
11
47.3585982
21
64.3401324
0
LINE
8
DEFAULT_255_2_778
10
47.3585982
20
64.3401324
11
47.6977982
21
64.0009324
0
LINE
8
DEFAULT_255_2_778
10
47.6977982
20
64.0009324
11
47.6977982
21
55.7805324
0
LINE
8
DEFAULT_255_2_778
10
47.6977982
20
55.7805324
11
47.3585982
21
55.4413324
0
LINE
8
DEFAULT_255_2_778
10
47.3585982
20
55.4413324
11
45.4075982
21
55.4413324
0
LINE
8
DEFAULT_255_2_778
10
45.4075982
20
54.0840324
11
47.3585982
21
54.0840324
0
LINE
8
DEFAULT_255_2_778
10
47.3585982
20
54.0840324
11
47.6977982
21
53.7448324
0
LINE
8
DEFAULT_255_2_778
10
47.6977982
20
53.7448324
11
47.6977982
21
45.5245324
0
LINE
8
DEFAULT_255_2_778
10
47.6977982
20
45.5245324
11
47.3585982
21
45.1850324
0
LINE
8
DEFAULT_255_2_778
10
47.3585982
20
45.1850324
11
43.4562982
21
45.1850324
0
LINE
8
DEFAULT_255_2_778
10
30.0018982
20
68.3273324
11
28.7803982
21
69.3452324
0
LINE
8
DEFAULT_255_2_778
10
28.7803982
20
69.3452324
11
28.3561982
21
69.3452324
0
LINE
8
DEFAULT_255_2_778
10
28.3561982
20
69.3452324
11
28.2670982
21
68.3273324
0
LINE
8
DEFAULT_255_2_778
10
26.4898982
20
1.4796324
11
26.4898982
21
-0.1322676
0
LINE
8
DEFAULT_255_2_778
10
26.4898982
20
-0.1322676
11
43.0320982
21
-0.1322676
0
LINE
8
DEFAULT_255_2_778
10
43.4564982
20
0.2921324
11
43.4564982
21
68.2943324
0
LINE
8
DEFAULT_255_2_778
10
43.4564982
20
68.2943324
11
43.4472982
21
68.3123324
0
LINE
8
DEFAULT_255_2_778
10
43.4472982
20
68.3123324
11
43.4374982
21
68.3234324
0
LINE
8
DEFAULT_255_2_778
10
43.4374982
20
68.3234324
11
43.4276982
21
68.3271324
0
LINE
8
DEFAULT_255_2_778
10
26.3199982
20
65.8670324
11
42.6076982
21
65.8670324
0
LINE
8
DEFAULT_255_2_778
10
42.6076982
20
65.8670324
11
42.6076982
21
67.2243324
0
LINE
8
DEFAULT_255_2_778
10
42.6076982
20
67.2243324
11
26.3199982
21
67.2243324
0
ARC
8
DEFAULT_255_2_778
10
25.2627073
20
72.0307874
40
0.210293
50
359.8225604
51
0.0161268
0
ARC
8
DEFAULT_255_2_778
10
25.2193709
20
72.0308472
40
0.2536294
50
359.9998596
51
47.5983195
0
ARC
8
DEFAULT_255_2_778
10
25.2189577
20
72.0306077
40
0.2540849
50
47.5659389
51
90.0175243
0
ARC
8
DEFAULT_255_2_778
10
25.2188841
20
72.0297449
40
0.2549476
50
90.0009219
51
95.2176594
0
ARC
8
DEFAULT_255_2_778
10
24.5906205
20
79.043814
40
6.787203
50
272.270225
51
275.1147064
0
ARC
8
DEFAULT_255_2_778
10
24.5906646
20
79.0430766
40
6.7864645
50
270.0000683
51
272.2700997
0
ARC
8
DEFAULT_255_2_778
10
24.5906184
20
79.0417083
40
6.7850961
50
251.3041976
51
270.000458
0
ARC
8
DEFAULT_255_2_778
10
22.3338239
20
72.3749379
40
0.2532959
50
71.1410002
51
87.5458954
0
ARC
8
DEFAULT_255_2_778
10
22.3337999
20
72.3747897
40
0.2534451
50
87.5419211
51
90.0012714
0
ARC
8
DEFAULT_255_2_778
10
22.3338076
20
72.374008
40
0.2542268
50
90.0029917
51
125.6324352
0
ARC
8
DEFAULT_255_2_778
10
22.3338726
20
72.3741195
40
0.2541741
50
125.6589893
51
179.969231
0
ARC
8
DEFAULT_255_2_778
10
22.3199499
20
72.3742561
40
0.2402514
50
180.0000387
51
180.1478508
0
ARC
8
DEFAULT_255_2_778
10
28.1835111
20
65.8678535
40
1.8602246
50
230.7143954
51
260.0629465
0
ARC
8
DEFAULT_255_2_778
10
28.1862657
20
65.8732271
40
1.8661283
50
185.9513707
51
230.7534009
0
ARC
8
DEFAULT_255_2_778
10
28.1994347
20
65.8733119
40
1.8792354
50
179.9931635
51
185.9123129
0
LINE
8
DEFAULT_255_2_778
10
0.4462993
20
69.9389362
11
0.4459229
21
69.9389364
0
ARC
8
DEFAULT_255_2_778
10
0.4460215
20
69.684425
40
0.2545115
50
90.0221958
51
134.9539943
0
ARC
8
DEFAULT_255_2_778
10
0.4459477
20
69.6848641
40
0.2541486
50
135.0121651
51
180.0337143
0
ARC
8
DEFAULT_255_2_778
10
0.3707803
20
69.68462
40
0.1789813
50
179.969718
51
180.0908507
0
ARC
8
DEFAULT_255_2_778
10
0.3707803
20
1.3094524
40
0.1789812
50
179.9091493
51
180.030282
0
ARC
8
DEFAULT_255_2_778
10
0.4459477
20
1.3092082
40
0.2541487
50
179.9662857
51
224.9878349
0
ARC
8
DEFAULT_255_2_778
10
0.4458474
20
1.3092267
40
0.2540908
50
225.0067802
51
270.0167124
0
LINE
8
DEFAULT_255_2_778
10
0.4459215
20
1.0551359
11
0.4462993
21
1.0551362
0
LINE
8
DEFAULT_255_2_778
10
28.4047993
20
67.2242362
11
28.4047993
21
67.7333362
0
LINE
8
DEFAULT_255_2_778
10
28.4047993
20
67.7333362
11
29.3252993
21
67.7333362
0
LINE
8
DEFAULT_255_2_778
10
29.3252993
20
67.7333362
11
29.3252993
21
67.2242362
0
LINE
8
DEFAULT_255_2_778
10
25.4729993
20
69.9389362
11
25.4729993
21
72.0301362
0
LINE
8
DEFAULT_255_2_778
10
22.0796993
20
72.3736362
11
22.0796993
21
69.9389362
0
LINE
8
DEFAULT_255_2_778
10
5.9601993
20
59.8440362
11
5.9601993
21
63.5764362
0
LINE
8
DEFAULT_255_2_778
10
5.9601993
20
63.5764362
11
18.5152993
21
63.5764362
0
LINE
8
DEFAULT_255_2_778
10
18.5152993
20
63.5764362
11
18.5152993
21
59.8440362
0
LINE
8
DEFAULT_255_2_778
10
18.5152993
20
59.8440362
11
5.9601993
21
59.8440362
0
LINE
8
DEFAULT_255_2_778
10
43.4561993
20
61.2859362
11
27.8624993
21
64.0355362
0
LINE
8
DEFAULT_255_2_778
10
26.3201993
20
65.8735362
11
26.3201993
21
69.9389362
0
LINE
8
DEFAULT_255_2_778
10
26.3201993
20
69.9389362
11
0.4462993
21
69.9389362
0
LINE
8
DEFAULT_255_2_778
10
0.1917993
20
69.6843362
11
0.1917993
21
1.3097362
0
LINE
8
DEFAULT_255_2_778
10
0.4462993
20
1.0551362
11
26.4897993
21
1.0551362
0
LINE
8
DEFAULT_255_2_778
10
43.4559961
20
68.3271037
11
26.3199961
21
68.3271037
0
LINE
8
DEFAULT_255_2_778
10
43.4562961
20
41.0861037
11
47.3585961
21
41.0861037
0
LINE
8
DEFAULT_255_2_778
10
43.4562961
20
37.7127037
11
47.3585961
21
37.7127037
0
ARC
8
DEFAULT_255_2_778
10
3.4149372
20
36.1757857
40
0.7630168
50
134.9875207
51
180.0036165
0
ARC
8
DEFAULT_255_2_778
10
3.4151721
20
36.1760213
40
0.7630163
50
89.9963685
51
135.0124953
0
ARC
8
DEFAULT_255_2_778
10
3.415172
20
34.8178538
40
0.7630162
50
224.9874987
51
270.0036336
0
ARC
8
DEFAULT_255_2_778
10
3.4149372
20
34.8180894
40
0.7630168
50
179.9963835
51
225.0124793
0
LINE
8
DEFAULT_255_2_778
10
43.4562204
20
35.3274376
11
47.3586204
21
35.3274376
0
LINE
8
DEFAULT_255_2_778
10
47.3586204
20
35.3274376
11
47.3586204
21
43.4713376
0
LINE
8
DEFAULT_255_2_778
10
47.3586204
20
43.4713376
11
43.4562204
21
43.4713376
0
LINE
8
DEFAULT_255_2_778
10
1.4642204
20
69.9389376
11
1.4642204
21
1.0554376
0
LINE
8
DEFAULT_255_2_778
10
3.4152204
20
36.9390376
11
4.1788204
21
36.9390376
0
LINE
8
DEFAULT_255_2_778
10
4.1788204
20
36.9390376
11
4.1788204
21
34.0548376
0
LINE
8
DEFAULT_255_2_778
10
4.1788204
20
34.0548376
11
3.4152204
21
34.0548376
0
LINE
8
DEFAULT_255_2_778
10
2.6519204
20
34.8181376
11
2.6519204
21
36.1754376
0
ENDSEC
0
EOF