0
SECTION
2
HEADER
9
$MEASUREMENT
70
1
0
ENDSEC
0
SECTION
2
TABLES
0
TABLE
2
LTYPE
0
LTYPE
72
65
70
64
2
CONTINUOUS
3
______
73
0
40
0
0
ENDTAB
0
TABLE
2
LAYER
0
LAYER
2
DEFAULT_255_2_778
70
0
62
255
6
CONTINUOUS
0
ENDTAB
0
ENDSEC
0
SECTION
2
ENTITIES
0
ARC
8
DEFAULT_255_2_778
10
18.9863486
20
109.8112658
40
3.4944039
50
19.1888591
51
40.69537
0
ARC
8
DEFAULT_255_2_778
10
18.9804694
20
109.8063895
40
3.5020409
50
40.6931387
51
82.4790056
0
ARC
8
DEFAULT_255_2_778
10
18.9816303
20
109.7991576
40
3.5090593
50
82.5132546
51
90.0069532
0
ARC
8
DEFAULT_255_2_778
10
18.9796106
20
109.8136207
40
3.4945966
50
89.9738673
51
111.4796819
0
ARC
8
DEFAULT_255_2_778
10
18.9822016
20
109.8066569
40
3.5020256
50
111.4774089
51
153.2642235
0
ARC
8
DEFAULT_255_2_778
10
18.9895616
20
109.8052956
40
3.5092118
50
153.2984346
51
160.7920709
0
ARC
8
DEFAULT_255_2_778
10
0.9974548
20
0.3093501
40
0.4999332
50
269.9942327
51
357.0035927
0
LINE
8
DEFAULT_255_2_778
10
0.1812045
20
128.263517
11
0.1844045
21
128.319317
0
LINE
8
DEFAULT_255_2_778
10
0.1844045
20
128.319317
11
0.1939045
21
128.374617
0
LINE
8
DEFAULT_255_2_778
10
0.1939045
20
128.374617
11
0.2095045
21
128.428317
0
LINE
8
DEFAULT_255_2_778
10
0.2095045
20
128.428317
11
0.2309045
21
128.480217
0
LINE
8
DEFAULT_255_2_778
10
0.2309045
20
128.480217
11
0.2582045
21
128.529217
0
LINE
8
DEFAULT_255_2_778
10
0.2582045
20
128.529217
11
0.2907045
21
128.574917
0
LINE
8
DEFAULT_255_2_778
10
0.2907045
20
128.574917
11
0.3280045
21
128.616717
0
LINE
8
DEFAULT_255_2_778
10
0.3280045
20
128.616717
11
0.3698045
21
128.654017
0
LINE
8
DEFAULT_255_2_778
10
0.3698045
20
128.654017
11
0.4156045
21
128.686617
0
LINE
8
DEFAULT_255_2_778
10
0.4156045
20
128.686617
11
0.4648045
21
128.713817
0
LINE
8
DEFAULT_255_2_778
10
0.4648045
20
128.713817
11
0.5167045
21
128.735317
0
LINE
8
DEFAULT_255_2_778
10
0.5167045
20
128.735317
11
0.5707045
21
128.750917
0
LINE
8
DEFAULT_255_2_778
10
0.5707045
20
128.750917
11
0.6260045
21
128.760417
0
LINE
8
DEFAULT_255_2_778
10
15.6757045
20
110.959817
11
15.6580045
21
110.899717
0
LINE
8
DEFAULT_255_2_778
10
15.6580045
20
110.899717
11
15.6469045
21
110.840417
0
LINE
8
DEFAULT_255_2_778
10
15.6469045
20
110.840417
11
15.6421045
21
110.782217
0
LINE
8
DEFAULT_255_2_778
10
15.6421045
20
110.782217
11
15.6434045
21
110.725617
0
LINE
8
DEFAULT_255_2_778
10
15.6434045
20
110.725617
11
15.6506045
21
110.670817
0
LINE
8
DEFAULT_255_2_778
10
15.6506045
20
110.670817
11
15.6633045
21
110.618217
0
LINE
8
DEFAULT_255_2_778
10
15.6633045
20
110.618217
11
15.6810045
21
110.568217
0
LINE
8
DEFAULT_255_2_778
10
15.6810045
20
110.568217
11
15.6405045
21
110.373717
0
LINE
8
DEFAULT_255_2_778
10
15.6405045
20
110.373717
11
15.6114045
21
110.177117
0
LINE
8
DEFAULT_255_2_778
10
15.6114045
20
110.177117
11
15.5940045
21
109.979217
0
LINE
8
DEFAULT_255_2_778
10
15.5940045
20
109.979217
11
15.5882045
21
109.780517
0
LINE
8
DEFAULT_255_2_778
10
15.5882045
20
109.780517
11
15.5971045
21
109.532917
0
LINE
8
DEFAULT_255_2_778
10
15.5971045
20
109.532917
11
15.6244045
21
109.286517
0
LINE
8
DEFAULT_255_2_778
10
15.6244045
20
109.286517
11
15.6694045
21
109.042917
0
LINE
8
DEFAULT_255_2_778
10
15.6694045
20
109.042917
11
15.7321045
21
108.802917
0
LINE
8
DEFAULT_255_2_778
10
15.7321045
20
108.802917
11
15.8123045
21
108.568517
0
LINE
8
DEFAULT_255_2_778
10
15.8123045
20
108.568517
11
15.9094045
21
108.340417
0
LINE
8
DEFAULT_255_2_778
10
15.9094045
20
108.340417
11
16.0229045
21
108.120317
0
LINE
8
DEFAULT_255_2_778
10
16.0229045
20
108.120317
11
16.1522045
21
107.908617
0
LINE
8
DEFAULT_255_2_778
10
16.1522045
20
107.908617
11
16.2964045
21
107.707217
0
LINE
8
DEFAULT_255_2_778
10
16.2964045
20
107.707217
11
16.4552045
21
107.517017
0
LINE
8
DEFAULT_255_2_778
10
16.4552045
20
107.517017
11
16.6272045
21
107.338917
0
LINE
8
DEFAULT_255_2_778
10
16.6272045
20
107.338917
11
16.8118045
21
107.173817
0
LINE
8
DEFAULT_255_2_778
10
16.8118045
20
107.173817
11
17.0079045
21
107.022817
0
LINE
8
DEFAULT_255_2_778
10
17.0079045
20
107.022817
11
17.2145045
21
106.886217
0
LINE
8
DEFAULT_255_2_778
10
17.2145045
20
106.886217
11
17.4307045
21
106.765117
0
LINE
8
DEFAULT_255_2_778
10
17.4307045
20
106.765117
11
17.6551045
21
106.660017
0
LINE
8
DEFAULT_255_2_778
10
17.6551045
20
106.660017
11
17.8866045
21
106.571617
0
LINE
8
DEFAULT_255_2_778
10
17.8866045
20
106.571617
11
18.1237045
21
106.500517
0
LINE
8
DEFAULT_255_2_778
10
18.1237045
20
106.500517
11
18.3655045
21
106.446817
0
LINE
8
DEFAULT_255_2_778
10
18.3655045
20
106.446817
11
18.6102045
21
106.410817
0
LINE
8
DEFAULT_255_2_778
10
18.6102045
20
106.410817
11
18.8571045
21
106.392817
0
LINE
8
DEFAULT_255_2_778
10
18.8571045
20
106.392817
11
19.1045045
21
106.392817
0
LINE
8
DEFAULT_255_2_778
10
19.1045045
20
106.392817
11
19.3513045
21
106.410817
0
LINE
8
DEFAULT_255_2_778
10
19.3513045
20
106.410817
11
19.5961045
21
106.446817
0
LINE
8
DEFAULT_255_2_778
10
19.5961045
20
106.446817
11
19.8379045
21
106.500517
0
LINE
8
DEFAULT_255_2_778
10
19.8379045
20
106.500517
11
20.0750045
21
106.571617
0
LINE
8
DEFAULT_255_2_778
10
20.0750045
20
106.571617
11
20.3065045
21
106.660017
0
LINE
8
DEFAULT_255_2_778
10
20.3065045
20
106.660017
11
20.5308045
21
106.765117
0
LINE
8
DEFAULT_255_2_778
10
20.5308045
20
106.765117
11
20.7470045
21
106.886217
0
LINE
8
DEFAULT_255_2_778
10
20.7470045
20
106.886217
11
20.9536045
21
107.022817
0
LINE
8
DEFAULT_255_2_778
10
20.9536045
20
107.022817
11
21.1497045
21
107.173817
0
LINE
8
DEFAULT_255_2_778
10
21.1497045
20
107.173817
11
21.3344045
21
107.338917
0
LINE
8
DEFAULT_255_2_778
10
21.3344045
20
107.338917
11
21.5064045
21
107.517017
0
LINE
8
DEFAULT_255_2_778
10
21.5064045
20
107.517017
11
21.6651045
21
107.707217
0
LINE
8
DEFAULT_255_2_778
10
21.6651045
20
107.707217
11
21.8093045
21
107.908617
0
LINE
8
DEFAULT_255_2_778
10
21.8093045
20
107.908617
11
21.9387045
21
108.120017
0
LINE
8
DEFAULT_255_2_778
10
21.9387045
20
108.120017
11
22.0522045
21
108.340117
0
LINE
8
DEFAULT_255_2_778
10
22.0522045
20
108.340117
11
22.1493045
21
108.568217
0
LINE
8
DEFAULT_255_2_778
10
22.1493045
20
108.568217
11
22.2295045
21
108.802617
0
LINE
8
DEFAULT_255_2_778
10
22.2295045
20
108.802617
11
22.2922045
21
109.042617
0
LINE
8
DEFAULT_255_2_778
10
22.2922045
20
109.042617
11
22.3371045
21
109.286317
0
LINE
8
DEFAULT_255_2_778
10
22.3371045
20
109.286317
11
22.3644045
21
109.532617
0
LINE
8
DEFAULT_255_2_778
10
22.3644045
20
109.532617
11
22.3734045
21
109.780317
0
LINE
8
DEFAULT_255_2_778
10
22.3734045
20
109.780317
11
22.3676045
21
109.979017
0
LINE
8
DEFAULT_255_2_778
10
22.3676045
20
109.979017
11
22.3501045
21
110.176917
0
LINE
8
DEFAULT_255_2_778
10
22.3501045
20
110.176917
11
22.3210045
21
110.373417
0
LINE
8
DEFAULT_255_2_778
10
22.3210045
20
110.373417
11
22.2805045
21
110.567917
0
LINE
8
DEFAULT_255_2_778
10
22.2805045
20
110.567917
11
22.2982045
21
110.617917
0
LINE
8
DEFAULT_255_2_778
10
22.2982045
20
110.617917
11
22.3109045
21
110.670617
0
LINE
8
DEFAULT_255_2_778
10
22.3109045
20
110.670617
11
22.3181045
21
110.725317
0
LINE
8
DEFAULT_255_2_778
10
22.3181045
20
110.725317
11
22.3194045
21
110.782017
0
LINE
8
DEFAULT_255_2_778
10
22.3194045
20
110.782017
11
22.3147045
21
110.840217
0
LINE
8
DEFAULT_255_2_778
10
22.3147045
20
110.840217
11
22.3035045
21
110.899417
0
LINE
8
DEFAULT_255_2_778
10
22.3035045
20
110.899417
11
22.2858045
21
110.959517
0
LINE
8
DEFAULT_255_2_778
10
1.6814045
20
3.809317
11
1.4967045
21
0.283217
0
LINE
8
DEFAULT_255_2_778
10
5.5644045
20
2.136417
11
5.5059045
21
3.809317
0
ARC
8
DEFAULT_255_2_778
10
0.6813566
20
0.3095021
40
0.5000969
50
179.9996485
51
270.0003515
0
ARC
8
DEFAULT_255_2_778
10
4.5807136
20
0.4100513
40
0.6006464
50
270.0520945
51
359.9479055
0
LINE
8
DEFAULT_255_2_778
10
0.1812597
20
4.3094051
11
0.1812597
21
0.3095051
0
LINE
8
DEFAULT_255_2_778
10
0.6813597
20
-0.1905949
11
4.5812597
21
-0.1905949
0
LINE
8
DEFAULT_255_2_778
10
5.1813597
20
0.4095051
11
5.1813597
21
3.8094051
0
LINE
8
DEFAULT_255_2_778
10
5.8092597
20
4.5240051
11
5.8089597
21
4.5073051
0
LINE
8
DEFAULT_255_2_778
10
24.6565597
20
3.8094051
11
24.5980597
21
2.1364051
0
ARC
8
DEFAULT_255_2_778
10
24.0981772
20
2.1445909
40
0.5000937
50
269.9985863
51
357.9953332
0
ARC
8
DEFAULT_255_2_778
10
6.0642171
20
2.1446578
40
0.5001607
50
182.0120738
51
269.9940126
0
LINE
8
DEFAULT_255_2_778
10
24.6567648
20
3.8092972
11
24.5979648
21
2.1270972
0
LINE
8
DEFAULT_255_2_778
10
24.0981648
20
1.6444972
11
6.0641648
21
1.6444972
0
LINE
8
DEFAULT_255_2_778
10
5.5643648
20
2.1270972
11
5.5056648
21
3.8092972
0
ARC
8
DEFAULT_255_2_778
10
29.1657246
20
0.3096188
40
0.500228
50
183.0169778
51
269.973128
0
LINE
8
DEFAULT_255_2_778
10
29.98119
20
4.3096909
11
29.97799
21
4.2538909
0
LINE
8
DEFAULT_255_2_778
10
29.97799
20
4.2538909
11
29.96879
21
4.1982909
0
LINE
8
DEFAULT_255_2_778
10
29.96879
20
4.1982909
11
29.95319
21
4.1443909
0
LINE
8
DEFAULT_255_2_778
10
29.95319
20
4.1443909
11
29.93169
21
4.0927909
0
LINE
8
DEFAULT_255_2_778
10
29.93169
20
4.0927909
11
29.90449
21
4.0434909
0
LINE
8
DEFAULT_255_2_778
10
29.90449
20
4.0434909
11
29.87189
21
3.9974909
0
LINE
8
DEFAULT_255_2_778
10
29.87189
20
3.9974909
11
29.83459
21
3.9556909
0
LINE
8
DEFAULT_255_2_778
10
29.83459
20
3.9556909
11
29.79279
21
3.9183909
0
LINE
8
DEFAULT_255_2_778
10
29.79279
20
3.9183909
11
29.74709
21
3.8858909
0
LINE
8
DEFAULT_255_2_778
10
29.74709
20
3.8858909
11
29.69789
21
3.8585909
0
LINE
8
DEFAULT_255_2_778
10
29.69789
20
3.8585909
11
29.64629
21
3.8371909
0
LINE
8
DEFAULT_255_2_778
10
29.64629
20
3.8371909
11
29.59229
21
3.8215909
0
LINE
8
DEFAULT_255_2_778
10
29.59229
20
3.8215909
11
29.53699
21
3.8119909
0
LINE
8
DEFAULT_255_2_778
10
29.53699
20
3.8119909
11
29.48119
21
3.8088909
0
LINE
8
DEFAULT_255_2_778
10
29.48119
20
3.8088909
11
0.68129
21
3.8088909
0
LINE
8
DEFAULT_255_2_778
10
0.68129
20
3.8088909
11
0.62539
21
3.8119909
0
LINE
8
DEFAULT_255_2_778
10
0.62539
20
3.8119909
11
0.57009
21
3.8215909
0
LINE
8
DEFAULT_255_2_778
10
0.57009
20
3.8215909
11
0.51619
21
3.8371909
0
LINE
8
DEFAULT_255_2_778
10
0.51619
20
3.8371909
11
0.46459
21
3.8585909
0
LINE
8
DEFAULT_255_2_778
10
0.46459
20
3.8585909
11
0.41539
21
3.8858909
0
LINE
8
DEFAULT_255_2_778
10
0.41539
20
3.8858909
11
0.36959
21
3.9183909
0
LINE
8
DEFAULT_255_2_778
10
0.36959
20
3.9183909
11
0.32779
21
3.9556909
0
LINE
8
DEFAULT_255_2_778
10
0.32779
20
3.9556909
11
0.29049
21
3.9974909
0
LINE
8
DEFAULT_255_2_778
10
0.29049
20
3.9974909
11
0.25789
21
4.0434909
0
LINE
8
DEFAULT_255_2_778
10
0.25789
20
4.0434909
11
0.23069
21
4.0927909
0
LINE
8
DEFAULT_255_2_778
10
0.23069
20
4.0927909
11
0.20919
21
4.1443909
0
LINE
8
DEFAULT_255_2_778
10
0.20919
20
4.1443909
11
0.19359
21
4.1982909
0
LINE
8
DEFAULT_255_2_778
10
0.19359
20
4.1982909
11
0.18409
21
4.2538909
0
LINE
8
DEFAULT_255_2_778
10
0.18409
20
4.2538909
11
0.18119
21
4.3096909
0
LINE
8
DEFAULT_255_2_778
10
0.18119
20
4.3096909
11
0.18119
21
128.3090909
0
LINE
8
DEFAULT_255_2_778
10
0.18119
20
128.3090909
11
0.18439
21
128.3648909
0
LINE
8
DEFAULT_255_2_778
10
0.18439
20
128.3648909
11
0.19389
21
128.4204909
0
LINE
8
DEFAULT_255_2_778
10
0.19389
20
128.4204909
11
0.20949
21
128.4743909
0
LINE
8
DEFAULT_255_2_778
10
0.20949
20
128.4743909
11
0.23089
21
128.5259909
0
LINE
8
DEFAULT_255_2_778
10
0.23089
20
128.5259909
11
0.25789
21
128.5751909
0
LINE
8
DEFAULT_255_2_778
10
0.25789
20
128.5751909
11
0.29049
21
128.6209909
0
LINE
8
DEFAULT_255_2_778
10
0.29049
20
128.6209909
11
0.32779
21
128.6627909
0
LINE
8
DEFAULT_255_2_778
10
0.32779
20
128.6627909
11
0.36959
21
128.7000909
0
LINE
8
DEFAULT_255_2_778
10
0.36959
20
128.7000909
11
0.41539
21
128.7326909
0
LINE
8
DEFAULT_255_2_778
10
0.41539
20
128.7326909
11
0.46459
21
128.7598909
0
LINE
8
DEFAULT_255_2_778
10
0.46459
20
128.7598909
11
0.51619
21
128.7813909
0
LINE
8
DEFAULT_255_2_778
10
0.51619
20
128.7813909
11
0.57009
21
128.7969909
0
LINE
8
DEFAULT_255_2_778
10
0.57009
20
128.7969909
11
0.62539
21
128.8064909
0
LINE
8
DEFAULT_255_2_778
10
0.62539
20
128.8064909
11
0.68129
21
128.8093909
0
LINE
8
DEFAULT_255_2_778
10
0.68129
20
128.8093909
11
29.48119
21
128.8093909
0
LINE
8
DEFAULT_255_2_778
10
29.48119
20
128.8093909
11
29.53699
21
128.8061909
0
LINE
8
DEFAULT_255_2_778
10
29.53699
20
128.8061909
11
29.59229
21
128.7966909
0
LINE
8
DEFAULT_255_2_778
10
29.59229
20
128.7966909
11
29.64629
21
128.7810909
0
LINE
8
DEFAULT_255_2_778
10
29.64629
20
128.7810909
11
29.69789
21
128.7596909
0
LINE
8
DEFAULT_255_2_778
10
29.69789
20
128.7596909
11
29.74709
21
128.7323909
0
LINE
8
DEFAULT_255_2_778
10
29.74709
20
128.7323909
11
29.79279
21
128.6998909
0
LINE
8
DEFAULT_255_2_778
10
29.79279
20
128.6998909
11
29.83459
21
128.6625909
0
LINE
8
DEFAULT_255_2_778
10
29.83459
20
128.6625909
11
29.87189
21
128.6207909
0
LINE
8
DEFAULT_255_2_778
10
29.87189
20
128.6207909
11
29.90449
21
128.5746909
0
LINE
8
DEFAULT_255_2_778
10
29.90449
20
128.5746909
11
29.93169
21
128.5254909
0
LINE
8
DEFAULT_255_2_778
10
29.93169
20
128.5254909
11
29.95319
21
128.4738909
0
LINE
8
DEFAULT_255_2_778
10
29.95319
20
128.4738909
11
29.96879
21
128.4198909
0
LINE
8
DEFAULT_255_2_778
10
29.96879
20
128.4198909
11
29.97799
21
128.3643909
0
LINE
8
DEFAULT_255_2_778
10
29.97799
20
128.3643909
11
29.98119
21
128.3084909
0
LINE
8
DEFAULT_255_2_778
10
28.66619
20
0.2832909
11
28.48159
21
3.8093909
0
ARC
8
DEFAULT_255_2_778
10
29.481136
20
0.3095221
40
0.500054
50
270.0061895
51
359.9938024
0
ARC
8
DEFAULT_255_2_778
10
25.5817147
20
0.4100929
40
0.6006251
50
180.0596114
51
269.9499487
0
LINE
8
DEFAULT_255_2_778
10
22.09399
20
111.409368
11
27.98119
21
111.409368
0
LINE
8
DEFAULT_255_2_778
10
27.98119
20
111.409368
11
27.98119
21
108.568268
0
LINE
8
DEFAULT_255_2_778
10
27.98119
20
108.568268
11
27.28109
21
108.568268
0
LINE
8
DEFAULT_255_2_778
10
27.28109
20
108.568268
11
27.28109
21
58.509368
0
LINE
8
DEFAULT_255_2_778
10
27.28109
20
58.509368
11
10.98119
21
58.509368
0
LINE
8
DEFAULT_255_2_778
10
10.98119
20
58.509368
11
10.98119
21
108.568268
0
LINE
8
DEFAULT_255_2_778
10
10.98119
20
108.568268
11
10.28109
21
108.568268
0
LINE
8
DEFAULT_255_2_778
10
10.28109
20
108.568268
11
10.28109
21
111.409368
0
LINE
8
DEFAULT_255_2_778
10
10.28109
20
111.409368
11
15.86829
21
111.409368
0
LINE
8
DEFAULT_255_2_778
10
29.98019
20
128.298768
11
29.98019
21
4.299368
0
LINE
8
DEFAULT_255_2_778
10
29.98119
20
4.309468
11
29.98119
21
0.309468
0
LINE
8
DEFAULT_255_2_778
10
29.48119
20
-0.190532
11
25.58119
21
-0.190532
0
LINE
8
DEFAULT_255_2_778
10
24.98109
20
0.409468
11
24.98109
21
3.809368
0
LINE
8
DEFAULT_255_2_778
10
0.18119
20
4.524568
11
0.19389
21
4.523768
0
LINE
8
DEFAULT_255_2_778
10
29.9813108
20
128.277566
11
29.9781108
21
128.282266
0
LINE
8
DEFAULT_255_2_778
10
29.9813108
20
4.510966
11
29.9781108
21
4.510466
0
LINE
8
DEFAULT_255_2_778
10
0.8813108
20
109.409266
11
4.9313108
21
109.409266
0
LINE
8
DEFAULT_255_2_778
10
0.6247108
20
128.759866
11
0.6813108
21
128.763266
0
LINE
8
DEFAULT_255_2_778
10
0.6813108
20
128.763266
11
1.7725108
21
128.723666
0
LINE
8
DEFAULT_255_2_778
10
1.7725108
20
128.723666
11
3.9886108
21
128.722066
0
LINE
8
DEFAULT_255_2_778
10
3.9886108
20
128.722066
11
5.1295108
21
128.759866
0
LINE
8
DEFAULT_255_2_778
10
5.1295108
20
128.759866
11
5.3316108
21
128.777066
0
LINE
8
DEFAULT_255_2_778
10
5.3316108
20
128.777066
11
5.4012108
21
128.770166
0
LINE
8
DEFAULT_255_2_778
10
5.4012108
20
128.770166
11
5.4660108
21
128.754866
0
LINE
8
DEFAULT_255_2_778
10
5.4660108
20
128.754866
11
5.5250108
21
128.732366
0
LINE
8
DEFAULT_255_2_778
10
5.5250108
20
128.732366
11
5.5780108
21
128.703766
0
LINE
8
DEFAULT_255_2_778
10
5.5780108
20
128.703766
11
5.6248108
21
128.670166
0
LINE
8
DEFAULT_255_2_778
10
5.6248108
20
128.670166
11
5.6655108
21
128.632566
0
LINE
8
DEFAULT_255_2_778
10
5.6655108
20
128.632566
11
5.7007108
21
128.591866
0
LINE
8
DEFAULT_255_2_778
10
5.7007108
20
128.591866
11
5.7304108
21
128.548966
0
LINE
8
DEFAULT_255_2_778
10
5.7304108
20
128.548966
11
5.7547108
21
128.504566
0
LINE
8
DEFAULT_255_2_778
10
5.7547108
20
128.504566
11
5.7743108
21
128.459066
0
LINE
8
DEFAULT_255_2_778
10
5.7743108
20
128.459066
11
5.7894108
21
128.412966
0
LINE
8
DEFAULT_255_2_778
10
5.7894108
20
128.412966
11
5.8002108
21
128.366666
0
LINE
8
DEFAULT_255_2_778
10
5.8002108
20
128.366666
11
5.8071108
21
128.320366
0
LINE
8
DEFAULT_255_2_778
10
5.8071108
20
128.320366
11
5.8089108
21
3.809366
0
ARC
8
DEFAULT_255_2_778
10
2.9300696
20
97.5106304
40
0.5488398
50
89.8682888
51
180.1317112
0
ARC
8
DEFAULT_255_2_778
10
2.9325782
20
97.5107154
40
0.5487547
50
359.8593896
51
90.1301939
0
ARC
8
DEFAULT_255_2_778
10
2.9326632
20
97.5080368
40
0.5486696
50
269.8609058
51
0.1390942
0
ARC
8
DEFAULT_255_2_778
10
2.9299846
20
97.5081218
40
0.5487547
50
179.8698061
51
270.1406104
0
LINE
8
DEFAULT_255_2_778
10
2.3812313
20
97.5093687
11
2.3812313
21
97.5093687
0
ARC
8
DEFAULT_255_2_778
10
2.9300696
20
61.1106304
40
0.5488398
50
89.8682888
51
180.1317112
0
ARC
8
DEFAULT_255_2_778
10
2.9325782
20
61.1107154
40
0.5487547
50
359.8593896
51
90.1301939
0
ARC
8
DEFAULT_255_2_778
10
2.9326632
20
61.1080368
40
0.5486696
50
269.8609058
51
0.1390942
0
ARC
8
DEFAULT_255_2_778
10
2.9299846
20
61.1081218
40
0.5487547
50
179.8698061
51
270.1406104
0
LINE
8
DEFAULT_255_2_778
10
2.3812313
20
61.1093687
11
2.3812313
21
61.1093687
0
LINE
8
DEFAULT_255_2_778
10
3.4702764
20
61.2186505
11
3.4724764
21
61.2080505
0
LINE
8
DEFAULT_255_2_778
10
2.3902764
20
61.2080505
11
2.3923764
21
61.2186505
0
LINE
8
DEFAULT_255_2_778
10
22.8311764
20
56.8093505
11
25.7312764
21
56.8093505
0
LINE
8
DEFAULT_255_2_778
10
25.7312764
20
56.8093505
11
27.1811764
21
54.3092505
0
LINE
8
DEFAULT_255_2_778
10
27.1811764
20
54.3092505
11
25.7312764
21
51.8092505
0
LINE
8
DEFAULT_255_2_778
10
25.7312764
20
51.8092505
11
22.8311764
21
51.8092505
0
LINE
8
DEFAULT_255_2_778
10
22.8311764
20
51.8092505
11
21.3812764
21
54.3092505
0
LINE
8
DEFAULT_255_2_778
10
21.3812764
20
54.3092505
11
22.8311764
21
56.8093505
0
LINE
8
DEFAULT_255_2_778
10
0.8813764
20
64.8092505
11
4.9313764
21
64.8092505
0
LINE
8
DEFAULT_255_2_778
10
0.8813764
20
62.6092505
11
4.9313764
21
62.6092505
0
LINE
8
DEFAULT_255_2_778
10
0.8813764
20
59.6094505
11
4.9313764
21
59.6094505
0
LINE
8
DEFAULT_255_2_778
10
0.8813764
20
75.2092505
11
4.9313764
21
75.2092505
0
LINE
8
DEFAULT_255_2_778
10
0.8813764
20
73.0092505
11
4.9313764
21
73.0092505
0
LINE
8
DEFAULT_255_2_778
10
0.8813764
20
70.0094505
11
4.9313764
21
70.0094505
0
LINE
8
DEFAULT_255_2_778
10
0.8813764
20
67.8093505
11
4.9313764
21
67.8093505
0
LINE
8
DEFAULT_255_2_778
10
0.8813764
20
88.6093505
11
4.9313764
21
88.6093505
0
LINE
8
DEFAULT_255_2_778
10
0.8813764
20
85.6092505
11
4.9313764
21
85.6092505
0
LINE
8
DEFAULT_255_2_778
10
0.8813764
20
83.4092505
11
4.9313764
21
83.4092505
0
LINE
8
DEFAULT_255_2_778
10
0.8813764
20
78.2093505
11
4.9313764
21
78.2093505
0
LINE
8
DEFAULT_255_2_778
10
0.8813764
20
80.4093505
11
4.9313764
21
80.4093505
0
LINE
8
DEFAULT_255_2_778
10
0.8813115
20
110.0094118
11
4.9313115
21
110.0094118
0
LINE
8
DEFAULT_255_2_778
10
4.9313115
20
110.0094118
11
4.9313115
21
59.0094118
0
LINE
8
DEFAULT_255_2_778
10
4.9313115
20
59.0094118
11
0.8813115
21
59.0094118
0
LINE
8
DEFAULT_255_2_778
10
0.8813115
20
59.0094118
11
0.8813115
21
110.0094118
0
LINE
8
DEFAULT_255_2_778
10
0.8813115
20
96.0092487
11
4.9313115
21
96.0092487
0
LINE
8
DEFAULT_255_2_778
10
0.8813115
20
93.8091487
11
4.9313115
21
93.8091487
0
LINE
8
DEFAULT_255_2_778
10
0.8813115
20
90.8093487
11
4.9313115
21
90.8093487
0
LINE
8
DEFAULT_255_2_778
10
0.8813115
20
106.4094487
11
4.9313115
21
106.4094487
0
LINE
8
DEFAULT_255_2_778
10
0.8813115
20
104.2094487
11
4.9313115
21
104.2094487
0
LINE
8
DEFAULT_255_2_778
10
0.8813115
20
101.2093487
11
4.9313115
21
101.2093487
0
LINE
8
DEFAULT_255_2_778
10
0.8813115
20
99.0093487
11
4.9313115
21
99.0093487
0
ARC
8
DEFAULT_255_2_778
10
2.9300696
20
102.7105304
40
0.5488398
50
89.8682888
51
180.1317112
0
ARC
8
DEFAULT_255_2_778
10
2.9325782
20
102.7106154
40
0.5487547
50
359.8593896
51
90.1301939
0
ARC
8
DEFAULT_255_2_778
10
2.9326632
20
102.7079368
40
0.5486696
50
269.8609058
51
0.1390942
0
ARC
8
DEFAULT_255_2_778
10
2.9299846
20
102.7080218
40
0.5487547
50
179.8698061
51
270.1406104
0
LINE
8
DEFAULT_255_2_778
10
2.3812313
20
102.7092687
11
2.3812313
21
102.7092687
0
ARC
8
DEFAULT_255_2_778
10
2.9300696
20
107.9106304
40
0.5488398
50
89.8682888
51
180.1317112
0
ARC
8
DEFAULT_255_2_778
10
2.9325782
20
107.9107154
40
0.5487547
50
359.8593896
51
90.1301939
0
ARC
8
DEFAULT_255_2_778
10
2.9326632
20
107.9080368
40
0.5486696
50
269.8609058
51
0.1390942
0
ARC
8
DEFAULT_255_2_778
10
2.9299846
20
107.9081218
40
0.5487547
50
179.8698061
51
270.1406104
0
LINE
8
DEFAULT_255_2_778
10
2.3812313
20
107.9093687
11
2.3812313
21
107.9093687
0
ARC
8
DEFAULT_255_2_778
10
2.9300696
20
92.3105304
40
0.5488398
50
89.8682888
51
180.1317112
0
ARC
8
DEFAULT_255_2_778
10
2.9325782
20
92.3106154
40
0.5487547
50
359.8593896
51
90.1301939
0
ARC
8
DEFAULT_255_2_778
10
2.9326632
20
92.3079368
40
0.5486696
50
269.8609058
51
0.1390942
0
ARC
8
DEFAULT_255_2_778
10
2.9299846
20
92.3080218
40
0.5487547
50
179.8698061
51
270.1406104
0
LINE
8
DEFAULT_255_2_778
10
2.3812313
20
92.3092687
11
2.3812313
21
92.3092687
0
ARC
8
DEFAULT_255_2_778
10
2.9311115
20
87.1084883
40
0.5503034
50
89.9970497
51
152.8279854
0
ARC
8
DEFAULT_255_2_778
10
2.9312376
20
87.108602
40
0.5501897
50
27.1647759
51
90.0101811
0
ARC
8
DEFAULT_255_2_778
10
2.9300783
20
87.1097512
40
0.5510833
50
0.0035219
51
7.5849171
0
ARC
8
DEFAULT_255_2_778
10
2.9309999
20
87.1099062
40
0.5501618
50
305.2266297
51
359.9873889
0
ARC
8
DEFAULT_255_2_778
10
2.9309115
20
87.1094495
40
0.5498398
50
269.9866098
51
305.2616
0
ARC
8
DEFAULT_255_2_778
10
2.9307937
20
87.1107796
40
0.5511699
50
268.8133817
51
269.9988883
0
ARC
8
DEFAULT_255_2_778
10
2.9307137
20
87.1093133
40
0.5497024
50
242.893006
51
268.8185558
0
ARC
8
DEFAULT_255_2_778
10
2.9314979
20
87.1095552
40
0.5502754
50
180.4543396
51
242.831794
0
LINE
8
DEFAULT_255_2_778
10
3.4207398
20
87.3597917
11
3.4239398
21
87.3536917
0
LINE
8
DEFAULT_255_2_778
10
3.4239398
20
87.3536917
11
3.4692398
21
87.2234917
0
LINE
8
DEFAULT_255_2_778
10
3.4692398
20
87.2234917
11
3.4763398
21
87.1824917
0
LINE
8
DEFAULT_255_2_778
10
2.3812398
20
87.1051917
11
2.3860398
21
87.1827917
0
LINE
8
DEFAULT_255_2_778
10
2.3860398
20
87.1827917
11
2.4071398
21
87.2771917
0
LINE
8
DEFAULT_255_2_778
10
2.4071398
20
87.2771917
11
2.4413398
21
87.3599917
0
ARC
8
DEFAULT_255_2_778
10
2.9300696
20
81.9105304
40
0.5488398
50
89.8682888
51
180.1317112
0
ARC
8
DEFAULT_255_2_778
10
2.9325782
20
81.9106154
40
0.5487547
50
359.8593896
51
90.1301939
0
ARC
8
DEFAULT_255_2_778
10
2.9326632
20
81.9079368
40
0.5486696
50
269.8609058
51
0.1390942
0
ARC
8
DEFAULT_255_2_778
10
2.9299846
20
81.9080218
40
0.5487547
50
179.8698061
51
270.1406104
0
LINE
8
DEFAULT_255_2_778
10
2.3812313
20
81.9092687
11
2.3812313
21
81.9092687
0
ARC
8
DEFAULT_255_2_778
10
2.9313219
20
76.7083174
40
0.5504428
50
90.0000543
51
154.6646576
0
ARC
8
DEFAULT_255_2_778
10
2.9313128
20
76.7084633
40
0.550297
50
25.3257066
51
89.9991114
0
ARC
8
DEFAULT_255_2_778
10
2.9295932
20
76.7096446
40
0.5517456
50
0.0011765
51
4.388162
0
ARC
8
DEFAULT_255_2_778
10
2.931015
20
76.7097726
40
0.5503238
50
301.4832558
51
359.9878511
0
ARC
8
DEFAULT_255_2_778
10
2.9311316
20
76.7093523
40
0.5499045
50
269.9894594
51
301.4957685
0
ARC
8
DEFAULT_255_2_778
10
2.9309088
20
76.7095344
40
0.5500867
50
238.5894003
51
270.0108189
0
ARC
8
DEFAULT_255_2_778
10
2.9318327
20
76.7093941
40
0.5504493
50
180.0028095
51
238.4997103
0
ARC
8
DEFAULT_255_2_778
10
2.9337825
20
76.7093518
40
0.5523992
50
175.5865775
51
179.9984122
0
LINE
8
DEFAULT_255_2_778
10
3.4287213
20
76.9438603
11
3.4316213
21
76.9378603
0
LINE
8
DEFAULT_255_2_778
10
3.4316213
20
76.9378603
11
3.4718213
21
76.8110603
0
LINE
8
DEFAULT_255_2_778
10
3.4718213
20
76.8110603
11
3.4797213
21
76.7518603
0
LINE
8
DEFAULT_255_2_778
10
2.3830213
20
76.7518603
11
2.3836213
21
76.7583603
0
LINE
8
DEFAULT_255_2_778
10
2.3836213
20
76.7583603
11
2.3949213
21
76.8309603
0
LINE
8
DEFAULT_255_2_778
10
2.3949213
20
76.8309603
11
2.4338213
21
76.9438603
0
ARC
8
DEFAULT_255_2_778
10
2.9300696
20
71.5106304
40
0.5488398
50
89.8682888
51
180.1317112
0
ARC
8
DEFAULT_255_2_778
10
2.9325782
20
71.5107154
40
0.5487547
50
359.8593896
51
90.1301939
0
ARC
8
DEFAULT_255_2_778
10
2.9326632
20
71.5080368
40
0.5486696
50
269.8609058
51
0.1390942
0
ARC
8
DEFAULT_255_2_778
10
2.9299846
20
71.5081218
40
0.5487547
50
179.8698061
51
270.1406104
0
LINE
8
DEFAULT_255_2_778
10
2.3812313
20
71.5093687
11
2.3812313
21
71.5093687
0
ARC
8
DEFAULT_255_2_778
10
2.9311525
20
66.3086199
40
0.5503064
50
89.9927409
51
151.8757393
0
ARC
8
DEFAULT_255_2_778
10
2.9312848
20
66.3087748
40
0.5501514
50
28.1145888
51
90.0065199
0
ARC
8
DEFAULT_255_2_778
10
2.9305901
20
66.3095625
40
0.5504365
50
270.0449845
51
357.1012399
0
ARC
8
DEFAULT_255_2_778
10
2.9314681
20
66.3094718
40
0.5503457
50
182.8897799
51
269.953577
0
LINE
8
DEFAULT_255_2_778
10
3.4165222
20
66.5680262
11
3.4205222
21
66.5606262
0
LINE
8
DEFAULT_255_2_778
10
3.4205222
20
66.5606262
11
3.4650222
21
66.4423262
0
LINE
8
DEFAULT_255_2_778
10
3.4650222
20
66.4423262
11
3.4771222
21
66.3759262
0
LINE
8
DEFAULT_255_2_778
10
3.4771222
20
66.3759262
11
3.4800222
21
66.3426262
0
LINE
8
DEFAULT_255_2_778
10
3.4800222
20
66.3426262
11
3.4803222
21
66.2817262
0
LINE
8
DEFAULT_255_2_778
10
2.3818222
20
66.2817262
11
2.3815222
21
66.2843262
0
LINE
8
DEFAULT_255_2_778
10
2.3815222
20
66.2843262
11
2.3841222
21
66.3677262
0
LINE
8
DEFAULT_255_2_778
10
2.3841222
20
66.3677262
11
2.3937222
21
66.4259262
0
LINE
8
DEFAULT_255_2_778
10
2.3937222
20
66.4259262
11
2.4310222
21
66.5376262
0
LINE
8
DEFAULT_255_2_778
10
2.4310222
20
66.5376262
11
2.4458222
21
66.5677262
0
LINE
8
DEFAULT_255_2_778
10
24.4179222
20
124.3284262
11
24.1615222
21
124.3093262
0
LINE
8
DEFAULT_255_2_778
10
24.1615222
20
124.3093262
11
23.4741222
21
124.3093262
0
LINE
8
DEFAULT_255_2_778
10
23.4741222
20
124.3093262
11
23.4741222
21
126.3093262
0
LINE
8
DEFAULT_255_2_778
10
23.4741222
20
126.3093262
11
24.2676222
21
126.3030262
0
LINE
8
DEFAULT_255_2_778
10
24.2676222
20
126.3030262
11
24.4581222
21
126.2731262
0
LINE
8
DEFAULT_255_2_778
10
24.4581222
20
126.2731262
11
24.6094222
21
126.2228262
0
LINE
8
DEFAULT_255_2_778
10
24.6094222
20
126.2228262
11
24.7356222
21
126.1529262
0
LINE
8
DEFAULT_255_2_778
10
24.7356222
20
126.1529262
11
24.8407222
21
126.0675262
0
LINE
8
DEFAULT_255_2_778
10
24.8407222
20
126.0675262
11
24.9306222
21
125.9659262
0
LINE
8
DEFAULT_255_2_778
10
24.9306222
20
125.9659262
11
24.9896222
21
125.8757262
0
LINE
8
DEFAULT_255_2_778
10
24.9896222
20
125.8757262
11
25.0174222
21
125.8214262
0
LINE
8
DEFAULT_255_2_778
10
25.0174222
20
125.8214262
11
25.0439222
21
125.7584262
0
LINE
8
DEFAULT_255_2_778
10
25.0439222
20
125.7584262
11
25.0653222
21
125.6936262
0
LINE
8
DEFAULT_255_2_778
10
25.0653222
20
125.6936262
11
25.0822222
21
125.6272262
0
LINE
8
DEFAULT_255_2_778
10
25.0822222
20
125.6272262
11
25.0891222
21
125.5936262
0
LINE
8
DEFAULT_255_2_778
10
25.0891222
20
125.5936262
11
25.0949222
21
125.5595262
0
LINE
8
DEFAULT_255_2_778
10
25.0949222
20
125.5595262
11
25.0999222
21
125.5251262
0
LINE
8
DEFAULT_255_2_778
10
25.0999222
20
125.5251262
11
25.1042222
21
125.4907262
0
LINE
8
DEFAULT_255_2_778
10
25.1042222
20
125.4907262
11
25.1076222
21
125.4560262
0
LINE
8
DEFAULT_255_2_778
10
25.1076222
20
125.4560262
11
25.1076222
21
125.1152262
0
LINE
8
DEFAULT_255_2_778
10
25.1076222
20
125.1152262
11
25.1044222
21
125.0824262
0
LINE
8
DEFAULT_255_2_778
10
25.1044222
20
125.0824262
11
25.1005222
21
125.0499262
0
LINE
8
DEFAULT_255_2_778
10
25.1005222
20
125.0499262
11
25.0957222
21
125.0176262
0
LINE
8
DEFAULT_255_2_778
10
25.0957222
20
125.0176262
11
25.0835222
21
124.9536262
0
LINE
8
DEFAULT_255_2_778
10
25.0835222
20
124.9536262
11
25.0677222
21
124.8909262
0
LINE
8
DEFAULT_255_2_778
10
25.0677222
20
124.8909262
11
25.0476222
21
124.8298262
0
LINE
8
DEFAULT_255_2_778
10
25.0476222
20
124.8298262
11
25.0227222
21
124.7702262
0
LINE
8
DEFAULT_255_2_778
10
25.0227222
20
124.7702262
11
24.9819222
21
124.6946262
0
LINE
8
DEFAULT_255_2_778
10
24.9819222
20
124.6946262
11
24.9192222
21
124.6067262
0
LINE
8
DEFAULT_255_2_778
10
24.9192222
20
124.6067262
11
24.8446222
21
124.5279262
0
LINE
8
DEFAULT_255_2_778
10
24.8446222
20
124.5279262
11
24.7375222
21
124.4451262
0
LINE
8
DEFAULT_255_2_778
10
24.7375222
20
124.4451262
11
24.6335222
21
124.3900262
0
LINE
8
DEFAULT_255_2_778
10
24.6335222
20
124.3900262
11
24.4814222
21
124.3413262
0
LINE
8
DEFAULT_255_2_778
10
24.4814222
20
124.3413262
11
24.4179222
21
124.3284262
0
LINE
8
DEFAULT_255_2_778
10
24.3319222
20
124.5488262
11
24.1631222
21
124.5361262
0
LINE
8
DEFAULT_255_2_778
10
24.1631222
20
124.5361262
11
23.7477222
21
124.5361262
0
LINE
8
DEFAULT_255_2_778
10
23.7477222
20
124.5361262
11
23.7477222
21
126.0826262
0
LINE
8
DEFAULT_255_2_778
10
23.7477222
20
126.0826262
11
24.2559222
21
126.0746262
0
LINE
8
DEFAULT_255_2_778
10
24.2559222
20
126.0746262
11
24.4250222
21
126.0373262
0
LINE
8
DEFAULT_255_2_778
10
24.4250222
20
126.0373262
11
24.5488222
21
125.9775262
0
LINE
8
DEFAULT_255_2_778
10
24.5488222
20
125.9775262
11
24.6560222
21
125.8886262
0
LINE
8
DEFAULT_255_2_778
10
24.6560222
20
125.8886262
11
24.7298222
21
125.7947262
0
LINE
8
DEFAULT_255_2_778
10
24.7298222
20
125.7947262
11
24.7592222
21
125.7431262
0
LINE
8
DEFAULT_255_2_778
10
24.7592222
20
125.7431262
11
24.7893222
21
125.6730262
0
LINE
8
DEFAULT_255_2_778
10
24.7893222
20
125.6730262
11
24.8049222
21
125.6246262
0
LINE
8
DEFAULT_255_2_778
10
24.8049222
20
125.6246262
11
24.8171222
21
125.5748262
0
LINE
8
DEFAULT_255_2_778
10
24.8171222
20
125.5748262
11
24.8264222
21
125.5243262
0
LINE
8
DEFAULT_255_2_778
10
24.8264222
20
125.5243262
11
24.8330222
21
125.4732262
0
LINE
8
DEFAULT_255_2_778
10
24.8330222
20
125.4732262
11
24.8327222
21
125.1515262
0
LINE
8
DEFAULT_255_2_778
10
24.8327222
20
125.1515262
11
24.8290222
21
125.1184262
0
LINE
8
DEFAULT_255_2_778
10
24.8290222
20
125.1184262
11
24.8200222
21
125.0578262
0
LINE
8
DEFAULT_255_2_778
10
24.8200222
20
125.0578262
11
24.8089222
21
125.0028262
0
LINE
8
DEFAULT_255_2_778
10
24.8089222
20
125.0028262
11
24.7946222
21
124.9486262
0
LINE
8
DEFAULT_255_2_778
10
24.7946222
20
124.9486262
11
24.7690222
21
124.8758262
0
LINE
8
DEFAULT_255_2_778
10
24.7690222
20
124.8758262
11
24.7319222
21
124.8009262
0
LINE
8
DEFAULT_255_2_778
10
24.7319222
20
124.8009262
11
24.6846222
21
124.7334262
0
LINE
8
DEFAULT_255_2_778
10
24.6846222
20
124.7334262
11
24.6136222
21
124.6647262
0
LINE
8
DEFAULT_255_2_778
10
24.6136222
20
124.6647262
11
24.5083222
21
124.6006262
0
LINE
8
DEFAULT_255_2_778
10
24.5083222
20
124.6006262
11
24.3869222
21
124.5599262
0
LINE
8
DEFAULT_255_2_778
10
24.3869222
20
124.5599262
11
24.3319222
21
124.5488262
0
LINE
8
DEFAULT_255_2_778
10
26.2467222
20
126.3413262
11
26.0569222
21
126.3000262
0
LINE
8
DEFAULT_255_2_778
10
26.0569222
20
126.3000262
11
25.9299222
21
126.2450262
0
LINE
8
DEFAULT_255_2_778
10
25.9299222
20
126.2450262
11
25.8164222
21
126.1683262
0
LINE
8
DEFAULT_255_2_778
10
25.8164222
20
126.1683262
11
25.7376222
21
126.0929262
0
LINE
8
DEFAULT_255_2_778
10
25.7376222
20
126.0929262
11
25.6767222
21
126.0172262
0
LINE
8
DEFAULT_255_2_778
10
25.6767222
20
126.0172262
11
25.6259222
21
125.9362262
0
LINE
8
DEFAULT_255_2_778
10
25.6259222
20
125.9362262
11
25.5841222
21
125.8505262
0
LINE
8
DEFAULT_255_2_778
10
25.5841222
20
125.8505262
11
25.5582222
21
125.7828262
0
LINE
8
DEFAULT_255_2_778
10
25.5582222
20
125.7828262
11
25.5370222
21
125.7135262
0
LINE
8
DEFAULT_255_2_778
10
25.5370222
20
125.7135262
11
25.5201222
21
125.6428262
0
LINE
8
DEFAULT_255_2_778
10
25.5201222
20
125.6428262
11
25.5132222
21
125.6071262
0
LINE
8
DEFAULT_255_2_778
10
25.5132222
20
125.6071262
11
25.5066222
21
125.5666262
0
LINE
8
DEFAULT_255_2_778
10
25.5066222
20
125.5666262
11
25.5011222
21
125.5259262
0
LINE
8
DEFAULT_255_2_778
10
25.5011222
20
125.5259262
11
25.4968222
21
125.4851262
0
LINE
8
DEFAULT_255_2_778
10
25.4968222
20
125.4851262
11
25.4936222
21
125.4441262
0
LINE
8
DEFAULT_255_2_778
10
25.4936222
20
125.4441262
11
25.4934222
21
125.1959262
0
LINE
8
DEFAULT_255_2_778
10
25.4934222
20
125.1959262
11
25.4966222
21
125.1544262
0
LINE
8
DEFAULT_255_2_778
10
25.4966222
20
125.1544262
11
25.5008222
21
125.1129262
0
LINE
8
DEFAULT_255_2_778
10
25.5008222
20
125.1129262
11
25.5061222
21
125.0716262
0
LINE
8
DEFAULT_255_2_778
10
25.5061222
20
125.0716262
11
25.5127222
21
125.0303262
0
LINE
8
DEFAULT_255_2_778
10
25.5127222
20
125.0303262
11
25.5272222
21
124.9581262
0
LINE
8
DEFAULT_255_2_778
10
25.5272222
20
124.9581262
11
25.5458222
21
124.8866262
0
LINE
8
DEFAULT_255_2_778
10
25.5458222
20
124.8866262
11
25.5688222
21
124.8165262
0
LINE
8
DEFAULT_255_2_778
10
25.5688222
20
124.8165262
11
25.6061222
21
124.7282262
0
LINE
8
DEFAULT_255_2_778
10
25.6061222
20
124.7282262
11
25.6482222
21
124.6501262
0
LINE
8
DEFAULT_255_2_778
10
25.6482222
20
124.6501262
11
25.7151222
21
124.5549262
0
LINE
8
DEFAULT_255_2_778
10
25.7151222
20
124.5549262
11
25.7910222
21
124.4742262
0
LINE
8
DEFAULT_255_2_778
10
25.7910222
20
124.4742262
11
25.8778222
21
124.4056262
0
LINE
8
DEFAULT_255_2_778
10
25.8778222
20
124.4056262
11
26.0011222
21
124.3395262
0
LINE
8
DEFAULT_255_2_778
10
26.0011222
20
124.3395262
11
26.1411222
21
124.2945262
0
LINE
8
DEFAULT_255_2_778
10
26.1411222
20
124.2945262
11
26.3152222
21
124.2707262
0
LINE
8
DEFAULT_255_2_778
10
26.3152222
20
124.2707262
11
26.5258222
21
124.2768262
0
LINE
8
DEFAULT_255_2_778
10
26.5258222
20
124.2768262
11
26.6904222
21
124.3109262
0
LINE
8
DEFAULT_255_2_778
10
26.6904222
20
124.3109262
11
26.8203222
21
124.3636262
0
LINE
8
DEFAULT_255_2_778
10
26.8203222
20
124.3636262
11
26.9375222
21
124.4390262
0
LINE
8
DEFAULT_255_2_778
10
26.9375222
20
124.4390262
11
27.0192222
21
124.5141262
0
LINE
8
DEFAULT_255_2_778
10
27.0192222
20
124.5141262
11
27.0907222
21
124.6017262
0
LINE
8
DEFAULT_255_2_778
10
27.0907222
20
124.6017262
11
27.1380222
21
124.6766262
0
LINE
8
DEFAULT_255_2_778
10
27.1380222
20
124.6766262
11
27.1780222
21
124.7557262
0
LINE
8
DEFAULT_255_2_778
10
27.1780222
20
124.7557262
11
27.2031222
21
124.8171262
0
LINE
8
DEFAULT_255_2_778
10
27.2031222
20
124.8171262
11
27.2264222
21
124.8869262
0
LINE
8
DEFAULT_255_2_778
10
27.2264222
20
124.8869262
11
27.2452222
21
124.9581262
0
LINE
8
DEFAULT_255_2_778
10
27.2452222
20
124.9581262
11
27.2597222
21
125.0303262
0
LINE
8
DEFAULT_255_2_778
10
27.2597222
20
125.0303262
11
27.2664222
21
125.0716262
0
LINE
8
DEFAULT_255_2_778
10
27.2664222
20
125.0716262
11
27.2716222
21
125.1129262
0
LINE
8
DEFAULT_255_2_778
10
27.2716222
20
125.1129262
11
27.2759222
21
125.1544262
0
LINE
8
DEFAULT_255_2_778
10
27.2759222
20
125.1544262
11
27.2791222
21
125.1959262
0
LINE
8
DEFAULT_255_2_778
10
27.2791222
20
125.1959262
11
27.2788222
21
125.4433262
0
LINE
8
DEFAULT_255_2_778
10
27.2788222
20
125.4433262
11
27.2756222
21
125.4841262
0
LINE
8
DEFAULT_255_2_778
10
27.2756222
20
125.4841262
11
27.2714222
21
125.5246262
0
LINE
8
DEFAULT_255_2_778
10
27.2714222
20
125.5246262
11
27.2658222
21
125.5650262
0
LINE
8
DEFAULT_255_2_778
10
27.2658222
20
125.5650262
11
27.2592222
21
125.6053262
0
LINE
8
DEFAULT_255_2_778
10
27.2592222
20
125.6053262
11
27.2441222
21
125.6762262
0
LINE
8
DEFAULT_255_2_778
10
27.2441222
20
125.6762262
11
27.2248222
21
125.7460262
0
LINE
8
DEFAULT_255_2_778
10
27.2248222
20
125.7460262
11
27.2010222
21
125.8145262
0
LINE
8
DEFAULT_255_2_778
10
27.2010222
20
125.8145262
11
27.1624222
21
125.9011262
0
LINE
8
DEFAULT_255_2_778
10
27.1624222
20
125.9011262
11
27.1187222
21
125.9775262
0
LINE
8
DEFAULT_255_2_778
10
27.1187222
20
125.9775262
11
27.0502222
21
126.0704262
0
LINE
8
DEFAULT_255_2_778
10
27.0502222
20
126.0704262
11
26.9740222
21
126.1487262
0
LINE
8
DEFAULT_255_2_778
10
26.9740222
20
126.1487262
11
26.8639222
21
126.2299262
0
LINE
8
DEFAULT_255_2_778
10
26.8639222
20
126.2299262
11
26.7393222
21
126.2897262
0
LINE
8
DEFAULT_255_2_778
10
26.7393222
20
126.2897262
11
26.5927222
21
126.3302262
0
LINE
8
DEFAULT_255_2_778
10
26.5927222
20
126.3302262
11
26.3861222
21
126.3482262
0
LINE
8
DEFAULT_255_2_778
10
26.3861222
20
126.3482262
11
26.2467222
21
126.3413262
0
LINE
8
DEFAULT_255_2_778
10
26.2734222
20
126.1140262
11
26.4758222
21
126.1170262
0
LINE
8
DEFAULT_255_2_778
10
26.4758222
20
126.1170262
11
26.6247222
21
126.0807262
0
LINE
8
DEFAULT_255_2_778
10
26.6247222
20
126.0807262
11
26.7327222
21
126.0230262
0
LINE
8
DEFAULT_255_2_778
10
26.7327222
20
126.0230262
11
26.8107222
21
125.9548262
0
LINE
8
DEFAULT_255_2_778
10
26.8107222
20
125.9548262
11
26.8787222
21
125.8659262
0
LINE
8
DEFAULT_255_2_778
10
26.8787222
20
125.8659262
11
26.9232222
21
125.7833262
0
LINE
8
DEFAULT_255_2_778
10
26.9232222
20
125.7833262
11
26.9494222
21
125.7182262
0
LINE
8
DEFAULT_255_2_778
10
26.9494222
20
125.7182262
11
26.9658222
21
125.6664262
0
LINE
8
DEFAULT_255_2_778
10
26.9658222
20
125.6664262
11
26.9793222
21
125.6137262
0
LINE
8
DEFAULT_255_2_778
10
26.9793222
20
125.6137262
11
26.9899222
21
125.5603262
0
LINE
8
DEFAULT_255_2_778
10
26.9899222
20
125.5603262
11
26.9941222
21
125.5335262
0
LINE
8
DEFAULT_255_2_778
10
26.9941222
20
125.5335262
11
26.9989222
21
125.4978262
0
LINE
8
DEFAULT_255_2_778
10
26.9989222
20
125.4978262
11
27.0026222
21
125.4621262
0
LINE
8
DEFAULT_255_2_778
10
27.0026222
20
125.4621262
11
27.0055222
21
125.4261262
0
LINE
8
DEFAULT_255_2_778
10
27.0055222
20
125.4261262
11
27.0057222
21
125.2081262
0
LINE
8
DEFAULT_255_2_778
10
27.0057222
20
125.2081262
11
27.0028222
21
125.1716262
0
LINE
8
DEFAULT_255_2_778
10
27.0028222
20
125.1716262
11
26.9991222
21
125.1351262
0
LINE
8
DEFAULT_255_2_778
10
26.9991222
20
125.1351262
11
26.9944222
21
125.0986262
0
LINE
8
DEFAULT_255_2_778
10
26.9944222
20
125.0986262
11
26.9854222
21
125.0441262
0
LINE
8
DEFAULT_255_2_778
10
26.9854222
20
125.0441262
11
26.9737222
21
124.9901262
0
LINE
8
DEFAULT_255_2_778
10
26.9737222
20
124.9901262
11
26.9592222
21
124.9369262
0
LINE
8
DEFAULT_255_2_778
10
26.9592222
20
124.9369262
11
26.9335222
21
124.8644262
0
LINE
8
DEFAULT_255_2_778
10
26.9335222
20
124.8644262
11
26.9023222
21
124.7972262
0
LINE
8
DEFAULT_255_2_778
10
26.9023222
20
124.7972262
11
26.8539222
21
124.7189262
0
LINE
8
DEFAULT_255_2_778
10
26.8539222
20
124.7189262
11
26.7840222
21
124.6387262
0
LINE
8
DEFAULT_255_2_778
10
26.7840222
20
124.6387262
11
26.7009222
21
124.5758262
0
LINE
8
DEFAULT_255_2_778
10
26.7009222
20
124.5758262
11
26.5880222
21
124.5250262
0
LINE
8
DEFAULT_255_2_778
10
26.5880222
20
124.5250262
11
26.4316222
21
124.4974262
0
LINE
8
DEFAULT_255_2_778
10
26.4316222
20
124.4974262
11
26.2501222
21
124.5083262
0
LINE
8
DEFAULT_255_2_778
10
26.2501222
20
124.5083262
11
26.1075222
21
124.5556262
0
LINE
8
DEFAULT_255_2_778
10
26.1075222
20
124.5556262
11
26.0204222
21
124.6107262
0
LINE
8
DEFAULT_255_2_778
10
26.0204222
20
124.6107262
11
25.9450222
21
124.6850262
0
LINE
8
DEFAULT_255_2_778
10
25.9450222
20
124.6850262
11
25.8955222
21
124.7541262
0
LINE
8
DEFAULT_255_2_778
10
25.8955222
20
124.7541262
11
25.8598222
21
124.8194262
0
LINE
8
DEFAULT_255_2_778
10
25.8598222
20
124.8194262
11
25.8307222
21
124.8880262
0
LINE
8
DEFAULT_255_2_778
10
25.8307222
20
124.8880262
11
25.8064222
21
124.9642262
0
LINE
8
DEFAULT_255_2_778
10
25.8064222
20
124.9642262
11
25.7932222
21
125.0179262
0
LINE
8
DEFAULT_255_2_778
10
25.7932222
20
125.0179262
11
25.7828222
21
125.0721262
0
LINE
8
DEFAULT_255_2_778
10
25.7828222
20
125.0721262
11
25.7786222
21
125.0994262
0
LINE
8
DEFAULT_255_2_778
10
25.7786222
20
125.0994262
11
25.7738222
21
125.1356262
0
LINE
8
DEFAULT_255_2_778
10
25.7738222
20
125.1356262
11
25.7701222
21
125.1721262
0
LINE
8
DEFAULT_255_2_778
10
25.7701222
20
125.1721262
11
25.7672222
21
125.2086262
0
LINE
8
DEFAULT_255_2_778
10
25.7672222
20
125.2086262
11
25.7675222
21
125.4264262
0
LINE
8
DEFAULT_255_2_778
10
25.7675222
20
125.4264262
11
25.7704222
21
125.4624262
0
LINE
8
DEFAULT_255_2_778
10
25.7704222
20
125.4624262
11
25.7741222
21
125.4981262
0
LINE
8
DEFAULT_255_2_778
10
25.7741222
20
125.4981262
11
25.7789222
21
125.5338262
0
LINE
8
DEFAULT_255_2_778
10
25.7789222
20
125.5338262
11
25.7881222
21
125.5875262
0
LINE
8
DEFAULT_255_2_778
10
25.7881222
20
125.5875262
11
25.8000222
21
125.6407262
0
LINE
8
DEFAULT_255_2_778
10
25.8000222
20
125.6407262
11
25.8149222
21
125.6931262
0
LINE
8
DEFAULT_255_2_778
10
25.8149222
20
125.6931262
11
25.8413222
21
125.7645262
0
LINE
8
DEFAULT_255_2_778
10
25.8413222
20
125.7645262
11
25.8733222
21
125.8307262
0
LINE
8
DEFAULT_255_2_778
10
25.8733222
20
125.8307262
11
25.9223222
21
125.9071262
0
LINE
8
DEFAULT_255_2_778
10
25.9223222
20
125.9071262
11
25.9919222
21
125.9847262
0
LINE
8
DEFAULT_255_2_778
10
25.9919222
20
125.9847262
11
26.0921222
21
126.0556262
0
LINE
8
DEFAULT_255_2_778
10
26.0921222
20
126.0556262
11
26.2078222
21
126.1008262
0
LINE
8
DEFAULT_255_2_778
10
26.2078222
20
126.1008262
11
26.2734222
21
126.1140262
0
LINE
8
DEFAULT_255_2_778
10
21.4428909
20
126.3093187
11
21.7590909
21
126.3093187
0
LINE
8
DEFAULT_255_2_778
10
21.7590909
20
126.3093187
11
21.7590909
21
125.0279187
0
LINE
8
DEFAULT_255_2_778
10
21.7590909
20
125.0279187
11
22.1373909
21
125.0279187
0
LINE
8
DEFAULT_255_2_778
10
22.1373909
20
125.0279187
11
22.1373909
21
124.8096187
0
LINE
8
DEFAULT_255_2_778
10
22.1373909
20
124.8096187
11
21.7590909
21
124.8096187
0
LINE
8
DEFAULT_255_2_778
10
21.7590909
20
124.8096187
11
21.7590909
21
124.3093187
0
LINE
8
DEFAULT_255_2_778
10
21.7590909
20
124.3093187
11
21.4909909
21
124.3093187
0
LINE
8
DEFAULT_255_2_778
10
21.4909909
20
124.3093187
11
21.4909909
21
124.8096187
0
LINE
8
DEFAULT_255_2_778
10
21.4909909
20
124.8096187
11
20.5612909
21
124.8096187
0
LINE
8
DEFAULT_255_2_778
10
20.5612909
20
124.8096187
11
20.5612909
21
125.0507187
0
LINE
8
DEFAULT_255_2_778
10
20.5612909
20
125.0507187
11
21.4428909
21
126.3093187
0
LINE
8
DEFAULT_255_2_778
10
20.7951909
20
125.0279187
11
21.4909909
21
125.0279187
0
LINE
8
DEFAULT_255_2_778
10
21.4909909
20
125.0279187
11
21.4909909
21
126.0243187
0
LINE
8
DEFAULT_255_2_778
10
21.4909909
20
126.0243187
11
20.7951909
21
125.0279187
0
LINE
8
DEFAULT_255_2_778
10
12.4131909
20
122.7980187
11
12.2091909
21
122.7980187
0
LINE
8
DEFAULT_255_2_778
10
12.2091909
20
122.7980187
11
11.9781909
21
122.5998187
0
LINE
8
DEFAULT_255_2_778
10
11.9781909
20
122.5998187
11
11.7778909
21
122.4903187
0
LINE
8
DEFAULT_255_2_778
10
11.7778909
20
122.4903187
11
11.7778909
21
122.2408187
0
LINE
8
DEFAULT_255_2_778
10
11.7778909
20
122.2408187
11
12.0972909
21
122.4239187
0
LINE
8
DEFAULT_255_2_778
10
12.0972909
20
122.4239187
11
12.1721909
21
122.4887187
0
LINE
8
DEFAULT_255_2_778
10
12.1721909
20
122.4887187
11
12.1721909
21
120.8091187
0
LINE
8
DEFAULT_255_2_778
10
12.1721909
20
120.8091187
11
12.4131909
21
120.8091187
0
LINE
8
DEFAULT_255_2_778
10
12.4131909
20
120.8091187
11
12.4131909
21
122.7980187
0
LINE
8
DEFAULT_255_2_778
10
19.7331909
20
122.8094187
11
19.8786909
21
122.8094187
0
LINE
8
DEFAULT_255_2_778
10
19.8786909
20
122.8094187
11
19.3057909
21
120.6591187
0
LINE
8
DEFAULT_255_2_778
10
19.3057909
20
120.6591187
11
19.1602909
21
120.6591187
0
LINE
8
DEFAULT_255_2_778
10
19.1602909
20
120.6591187
11
19.7331909
21
122.8094187
0
LINE
8
DEFAULT_255_2_778
10
15.0385909
20
121.1468187
11
15.3039909
21
121.1468187
0
LINE
8
DEFAULT_255_2_778
10
15.3039909
20
121.1468187
11
15.0322909
21
120.4721187
0
LINE
8
DEFAULT_255_2_778
10
15.0322909
20
120.4721187
11
14.8740909
21
120.4721187
0
LINE
8
DEFAULT_255_2_778
10
14.8740909
20
120.4721187
11
15.0385909
21
121.1468187
0
LINE
8
DEFAULT_255_2_778
10
23.9084909
20
122.2368187
11
23.7476909
21
122.1773187
0
LINE
8
DEFAULT_255_2_778
10
23.7476909
20
122.1773187
11
23.6357909
21
122.0754187
0
LINE
8
DEFAULT_255_2_778
10
23.6357909
20
122.0754187
11
23.6060909
21
122.0371187
0
LINE
8
DEFAULT_255_2_778
10
23.6060909
20
122.0371187
11
23.6060909
21
122.2030187
0
LINE
8
DEFAULT_255_2_778
10
23.6060909
20
122.2030187
11
23.3750909
21
122.2030187
0
LINE
8
DEFAULT_255_2_778
10
23.3750909
20
122.2030187
11
23.3750909
21
120.8097187
0
LINE
8
DEFAULT_255_2_778
10
23.3750909
20
120.8097187
11
23.6060909
21
120.8097187
0
LINE
8
DEFAULT_255_2_778
10
23.6060909
20
120.8097187
11
23.6079909
21
121.6714187
0
LINE
8
DEFAULT_255_2_778
10
23.6079909
20
121.6714187
11
23.6100909
21
121.7008187
0
LINE
8
DEFAULT_255_2_778
10
23.6100909
20
121.7008187
11
23.6153909
21
121.7447187
0
LINE
8
DEFAULT_255_2_778
10
23.6153909
20
121.7447187
11
23.6237909
21
121.7881187
0
LINE
8
DEFAULT_255_2_778
10
23.6237909
20
121.7881187
11
23.6484909
21
121.8632187
0
LINE
8
DEFAULT_255_2_778
10
23.6484909
20
121.8632187
11
23.6984909
21
121.9474187
0
LINE
8
DEFAULT_255_2_778
10
23.6984909
20
121.9474187
11
23.7865909
21
122.0159187
0
LINE
8
DEFAULT_255_2_778
10
23.7865909
20
122.0159187
11
23.9958909
21
122.0355187
0
LINE
8
DEFAULT_255_2_778
10
23.9958909
20
122.0355187
11
24.1029909
21
121.9807187
0
LINE
8
DEFAULT_255_2_778
10
24.1029909
20
121.9807187
11
24.1616909
21
121.8958187
0
LINE
8
DEFAULT_255_2_778
10
24.1616909
20
121.8958187
11
24.1810909
21
121.8426187
0
LINE
8
DEFAULT_255_2_778
10
24.1810909
20
121.8426187
11
24.1897909
21
121.8048187
0
LINE
8
DEFAULT_255_2_778
10
24.1897909
20
121.8048187
11
24.1952909
21
121.7664187
0
LINE
8
DEFAULT_255_2_778
10
24.1952909
20
121.7664187
11
24.1974909
21
121.7405187
0
LINE
8
DEFAULT_255_2_778
10
24.1974909
20
121.7405187
11
24.1992909
21
120.8097187
0
LINE
8
DEFAULT_255_2_778
10
24.1992909
20
120.8097187
11
24.4302909
21
120.8097187
0
LINE
8
DEFAULT_255_2_778
10
24.4302909
20
120.8097187
11
24.4321909
21
121.6714187
0
LINE
8
DEFAULT_255_2_778
10
24.4321909
20
121.6714187
11
24.4342909
21
121.7008187
0
LINE
8
DEFAULT_255_2_778
10
24.4342909
20
121.7008187
11
24.4395909
21
121.7447187
0
LINE
8
DEFAULT_255_2_778
10
24.4395909
20
121.7447187
11
24.4479909
21
121.7881187
0
LINE
8
DEFAULT_255_2_778
10
24.4479909
20
121.7881187
11
24.4725909
21
121.8632187
0
LINE
8
DEFAULT_255_2_778
10
24.4725909
20
121.8632187
11
24.5223909
21
121.9474187
0
LINE
8
DEFAULT_255_2_778
10
24.5223909
20
121.9474187
11
24.6099909
21
122.0159187
0
LINE
8
DEFAULT_255_2_778
10
24.6099909
20
122.0159187
11
24.8183909
21
122.0355187
0
LINE
8
DEFAULT_255_2_778
10
24.8183909
20
122.0355187
11
24.9250909
21
121.9810187
0
LINE
8
DEFAULT_255_2_778
10
24.9250909
20
121.9810187
11
24.9834909
21
121.8963187
0
LINE
8
DEFAULT_255_2_778
10
24.9834909
20
121.8963187
11
25.0028909
21
121.8434187
0
LINE
8
DEFAULT_255_2_778
10
25.0028909
20
121.8434187
11
25.0112909
21
121.8056187
0
LINE
8
DEFAULT_255_2_778
10
25.0112909
20
121.8056187
11
25.0168909
21
121.7672187
0
LINE
8
DEFAULT_255_2_778
10
25.0168909
20
121.7672187
11
25.0189909
21
121.7415187
0
LINE
8
DEFAULT_255_2_778
10
25.0189909
20
121.7415187
11
25.0207909
21
120.8097187
0
LINE
8
DEFAULT_255_2_778
10
25.0207909
20
120.8097187
11
25.2517909
21
120.8097187
0
LINE
8
DEFAULT_255_2_778
10
25.2517909
20
120.8097187
11
25.2493909
21
121.7587187
0
LINE
8
DEFAULT_255_2_778
10
25.2493909
20
121.7587187
11
25.2464909
21
121.7947187
0
LINE
8
DEFAULT_255_2_778
10
25.2464909
20
121.7947187
11
25.2422909
21
121.8307187
0
LINE
8
DEFAULT_255_2_778
10
25.2422909
20
121.8307187
11
25.2329909
21
121.8841187
0
LINE
8
DEFAULT_255_2_778
10
25.2329909
20
121.8841187
11
25.2195909
21
121.9365187
0
LINE
8
DEFAULT_255_2_778
10
25.2195909
20
121.9365187
11
25.1901909
21
122.0117187
0
LINE
8
DEFAULT_255_2_778
10
25.1901909
20
122.0117187
11
25.1343909
21
122.1006187
0
LINE
8
DEFAULT_255_2_778
10
25.1343909
20
122.1006187
11
25.0488909
21
122.1792187
0
LINE
8
DEFAULT_255_2_778
10
25.0488909
20
122.1792187
11
24.8885909
21
122.2363187
0
LINE
8
DEFAULT_255_2_778
10
24.8885909
20
122.2363187
11
24.6916909
21
122.2331187
0
LINE
8
DEFAULT_255_2_778
10
24.6916909
20
122.2331187
11
24.5506909
21
122.1770187
0
LINE
8
DEFAULT_255_2_778
10
24.5506909
20
122.1770187
11
24.4585909
21
122.0934187
0
LINE
8
DEFAULT_255_2_778
10
24.4585909
20
122.0934187
11
24.3852909
21
121.9876187
0
LINE
8
DEFAULT_255_2_778
10
24.3852909
20
121.9876187
11
24.3289909
21
122.0799187
0
LINE
8
DEFAULT_255_2_778
10
24.3289909
20
122.0799187
11
24.2230909
21
122.1765187
0
LINE
8
DEFAULT_255_2_778
10
24.2230909
20
122.1765187
11
24.0796909
21
122.2337187
0
LINE
8
DEFAULT_255_2_778
10
24.0796909
20
122.2337187
11
23.9082909
21
122.2368187
0
LINE
8
DEFAULT_255_2_778
10
13.2309909
20
122.8094187
11
14.4543909
21
122.8094187
0
LINE
8
DEFAULT_255_2_778
10
14.4543909
20
122.8094187
11
14.4543909
21
122.5641187
0
LINE
8
DEFAULT_255_2_778
10
14.4543909
20
122.5641187
11
13.7643909
21
120.8094187
0
LINE
8
DEFAULT_255_2_778
10
13.7643909
20
120.8094187
11
13.4749909
21
120.8094187
0
LINE
8
DEFAULT_255_2_778
10
13.4749909
20
120.8094187
11
14.2006909
21
122.5856187
0
LINE
8
DEFAULT_255_2_778
10
14.2006909
20
122.5856187
11
13.2312909
21
122.5856187
0
LINE
8
DEFAULT_255_2_778
10
13.2312909
20
122.5856187
11
13.2312909
21
122.8094187
0
LINE
8
DEFAULT_255_2_778
10
18.6858909
20
122.8094187
11
18.9525909
21
122.8094187
0
LINE
8
DEFAULT_255_2_778
10
18.9525909
20
122.8094187
11
18.2382909
21
120.8094187
0
LINE
8
DEFAULT_255_2_778
10
18.2382909
20
120.8094187
11
17.9627909
21
120.8094187
0
LINE
8
DEFAULT_255_2_778
10
17.9627909
20
120.8094187
11
17.2483909
21
122.8094187
0
LINE
8
DEFAULT_255_2_778
10
17.2483909
20
122.8094187
11
17.5150909
21
122.8094187
0
LINE
8
DEFAULT_255_2_778
10
17.5150909
20
122.8094187
11
18.1045909
21
121.0716187
0
LINE
8
DEFAULT_255_2_778
10
18.1045909
20
121.0716187
11
18.6864909
21
122.8094187
0
LINE
8
DEFAULT_255_2_778
10
10.4626909
20
122.6107187
11
10.6668909
21
122.6094187
0
LINE
8
DEFAULT_255_2_778
10
10.6668909
20
122.6094187
11
10.7999909
21
122.5649187
0
LINE
8
DEFAULT_255_2_778
10
10.7999909
20
122.5649187
11
10.8968909
21
122.4916187
0
LINE
8
DEFAULT_255_2_778
10
10.8968909
20
122.4916187
11
10.9391909
21
122.4302187
0
LINE
8
DEFAULT_255_2_778
10
10.9391909
20
122.4302187
11
10.9576909
21
122.3845187
0
LINE
8
DEFAULT_255_2_778
10
10.9576909
20
122.3845187
11
10.9674909
21
122.3453187
0
LINE
8
DEFAULT_255_2_778
10
10.9674909
20
122.3453187
11
10.9711909
21
122.3189187
0
LINE
8
DEFAULT_255_2_778
10
10.9711909
20
122.3189187
11
10.9727909
21
122.2789187
0
LINE
8
DEFAULT_255_2_778
10
10.9727909
20
122.2789187
11
11.2254909
21
122.2789187
0
LINE
8
DEFAULT_255_2_778
10
11.2254909
20
122.2789187
11
11.2235909
21
122.3390187
0
LINE
8
DEFAULT_255_2_778
10
11.2235909
20
122.3390187
11
11.2214909
21
122.3591187
0
LINE
8
DEFAULT_255_2_778
10
11.2214909
20
122.3591187
11
11.2153909
21
122.3990187
0
LINE
8
DEFAULT_255_2_778
10
11.2153909
20
122.3990187
11
11.2063909
21
122.4384187
0
LINE
8
DEFAULT_255_2_778
10
11.2063909
20
122.4384187
11
11.1867909
21
122.4972187
0
LINE
8
DEFAULT_255_2_778
10
11.1867909
20
122.4972187
11
11.1603909
21
122.5535187
0
LINE
8
DEFAULT_255_2_778
10
11.1603909
20
122.5535187
11
11.1137909
21
122.6226187
0
LINE
8
DEFAULT_255_2_778
10
11.1137909
20
122.6226187
11
11.0378909
21
122.6972187
0
LINE
8
DEFAULT_255_2_778
10
11.0378909
20
122.6972187
11
10.9386909
21
122.7615187
0
LINE
8
DEFAULT_255_2_778
10
10.9386909
20
122.7615187
11
10.7930909
21
122.8176187
0
LINE
8
DEFAULT_255_2_778
10
10.7930909
20
122.8176187
11
10.5970909
21
122.8475187
0
LINE
8
DEFAULT_255_2_778
10
10.5970909
20
122.8475187
11
10.3872909
21
122.8369187
0
LINE
8
DEFAULT_255_2_778
10
10.3872909
20
122.8369187
11
10.2239909
21
122.7911187
0
LINE
8
DEFAULT_255_2_778
10
10.2239909
20
122.7911187
11
10.1025909
21
122.7250187
0
LINE
8
DEFAULT_255_2_778
10
10.1025909
20
122.7250187
11
10.0123909
21
122.6496187
0
LINE
8
DEFAULT_255_2_778
10
10.0123909
20
122.6496187
11
9.9355909
21
122.5594187
0
LINE
8
DEFAULT_255_2_778
10
9.9355909
20
122.5594187
11
9.8765909
21
122.4665187
0
LINE
8
DEFAULT_255_2_778
10
9.8765909
20
122.4665187
11
9.8384909
21
122.3890187
0
LINE
8
DEFAULT_255_2_778
10
9.8384909
20
122.3890187
11
9.8061909
21
122.3056187
0
LINE
8
DEFAULT_255_2_778
10
9.8061909
20
122.3056187
11
9.7874909
21
122.2448187
0
LINE
8
DEFAULT_255_2_778
10
9.7874909
20
122.2448187
11
9.7718909
21
122.1829187
0
LINE
8
DEFAULT_255_2_778
10
9.7718909
20
122.1829187
11
9.7591909
21
122.1204187
0
LINE
8
DEFAULT_255_2_778
10
9.7591909
20
122.1204187
11
9.7538909
21
122.0889187
0
LINE
8
DEFAULT_255_2_778
10
9.7538909
20
122.0889187
11
9.7479909
21
122.0479187
0
LINE
8
DEFAULT_255_2_778
10
9.7479909
20
122.0479187
11
9.7432909
21
122.0069187
0
LINE
8
DEFAULT_255_2_778
10
9.7432909
20
122.0069187
11
9.7392909
21
121.9656187
0
LINE
8
DEFAULT_255_2_778
10
9.7392909
20
121.9656187
11
9.7363909
21
121.9244187
0
LINE
8
DEFAULT_255_2_778
10
9.7363909
20
121.9244187
11
9.7363909
21
121.6767187
0
LINE
8
DEFAULT_255_2_778
10
9.7363909
20
121.6767187
11
9.7392909
21
121.6357187
0
LINE
8
DEFAULT_255_2_778
10
9.7392909
20
121.6357187
11
9.7432909
21
121.5947187
0
LINE
8
DEFAULT_255_2_778
10
9.7432909
20
121.5947187
11
9.7479909
21
121.5539187
0
LINE
8
DEFAULT_255_2_778
10
9.7479909
20
121.5539187
11
9.7538909
21
121.5132187
0
LINE
8
DEFAULT_255_2_778
10
9.7538909
20
121.5132187
11
9.7651909
21
121.4510187
0
LINE
8
DEFAULT_255_2_778
10
9.7651909
20
121.4510187
11
9.7794909
21
121.3894187
0
LINE
8
DEFAULT_255_2_778
10
9.7794909
20
121.3894187
11
9.7966909
21
121.3285187
0
LINE
8
DEFAULT_255_2_778
10
9.7966909
20
121.3285187
11
9.8278909
21
121.2423187
0
LINE
8
DEFAULT_255_2_778
10
9.8278909
20
121.2423187
11
9.8638909
21
121.1647187
0
LINE
8
DEFAULT_255_2_778
10
9.8638909
20
121.1647187
11
9.9070909
21
121.0909187
0
LINE
8
DEFAULT_255_2_778
10
9.9070909
20
121.0909187
11
9.9810909
21
120.9949187
0
LINE
8
DEFAULT_255_2_778
10
9.9810909
20
120.9949187
11
10.0657909
21
120.9160187
0
LINE
8
DEFAULT_255_2_778
10
10.0657909
20
120.9160187
11
10.1824909
21
120.8438187
0
LINE
8
DEFAULT_255_2_778
10
10.1824909
20
120.8438187
11
10.3160909
21
120.7954187
0
LINE
8
DEFAULT_255_2_778
10
10.3160909
20
120.7954187
11
10.5097909
21
120.7700187
0
LINE
8
DEFAULT_255_2_778
10
10.5097909
20
120.7700187
11
10.7094909
21
120.7843187
0
LINE
8
DEFAULT_255_2_778
10
10.7094909
20
120.7843187
11
10.8626909
21
120.8282187
0
LINE
8
DEFAULT_255_2_778
10
10.8626909
20
120.8282187
11
10.9759909
21
120.8872187
0
LINE
8
DEFAULT_255_2_778
10
10.9759909
20
120.8872187
11
11.0788909
21
120.9705187
0
LINE
8
DEFAULT_255_2_778
10
11.0788909
20
120.9705187
11
11.1328909
21
121.0356187
0
LINE
8
DEFAULT_255_2_778
10
11.1328909
20
121.0356187
11
11.1738909
21
121.1073187
0
LINE
8
DEFAULT_255_2_778
10
11.1738909
20
121.1073187
11
11.1968909
21
121.1650187
0
LINE
8
DEFAULT_255_2_778
10
11.1968909
20
121.1650187
11
11.2092909
21
121.2079187
0
LINE
8
DEFAULT_255_2_778
10
11.2092909
20
121.2079187
11
11.2182909
21
121.2515187
0
LINE
8
DEFAULT_255_2_778
10
11.2182909
20
121.2515187
11
11.2214909
21
121.2735187
0
LINE
8
DEFAULT_255_2_778
10
11.2214909
20
121.2735187
11
11.2238909
21
121.2954187
0
LINE
8
DEFAULT_255_2_778
10
11.2238909
20
121.2954187
11
11.2256909
21
121.3396187
0
LINE
8
DEFAULT_255_2_778
10
11.2256909
20
121.3396187
11
10.9730909
21
121.3396187
0
LINE
8
DEFAULT_255_2_778
10
10.9730909
20
121.3396187
11
10.9687909
21
121.3089187
0
LINE
8
DEFAULT_255_2_778
10
10.9687909
20
121.3089187
11
10.9581909
21
121.2634187
0
LINE
8
DEFAULT_255_2_778
10
10.9581909
20
121.2634187
11
10.9370909
21
121.2073187
0
LINE
8
DEFAULT_255_2_778
10
10.9370909
20
121.2073187
11
10.8997909
21
121.1462187
0
LINE
8
DEFAULT_255_2_778
10
10.8997909
20
121.1462187
11
10.8274909
21
121.0774187
0
LINE
8
DEFAULT_255_2_778
10
10.8274909
20
121.0774187
11
10.7295909
21
121.0264187
0
LINE
8
DEFAULT_255_2_778
10
10.7295909
20
121.0264187
11
10.5935909
21
120.9994187
0
LINE
8
DEFAULT_255_2_778
10
10.5935909
20
120.9994187
11
10.4221909
21
121.0118187
0
LINE
8
DEFAULT_255_2_778
10
10.4221909
20
121.0118187
11
10.2898909
21
121.0642187
0
LINE
8
DEFAULT_255_2_778
10
10.2898909
20
121.0642187
11
10.2059909
21
121.1280187
0
LINE
8
DEFAULT_255_2_778
10
10.2059909
20
121.1280187
11
10.1345909
21
121.2140187
0
LINE
8
DEFAULT_255_2_778
10
10.1345909
20
121.2140187
11
10.0853909
21
121.3002187
0
LINE
8
DEFAULT_255_2_778
10
10.0853909
20
121.3002187
11
10.0522909
21
121.3798187
0
LINE
8
DEFAULT_255_2_778
10
10.0522909
20
121.3798187
11
10.0310909
21
121.4476187
0
LINE
8
DEFAULT_255_2_778
10
10.0310909
20
121.4476187
11
10.0178909
21
121.5016187
0
LINE
8
DEFAULT_255_2_778
10
10.0178909
20
121.5016187
11
10.0072909
21
121.5561187
0
LINE
8
DEFAULT_255_2_778
10
10.0072909
20
121.5561187
11
9.9990909
21
121.6111187
0
LINE
8
DEFAULT_255_2_778
10
9.9990909
20
121.6111187
11
9.9953909
21
121.6426187
0
LINE
8
DEFAULT_255_2_778
10
9.9953909
20
121.6426187
11
9.9948909
21
122.0048187
0
LINE
8
DEFAULT_255_2_778
10
9.9948909
20
122.0048187
11
10.0004909
21
122.0477187
0
LINE
8
DEFAULT_255_2_778
10
10.0004909
20
122.0477187
11
10.0080909
21
122.0942187
0
LINE
8
DEFAULT_255_2_778
10
10.0080909
20
122.0942187
11
10.0234909
21
122.1633187
0
LINE
8
DEFAULT_255_2_778
10
10.0234909
20
122.1633187
11
10.0501909
21
122.2487187
0
LINE
8
DEFAULT_255_2_778
10
10.0501909
20
122.2487187
11
10.0879909
21
122.3342187
0
LINE
8
DEFAULT_255_2_778
10
10.0879909
20
122.3342187
11
10.1533909
21
122.4347187
0
LINE
8
DEFAULT_255_2_778
10
10.1533909
20
122.4347187
11
10.2443909
21
122.5228187
0
LINE
8
DEFAULT_255_2_778
10
10.2443909
20
122.5228187
11
10.3814909
21
122.5919187
0
LINE
8
DEFAULT_255_2_778
10
10.3814909
20
122.5919187
11
10.4631909
21
122.6107187
0
LINE
8
DEFAULT_255_2_778
10
26.2762909
20
122.8094187
11
26.5466909
21
122.8094187
0
LINE
8
DEFAULT_255_2_778
10
26.5466909
20
122.8094187
11
27.2853909
21
120.8094187
0
LINE
8
DEFAULT_255_2_778
10
27.2853909
20
120.8094187
11
27.0173909
21
120.8094187
0
LINE
8
DEFAULT_255_2_778
10
27.0173909
20
120.8094187
11
26.8361909
21
121.3309187
0
LINE
8
DEFAULT_255_2_778
10
26.8361909
20
121.3309187
11
25.9891909
21
121.3309187
0
LINE
8
DEFAULT_255_2_778
10
25.9891909
20
121.3309187
11
25.8105909
21
120.8094187
0
LINE
8
DEFAULT_255_2_778
10
25.8105909
20
120.8094187
11
25.5375909
21
120.8094187
0
LINE
8
DEFAULT_255_2_778
10
25.5375909
20
120.8094187
11
26.2762909
21
122.8094187
0
LINE
8
DEFAULT_255_2_778
10
26.0682909
20
121.5579187
11
26.7583909
21
121.5579187
0
LINE
8
DEFAULT_255_2_778
10
26.7583909
20
121.5579187
11
26.4125909
21
122.5514187
0
LINE
8
DEFAULT_255_2_778
10
26.4125909
20
122.5514187
11
26.0682909
21
121.5579187
0
LINE
8
DEFAULT_255_2_778
10
22.2723513
20
122.831948
11
22.1559513
21
122.801748
0
LINE
8
DEFAULT_255_2_778
10
22.1559513
20
122.801748
11
22.0517513
21
122.748048
0
LINE
8
DEFAULT_255_2_778
10
22.0517513
20
122.748048
11
21.9776513
21
122.690148
0
LINE
8
DEFAULT_255_2_778
10
21.9776513
20
122.690148
11
21.9067513
21
122.613148
0
LINE
8
DEFAULT_255_2_778
10
21.9067513
20
122.613148
11
21.8474513
21
122.526848
0
LINE
8
DEFAULT_255_2_778
10
21.8474513
20
122.526848
11
21.7974513
21
122.432648
0
LINE
8
DEFAULT_255_2_778
10
21.7974513
20
122.432648
11
21.7696513
21
122.367848
0
LINE
8
DEFAULT_255_2_778
10
21.7696513
20
122.367848
11
21.7458513
21
122.301448
0
LINE
8
DEFAULT_255_2_778
10
21.7458513
20
122.301448
11
21.7236513
21
122.225748
0
LINE
8
DEFAULT_255_2_778
10
21.7236513
20
122.225748
11
21.7059513
21
122.148748
0
LINE
8
DEFAULT_255_2_778
10
21.7059513
20
122.148748
11
21.6987513
21
122.109848
0
LINE
8
DEFAULT_255_2_778
10
21.6987513
20
122.109848
11
21.6926513
21
122.071048
0
LINE
8
DEFAULT_255_2_778
10
21.6926513
20
122.071048
11
21.6871513
21
122.028148
0
LINE
8
DEFAULT_255_2_778
10
21.6871513
20
122.028148
11
21.6826513
21
121.985248
0
LINE
8
DEFAULT_255_2_778
10
21.6826513
20
121.985248
11
21.6791513
21
121.942148
0
LINE
8
DEFAULT_255_2_778
10
21.6791513
20
121.942148
11
21.6789513
21
121.681048
0
LINE
8
DEFAULT_255_2_778
10
21.6789513
20
121.681048
11
21.6823513
21
121.637348
0
LINE
8
DEFAULT_255_2_778
10
21.6823513
20
121.637348
11
21.6868513
21
121.593648
0
LINE
8
DEFAULT_255_2_778
10
21.6868513
20
121.593648
11
21.6924513
21
121.550048
0
LINE
8
DEFAULT_255_2_778
10
21.6924513
20
121.550048
11
21.6984513
21
121.510348
0
LINE
8
DEFAULT_255_2_778
10
21.6984513
20
121.510348
11
21.7056513
21
121.470948
0
LINE
8
DEFAULT_255_2_778
10
21.7056513
20
121.470948
11
21.7231513
21
121.392648
0
LINE
8
DEFAULT_255_2_778
10
21.7231513
20
121.392648
11
21.7447513
21
121.315648
0
LINE
8
DEFAULT_255_2_778
10
21.7447513
20
121.315648
11
21.7773513
21
121.225348
0
LINE
8
DEFAULT_255_2_778
10
21.7773513
20
121.225348
11
21.8170513
21
121.138048
0
LINE
8
DEFAULT_255_2_778
10
21.8170513
20
121.138048
11
21.8733513
21
121.040948
0
LINE
8
DEFAULT_255_2_778
10
21.8733513
20
121.040948
11
21.9384513
21
120.956048
0
LINE
8
DEFAULT_255_2_778
10
21.9384513
20
120.956048
11
22.0114513
21
120.886148
0
LINE
8
DEFAULT_255_2_778
10
22.0114513
20
120.886148
11
22.1112513
21
120.821648
0
LINE
8
DEFAULT_255_2_778
10
22.1112513
20
120.821648
11
22.2239513
21
120.780348
0
LINE
8
DEFAULT_255_2_778
10
22.2239513
20
120.780348
11
22.3689513
21
120.763648
0
LINE
8
DEFAULT_255_2_778
10
22.3689513
20
120.763648
11
22.5144513
21
120.780348
0
LINE
8
DEFAULT_255_2_778
10
22.5144513
20
120.780348
11
22.6274513
21
120.821648
0
LINE
8
DEFAULT_255_2_778
10
22.6274513
20
120.821648
11
22.7271513
21
120.886148
0
LINE
8
DEFAULT_255_2_778
10
22.7271513
20
120.886148
11
22.8002513
21
120.956048
0
LINE
8
DEFAULT_255_2_778
10
22.8002513
20
120.956048
11
22.8650513
21
121.040948
0
LINE
8
DEFAULT_255_2_778
10
22.8650513
20
121.040948
11
22.9211513
21
121.138348
0
LINE
8
DEFAULT_255_2_778
10
22.9211513
20
121.138348
11
22.9608513
21
121.225948
0
LINE
8
DEFAULT_255_2_778
10
22.9608513
20
121.225948
11
22.9933513
21
121.316448
0
LINE
8
DEFAULT_255_2_778
10
22.9933513
20
121.316448
11
23.0150513
21
121.393448
0
LINE
8
DEFAULT_255_2_778
10
23.0150513
20
121.393448
11
23.0325513
21
121.471748
0
LINE
8
DEFAULT_255_2_778
10
23.0325513
20
121.471748
11
23.0396513
21
121.511148
0
LINE
8
DEFAULT_255_2_778
10
23.0396513
20
121.511148
11
23.0457513
21
121.550848
0
LINE
8
DEFAULT_255_2_778
10
23.0457513
20
121.550848
11
23.0513513
21
121.594248
0
LINE
8
DEFAULT_255_2_778
10
23.0513513
20
121.594248
11
23.0558513
21
121.637848
0
LINE
8
DEFAULT_255_2_778
10
23.0558513
20
121.637848
11
23.0592513
21
121.681548
0
LINE
8
DEFAULT_255_2_778
10
23.0592513
20
121.681548
11
23.0592513
21
121.942448
0
LINE
8
DEFAULT_255_2_778
10
23.0592513
20
121.942448
11
23.0558513
21
121.985548
0
LINE
8
DEFAULT_255_2_778
10
23.0558513
20
121.985548
11
23.0513513
21
122.028448
0
LINE
8
DEFAULT_255_2_778
10
23.0513513
20
122.028448
11
23.0457513
21
122.071248
0
LINE
8
DEFAULT_255_2_778
10
23.0457513
20
122.071248
11
23.0396513
21
122.110148
0
LINE
8
DEFAULT_255_2_778
10
23.0396513
20
122.110148
11
23.0325513
21
122.149048
0
LINE
8
DEFAULT_255_2_778
10
23.0325513
20
122.149048
11
23.0147513
21
122.226048
0
LINE
8
DEFAULT_255_2_778
10
23.0147513
20
122.226048
11
22.9925513
21
122.301748
0
LINE
8
DEFAULT_255_2_778
10
22.9925513
20
122.301748
11
22.9595513
21
122.390648
0
LINE
8
DEFAULT_255_2_778
10
22.9595513
20
122.390648
11
22.9190513
21
122.476648
0
LINE
8
DEFAULT_255_2_778
10
22.9190513
20
122.476648
11
22.8626513
21
122.571348
0
LINE
8
DEFAULT_255_2_778
10
22.8626513
20
122.571348
11
22.7981513
21
122.653348
0
LINE
8
DEFAULT_255_2_778
10
22.7981513
20
122.653348
11
22.7253513
21
122.720848
0
LINE
8
DEFAULT_255_2_778
10
22.7253513
20
122.720848
11
22.6258513
21
122.783248
0
LINE
8
DEFAULT_255_2_778
10
22.6258513
20
122.783248
11
22.5136513
21
122.823248
0
LINE
8
DEFAULT_255_2_778
10
22.5136513
20
122.823248
11
22.3692513
21
122.839348
0
LINE
8
DEFAULT_255_2_778
10
22.3692513
20
122.839348
11
22.2723513
21
122.831948
0
LINE
8
DEFAULT_255_2_778
10
22.2922513
20
122.604648
11
22.4305513
21
122.607348
0
LINE
8
DEFAULT_255_2_778
10
22.4305513
20
122.607348
11
22.5324513
21
122.573948
0
LINE
8
DEFAULT_255_2_778
10
22.5324513
20
122.573948
11
22.6195513
21
122.509448
0
LINE
8
DEFAULT_255_2_778
10
22.6195513
20
122.509448
11
22.6779513
21
122.437948
0
LINE
8
DEFAULT_255_2_778
10
22.6779513
20
122.437948
11
22.7271513
21
122.348548
0
LINE
8
DEFAULT_255_2_778
10
22.7271513
20
122.348548
11
22.7568513
21
122.275248
0
LINE
8
DEFAULT_255_2_778
10
22.7568513
20
122.275248
11
22.7798513
21
122.201748
0
LINE
8
DEFAULT_255_2_778
10
22.7798513
20
122.201748
11
22.7930513
21
122.148248
0
LINE
8
DEFAULT_255_2_778
10
22.7930513
20
122.148248
11
22.8044513
21
122.090548
0
LINE
8
DEFAULT_255_2_778
10
22.8044513
20
122.090548
11
22.8134513
21
122.032648
0
LINE
8
DEFAULT_255_2_778
10
22.8134513
20
122.032648
11
22.8168513
21
122.003548
0
LINE
8
DEFAULT_255_2_778
10
22.8168513
20
122.003548
11
22.8205513
21
121.964948
0
LINE
8
DEFAULT_255_2_778
10
22.8205513
20
121.964948
11
22.8235513
21
121.926248
0
LINE
8
DEFAULT_255_2_778
10
22.8235513
20
121.926248
11
22.8235513
21
121.691548
0
LINE
8
DEFAULT_255_2_778
10
22.8235513
20
121.691548
11
22.8205513
21
121.652148
0
LINE
8
DEFAULT_255_2_778
10
22.8205513
20
121.652148
11
22.8168513
21
121.613048
0
LINE
8
DEFAULT_255_2_778
10
22.8168513
20
121.613048
11
22.8092513
21
121.553748
0
LINE
8
DEFAULT_255_2_778
10
22.8092513
20
121.553748
11
22.7991513
21
121.495048
0
LINE
8
DEFAULT_255_2_778
10
22.7991513
20
121.495048
11
22.7864513
21
121.436748
0
LINE
8
DEFAULT_255_2_778
10
22.7864513
20
121.436748
11
22.7642513
21
121.357948
0
LINE
8
DEFAULT_255_2_778
10
22.7642513
20
121.357948
11
22.7277513
21
121.261948
0
LINE
8
DEFAULT_255_2_778
10
22.7277513
20
121.261948
11
22.6896513
21
121.187548
0
LINE
8
DEFAULT_255_2_778
10
22.6896513
20
121.187548
11
22.6308513
21
121.107648
0
LINE
8
DEFAULT_255_2_778
10
22.6308513
20
121.107648
11
22.5464513
21
121.037548
0
LINE
8
DEFAULT_255_2_778
10
22.5464513
20
121.037548
11
22.4459513
21
120.998348
0
LINE
8
DEFAULT_255_2_778
10
22.4459513
20
120.998348
11
22.3067513
21
120.995448
0
LINE
8
DEFAULT_255_2_778
10
22.3067513
20
120.995448
11
22.2046513
21
121.029848
0
LINE
8
DEFAULT_255_2_778
10
22.2046513
20
121.029848
11
22.1173513
21
121.096248
0
LINE
8
DEFAULT_255_2_778
10
22.1173513
20
121.096248
11
22.0588513
21
121.169848
0
LINE
8
DEFAULT_255_2_778
10
22.0588513
20
121.169848
11
22.0183513
21
121.242848
0
LINE
8
DEFAULT_255_2_778
10
22.0183513
20
121.242848
11
21.9913513
21
121.306348
0
LINE
8
DEFAULT_255_2_778
10
21.9913513
20
121.306348
11
21.9651513
21
121.383848
0
LINE
8
DEFAULT_255_2_778
10
21.9651513
20
121.383848
11
21.9511513
21
121.436548
0
LINE
8
DEFAULT_255_2_778
10
21.9511513
20
121.436548
11
21.9384513
21
121.494748
0
LINE
8
DEFAULT_255_2_778
10
21.9384513
20
121.494748
11
21.9284513
21
121.553448
0
LINE
8
DEFAULT_255_2_778
10
21.9284513
20
121.553448
11
21.9207513
21
121.612748
0
LINE
8
DEFAULT_255_2_778
10
21.9207513
20
121.612748
11
21.9170513
21
121.651948
0
LINE
8
DEFAULT_255_2_778
10
21.9170513
20
121.651948
11
21.9141513
21
121.691348
0
LINE
8
DEFAULT_255_2_778
10
21.9141513
20
121.691348
11
21.9141513
21
121.926048
0
LINE
8
DEFAULT_255_2_778
10
21.9141513
20
121.926048
11
21.9170513
21
121.964648
0
LINE
8
DEFAULT_255_2_778
10
21.9170513
20
121.964648
11
21.9207513
21
122.003248
0
LINE
8
DEFAULT_255_2_778
10
21.9207513
20
122.003248
11
21.9284513
21
122.061448
0
LINE
8
DEFAULT_255_2_778
10
21.9284513
20
122.061448
11
21.9384513
21
122.119448
0
LINE
8
DEFAULT_255_2_778
10
21.9384513
20
122.119448
11
21.9511513
21
122.176848
0
LINE
8
DEFAULT_255_2_778
10
21.9511513
20
122.176848
11
21.9736513
21
122.254348
0
LINE
8
DEFAULT_255_2_778
10
21.9736513
20
122.254348
11
22.0104513
21
122.348548
0
LINE
8
DEFAULT_255_2_778
10
22.0104513
20
122.348548
11
22.0485513
21
122.420748
0
LINE
8
DEFAULT_255_2_778
10
22.0485513
20
122.420748
11
22.1070513
21
122.498348
0
LINE
8
DEFAULT_255_2_778
10
22.1070513
20
122.498348
11
22.1911513
21
122.566548
0
LINE
8
DEFAULT_255_2_778
10
22.1911513
20
122.566548
11
22.2922513
21
122.604648
0
LINE
8
DEFAULT_255_2_778
10
20.2435513
20
121.528048
11
20.8698513
21
121.528048
0
LINE
8
DEFAULT_255_2_778
10
20.8698513
20
121.528048
11
20.8698513
21
122.524448
0
LINE
8
DEFAULT_255_2_778
10
20.8698513
20
122.524448
11
20.2435513
21
121.528048
0
LINE
8
DEFAULT_255_2_778
10
20.8264513
20
122.809448
11
21.1108513
21
122.809448
0
LINE
8
DEFAULT_255_2_778
10
21.1108513
20
122.809448
11
21.1108513
21
121.528048
0
LINE
8
DEFAULT_255_2_778
10
21.1108513
20
121.528048
11
21.4513513
21
121.528048
0
LINE
8
DEFAULT_255_2_778
10
21.4513513
20
121.528048
11
21.4513513
21
121.309748
0
LINE
8
DEFAULT_255_2_778
10
21.4513513
20
121.309748
11
21.1108513
21
121.309748
0
LINE
8
DEFAULT_255_2_778
10
21.1108513
20
121.309748
11
21.1108513
21
120.809448
0
LINE
8
DEFAULT_255_2_778
10
21.1108513
20
120.809448
11
20.8698513
21
120.809448
0
LINE
8
DEFAULT_255_2_778
10
20.8698513
20
120.809448
11
20.8698513
21
121.309748
0
LINE
8
DEFAULT_255_2_778
10
20.8698513
20
121.309748
11
20.0329513
21
121.309748
0
LINE
8
DEFAULT_255_2_778
10
20.0329513
20
121.309748
11
20.0329513
21
121.550848
0
LINE
8
DEFAULT_255_2_778
10
20.0329513
20
121.550848
11
20.8264513
21
122.809448
0
LINE
8
DEFAULT_255_2_778
10
15.8588513
20
121.528048
11
16.4851513
21
121.528048
0
LINE
8
DEFAULT_255_2_778
10
16.4851513
20
121.528048
11
16.4851513
21
122.524448
0
LINE
8
DEFAULT_255_2_778
10
16.4851513
20
122.524448
11
15.8588513
21
121.528048
0
LINE
8
DEFAULT_255_2_778
10
16.4417513
20
122.809448
11
16.7261513
21
122.809448
0
LINE
8
DEFAULT_255_2_778
10
16.7261513
20
122.809448
11
16.7261513
21
121.528048
0
LINE
8
DEFAULT_255_2_778
10
16.7261513
20
121.528048
11
17.0667513
21
121.528048
0
LINE
8
DEFAULT_255_2_778
10
17.0667513
20
121.528048
11
17.0667513
21
121.309748
0
LINE
8
DEFAULT_255_2_778
10
17.0667513
20
121.309748
11
16.7261513
21
121.309748
0
LINE
8
DEFAULT_255_2_778
10
16.7261513
20
121.309748
11
16.7261513
21
120.809448
0
LINE
8
DEFAULT_255_2_778
10
16.7261513
20
120.809448
11
16.4851513
21
120.809448
0
LINE
8
DEFAULT_255_2_778
10
16.4851513
20
120.809448
11
16.4851513
21
121.309748
0
LINE
8
DEFAULT_255_2_778
10
16.4851513
20
121.309748
11
15.6482513
21
121.309748
0
LINE
8
DEFAULT_255_2_778
10
15.6482513
20
121.309748
11
15.6482513
21
121.550848
0
LINE
8
DEFAULT_255_2_778
10
15.6482513
20
121.550848
11
16.4417513
21
122.809448
0
LINE
8
DEFAULT_255_2_778
10
8.7619513
20
120.829348
11
8.5299513
21
120.809248
0
LINE
8
DEFAULT_255_2_778
10
8.5299513
20
120.809248
11
7.9113513
21
120.809248
0
LINE
8
DEFAULT_255_2_778
10
7.9113513
20
120.809248
11
7.9113513
21
122.809148
0
LINE
8
DEFAULT_255_2_778
10
7.9113513
20
122.809148
11
8.6264513
21
122.802348
0
LINE
8
DEFAULT_255_2_778
10
8.6264513
20
122.802348
11
8.8265513
21
122.763648
0
LINE
8
DEFAULT_255_2_778
10
8.8265513
20
122.763648
11
8.9598513
21
122.709148
0
LINE
8
DEFAULT_255_2_778
10
8.9598513
20
122.709148
11
9.0686513
21
122.636448
0
LINE
8
DEFAULT_255_2_778
10
9.0686513
20
122.636448
11
9.1609513
21
122.546448
0
LINE
8
DEFAULT_255_2_778
10
9.1609513
20
122.546448
11
9.2236513
21
122.464148
0
LINE
8
DEFAULT_255_2_778
10
9.2236513
20
122.464148
11
9.2757513
21
122.375048
0
LINE
8
DEFAULT_255_2_778
10
9.2757513
20
122.375048
11
9.3009513
21
122.320548
0
LINE
8
DEFAULT_255_2_778
10
9.3009513
20
122.320548
11
9.3249513
21
122.256448
0
LINE
8
DEFAULT_255_2_778
10
9.3249513
20
122.256448
11
9.3443513
21
122.191148
0
LINE
8
DEFAULT_255_2_778
10
9.3443513
20
122.191148
11
9.3593513
21
122.124448
0
LINE
8
DEFAULT_255_2_778
10
9.3593513
20
122.124448
11
9.3654513
21
122.090848
0
LINE
8
DEFAULT_255_2_778
10
9.3654513
20
122.090848
11
9.3707513
21
122.056948
0
LINE
8
DEFAULT_255_2_778
10
9.3707513
20
122.056948
11
9.3752513
21
122.022848
0
LINE
8
DEFAULT_255_2_778
10
9.3752513
20
122.022848
11
9.3739513
21
121.537348
0
LINE
8
DEFAULT_255_2_778
10
9.3739513
20
121.537348
11
9.3691513
21
121.503248
0
LINE
8
DEFAULT_255_2_778
10
9.3691513
20
121.503248
11
9.3633513
21
121.469348
0
LINE
8
DEFAULT_255_2_778
10
9.3633513
20
121.469348
11
9.3488513
21
121.402348
0
LINE
8
DEFAULT_255_2_778
10
9.3488513
20
121.402348
11
9.3300513
21
121.336748
0
LINE
8
DEFAULT_255_2_778
10
9.3300513
20
121.336748
11
9.3062513
21
121.272448
0
LINE
8
DEFAULT_255_2_778
10
9.3062513
20
121.272448
11
9.2689513
21
121.195248
0
LINE
8
DEFAULT_255_2_778
10
9.2689513
20
121.195248
11
9.2133513
21
121.108148
0
LINE
8
DEFAULT_255_2_778
10
9.2133513
20
121.108148
11
9.1466513
21
121.029048
0
LINE
8
DEFAULT_255_2_778
10
9.1466513
20
121.029048
11
9.0492513
21
120.945148
0
LINE
8
DEFAULT_255_2_778
10
9.0492513
20
120.945148
11
8.9553513
21
120.890448
0
LINE
8
DEFAULT_255_2_778
10
8.9553513
20
120.890448
11
8.8191513
21
120.842048
0
LINE
8
DEFAULT_255_2_778
10
8.8191513
20
120.842048
11
8.7619513
21
120.829348
0
LINE
8
DEFAULT_255_2_778
10
8.6833513
20
121.048648
11
8.5312513
21
121.035948
0
LINE
8
DEFAULT_255_2_778
10
8.5312513
20
121.035948
11
8.1573513
21
121.035948
0
LINE
8
DEFAULT_255_2_778
10
8.1573513
20
121.035948
11
8.1573513
21
122.582448
0
LINE
8
DEFAULT_255_2_778
10
8.1573513
20
122.582448
11
8.6294513
21
122.571848
0
LINE
8
DEFAULT_255_2_778
10
8.6294513
20
122.571848
11
8.7921513
21
122.526348
0
LINE
8
DEFAULT_255_2_778
10
8.7921513
20
122.526348
11
8.8971513
21
122.463648
0
LINE
8
DEFAULT_255_2_778
10
8.8971513
20
122.463648
11
8.9828513
21
122.379548
0
LINE
8
DEFAULT_255_2_778
10
8.9828513
20
122.379548
11
9.0403513
21
122.296448
0
LINE
8
DEFAULT_255_2_778
10
9.0403513
20
122.296448
11
9.0678513
21
122.242948
0
LINE
8
DEFAULT_255_2_778
10
9.0678513
20
122.242948
11
9.0881513
21
122.192748
0
LINE
8
DEFAULT_255_2_778
10
9.0881513
20
122.192748
11
9.1045513
21
122.141148
0
LINE
8
DEFAULT_255_2_778
10
9.1045513
20
122.141148
11
9.1172513
21
122.088748
0
LINE
8
DEFAULT_255_2_778
10
9.1172513
20
122.088748
11
9.1268513
21
122.035548
0
LINE
8
DEFAULT_255_2_778
10
9.1268513
20
122.035548
11
9.1305513
21
122.008548
0
LINE
8
DEFAULT_255_2_778
10
9.1305513
20
122.008548
11
9.1310513
21
121.623848
0
LINE
8
DEFAULT_255_2_778
10
9.1310513
20
121.623848
11
9.1262513
21
121.585248
0
LINE
8
DEFAULT_255_2_778
10
9.1262513
20
121.585248
11
9.1175513
21
121.530148
0
LINE
8
DEFAULT_255_2_778
10
9.1175513
20
121.530148
11
9.1061513
21
121.475648
0
LINE
8
DEFAULT_255_2_778
10
9.1061513
20
121.475648
11
9.0916513
21
121.421948
0
LINE
8
DEFAULT_255_2_778
10
9.0916513
20
121.421948
11
9.0688513
21
121.357148
0
LINE
8
DEFAULT_255_2_778
10
9.0688513
20
121.357148
11
9.0334513
21
121.283648
0
LINE
8
DEFAULT_255_2_778
10
9.0334513
20
121.283648
11
8.9892513
21
121.219348
0
LINE
8
DEFAULT_255_2_778
10
8.9892513
20
121.219348
11
8.9230513
21
121.153448
0
LINE
8
DEFAULT_255_2_778
10
8.9230513
20
121.153448
11
8.8249513
21
121.092848
0
LINE
8
DEFAULT_255_2_778
10
8.8249513
20
121.092848
11
8.7079513
21
121.054248
0
LINE
8
DEFAULT_255_2_778
10
8.7079513
20
121.054248
11
8.6833513
21
121.048648
0
LINE
8
DEFAULT_255_2_778
10
7.5459513
20
82.907948
11
7.3644513
21
82.907948
0
LINE
8
DEFAULT_255_2_778
10
7.3644513
20
82.907948
11
7.1593513
21
82.709948
0
LINE
8
DEFAULT_255_2_778
10
7.1593513
20
82.709948
11
6.9813513
21
82.600448
0
LINE
8
DEFAULT_255_2_778
10
6.9813513
20
82.600448
11
6.9813513
21
82.350948
0
LINE
8
DEFAULT_255_2_778
10
6.9813513
20
82.350948
11
7.2652513
21
82.534048
0
LINE
8
DEFAULT_255_2_778
10
7.2652513
20
82.534048
11
7.3316513
21
82.598848
0
LINE
8
DEFAULT_255_2_778
10
7.3316513
20
82.598848
11
7.3316513
21
80.919248
0
LINE
8
DEFAULT_255_2_778
10
7.3316513
20
80.919248
11
7.5459513
21
80.919248
0
LINE
8
DEFAULT_255_2_778
10
7.5459513
20
80.919248
11
7.5459513
21
82.907948
0
LINE
8
DEFAULT_255_2_778
10
7.5779513
20
92.651448
11
7.4250513
21
92.592148
0
LINE
8
DEFAULT_255_2_778
10
7.4250513
20
92.592148
11
7.3347513
21
92.522348
0
LINE
8
DEFAULT_255_2_778
10
7.3347513
20
92.522348
11
7.2789513
21
92.466248
0
LINE
8
DEFAULT_255_2_778
10
7.2789513
20
92.466248
11
7.2945513
21
93.109748
0
LINE
8
DEFAULT_255_2_778
10
7.2945513
20
93.109748
11
8.2018513
21
93.109748
0
LINE
8
DEFAULT_255_2_778
10
8.2018513
20
93.109748
11
8.2018513
21
93.327948
0
LINE
8
DEFAULT_255_2_778
10
8.2018513
20
93.327948
11
7.0437513
21
93.327948
0
LINE
8
DEFAULT_255_2_778
10
7.0437513
20
93.327948
11
7.0268513
21
92.158548
0
LINE
8
DEFAULT_255_2_778
10
7.0268513
20
92.158548
11
7.2948513
21
92.158548
0
LINE
8
DEFAULT_255_2_778
10
7.2948513
20
92.158548
11
7.2980513
21
92.183148
0
LINE
8
DEFAULT_255_2_778
10
7.2980513
20
92.183148
11
7.3062513
21
92.219348
0
LINE
8
DEFAULT_255_2_778
10
7.3062513
20
92.219348
11
7.3279513
21
92.275248
0
LINE
8
DEFAULT_255_2_778
10
7.3279513
20
92.275248
11
7.3747513
21
92.342148
0
LINE
8
DEFAULT_255_2_778
10
7.3747513
20
92.342148
11
7.4776513
21
92.416748
0
LINE
8
DEFAULT_255_2_778
10
7.4776513
20
92.416748
11
7.6287513
21
92.450648
0
LINE
8
DEFAULT_255_2_778
10
7.6287513
20
92.450648
11
7.7957513
21
92.423648
0
LINE
8
DEFAULT_255_2_778
10
7.7957513
20
92.423648
11
7.8975513
21
92.358048
0
LINE
8
DEFAULT_255_2_778
10
7.8975513
20
92.358048
11
7.9676513
21
92.268048
0
LINE
8
DEFAULT_255_2_778
10
7.9676513
20
92.268048
11
8.0015513
21
92.194748
0
LINE
8
DEFAULT_255_2_778
10
8.0015513
20
92.194748
11
8.0174513
21
92.141048
0
LINE
8
DEFAULT_255_2_778
10
8.0174513
20
92.141048
11
8.0261513
21
92.096048
0
LINE
8
DEFAULT_255_2_778
10
8.0261513
20
92.096048
11
8.0261513
21
91.882348
0
LINE
8
DEFAULT_255_2_778
10
8.0261513
20
91.882348
11
8.0176513
21
91.838148
0
LINE
8
DEFAULT_255_2_778
10
8.0176513
20
91.838148
11
8.0020513
21
91.783648
0
LINE
8
DEFAULT_255_2_778
10
8.0020513
20
91.783648
11
7.9690513
21
91.709248
0
LINE
8
DEFAULT_255_2_778
10
7.9690513
20
91.709248
11
7.8959513
21
91.613448
0
LINE
8
DEFAULT_255_2_778
10
7.8959513
20
91.613448
11
7.7732513
21
91.540248
0
LINE
8
DEFAULT_255_2_778
10
7.7732513
20
91.540248
11
7.5485513
21
91.529048
0
LINE
8
DEFAULT_255_2_778
10
7.5485513
20
91.529048
11
7.4191513
21
91.580948
0
LINE
8
DEFAULT_255_2_778
10
7.4191513
20
91.580948
11
7.3289513
21
91.669048
0
LINE
8
DEFAULT_255_2_778
10
7.3289513
20
91.669048
11
7.2824513
21
91.752148
0
LINE
8
DEFAULT_255_2_778
10
7.2824513
20
91.752148
11
7.2638513
21
91.808248
0
LINE
8
DEFAULT_255_2_778
10
7.2638513
20
91.808248
11
7.2570513
21
91.842648
0
LINE
8
DEFAULT_255_2_778
10
7.2570513
20
91.842648
11
7.2554513
21
91.853948
0
LINE
8
DEFAULT_255_2_778
10
7.2554513
20
91.853948
11
6.9818513
21
91.853948
0
LINE
8
DEFAULT_255_2_778
10
6.9818513
20
91.853948
11
6.9871513
21
91.812748
0
LINE
8
DEFAULT_255_2_778
10
6.9871513
20
91.812748
11
6.9950513
21
91.771748
0
LINE
8
DEFAULT_255_2_778
10
6.9950513
20
91.771748
11
7.0117513
21
91.711148
0
LINE
8
DEFAULT_255_2_778
10
7.0117513
20
91.711148
11
7.0411513
21
91.637348
0
LINE
8
DEFAULT_255_2_778
10
7.0411513
20
91.637348
11
7.0792513
21
91.569348
0
LINE
8
DEFAULT_255_2_778
10
7.0792513
20
91.569348
11
7.1397513
21
91.493148
0
LINE
8
DEFAULT_255_2_778
10
7.1397513
20
91.493148
11
7.2318513
21
91.413448
0
LINE
8
DEFAULT_255_2_778
10
7.2318513
20
91.413448
11
7.3464513
21
91.349748
0
LINE
8
DEFAULT_255_2_778
10
7.3464513
20
91.349748
11
7.4985513
21
91.305748
0
LINE
8
DEFAULT_255_2_778
10
7.4985513
20
91.305748
11
7.7163513
21
91.296748
0
LINE
8
DEFAULT_255_2_778
10
7.7163513
20
91.296748
11
7.8787513
21
91.326948
0
LINE
8
DEFAULT_255_2_778
10
7.8787513
20
91.326948
11
8.0160513
21
91.388848
0
LINE
8
DEFAULT_255_2_778
10
8.0160513
20
91.388848
11
8.1203513
21
91.471648
0
LINE
8
DEFAULT_255_2_778
10
8.1203513
20
91.471648
11
8.1864513
21
91.551548
0
LINE
8
DEFAULT_255_2_778
10
8.1864513
20
91.551548
11
8.2296513
21
91.624348
0
LINE
8
DEFAULT_255_2_778
10
8.2296513
20
91.624348
11
8.2563513
21
91.685148
0
LINE
8
DEFAULT_255_2_778
10
8.2563513
20
91.685148
11
8.2769513
21
91.748448
0
LINE
8
DEFAULT_255_2_778
10
8.2769513
20
91.748448
11
8.2875513
21
91.791548
0
LINE
8
DEFAULT_255_2_778
10
8.2875513
20
91.791548
11
8.2962513
21
91.839948
0
LINE
8
DEFAULT_255_2_778
10
8.2962513
20
91.839948
11
8.2970513
21
92.134748
0
LINE
8
DEFAULT_255_2_778
10
8.2970513
20
92.134748
11
8.2872513
21
92.191648
0
LINE
8
DEFAULT_255_2_778
10
8.2872513
20
92.191648
11
8.2722513
21
92.252148
0
LINE
8
DEFAULT_255_2_778
10
8.2722513
20
92.252148
11
8.2523513
21
92.311148
0
LINE
8
DEFAULT_255_2_778
10
8.2523513
20
92.311148
11
8.2142513
21
92.392648
0
LINE
8
DEFAULT_255_2_778
10
8.2142513
20
92.392648
11
8.1457513
21
92.490048
0
LINE
8
DEFAULT_255_2_778
10
8.1457513
20
92.490048
11
8.0478513
21
92.576548
0
LINE
8
DEFAULT_255_2_778
10
8.0478513
20
92.576548
11
7.8999513
21
92.643748
0
LINE
8
DEFAULT_255_2_778
10
7.8999513
20
92.643748
11
7.6858513
21
92.665248
0
LINE
8
DEFAULT_255_2_778
10
7.6858513
20
92.665248
11
7.5782513
21
92.651448
0
LINE
8
DEFAULT_255_2_778
10
7.6872513
20
98.502948
11
7.4604513
21
98.502948
0
LINE
8
DEFAULT_255_2_778
10
7.4604513
20
98.502948
11
7.2035513
21
98.304848
0
LINE
8
DEFAULT_255_2_778
10
7.2035513
20
98.304848
11
6.9813513
21
98.195548
0
LINE
8
DEFAULT_255_2_778
10
6.9813513
20
98.195548
11
6.9813513
21
97.946048
0
LINE
8
DEFAULT_255_2_778
10
6.9813513
20
97.946048
11
7.3361513
21
98.129148
0
LINE
8
DEFAULT_255_2_778
10
7.3361513
20
98.129148
11
7.4191513
21
98.193948
0
LINE
8
DEFAULT_255_2_778
10
7.4191513
20
98.193948
11
7.4191513
21
96.514348
0
LINE
8
DEFAULT_255_2_778
10
7.4191513
20
96.514348
11
7.6872513
21
96.514348
0
LINE
8
DEFAULT_255_2_778
10
7.6872513
20
96.514348
11
7.6872513
21
98.502948
0
LINE
8
DEFAULT_255_2_778
10
8.7659513
20
82.730348
11
8.9506513
21
82.709748
0
LINE
8
DEFAULT_255_2_778
10
8.9506513
20
82.709748
11
9.0604513
21
82.630648
0
LINE
8
DEFAULT_255_2_778
10
9.0604513
20
82.630648
11
9.1067513
21
82.556248
0
LINE
8
DEFAULT_255_2_778
10
9.1067513
20
82.556248
11
9.1252513
21
82.498548
0
LINE
8
DEFAULT_255_2_778
10
9.1252513
20
82.498548
11
9.1315513
21
82.464948
0
LINE
8
DEFAULT_255_2_778
10
9.1315513
20
82.464948
11
9.1305513
21
82.332148
0
LINE
8
DEFAULT_255_2_778
10
9.1305513
20
82.332148
11
9.1175513
21
82.280848
0
LINE
8
DEFAULT_255_2_778
10
9.1175513
20
82.280848
11
9.0723513
21
82.196148
0
LINE
8
DEFAULT_255_2_778
10
9.0723513
20
82.196148
11
8.9413513
21
82.090848
0
LINE
8
DEFAULT_255_2_778
10
8.9413513
20
82.090848
11
8.7730513
21
82.053848
0
LINE
8
DEFAULT_255_2_778
10
8.7730513
20
82.053848
11
8.7016513
21
82.053848
0
LINE
8
DEFAULT_255_2_778
10
8.7016513
20
82.053848
11
8.7016513
21
81.829948
0
LINE
8
DEFAULT_255_2_778
10
8.7016513
20
81.829948
11
8.9442513
21
81.806948
0
LINE
8
DEFAULT_255_2_778
10
8.9442513
20
81.806948
11
9.0799513
21
81.727848
0
LINE
8
DEFAULT_255_2_778
10
9.0799513
20
81.727848
11
9.1329513
21
81.658048
0
LINE
8
DEFAULT_255_2_778
10
9.1329513
20
81.658048
11
9.1546513
21
81.604048
0
LINE
8
DEFAULT_255_2_778
10
9.1546513
20
81.604048
11
9.1625513
21
81.569348
0
LINE
8
DEFAULT_255_2_778
10
9.1625513
20
81.569348
11
9.1601513
21
81.395548
0
LINE
8
DEFAULT_255_2_778
10
9.1601513
20
81.395548
11
9.1453513
21
81.336048
0
LINE
8
DEFAULT_255_2_778
10
9.1453513
20
81.336048
11
9.1180513
21
81.272548
0
LINE
8
DEFAULT_255_2_778
10
9.1180513
20
81.272548
11
9.0503513
21
81.186248
0
LINE
8
DEFAULT_255_2_778
10
9.0503513
20
81.186248
11
8.9347513
21
81.118748
0
LINE
8
DEFAULT_255_2_778
10
8.9347513
20
81.118748
11
8.7040513
21
81.122448
0
LINE
8
DEFAULT_255_2_778
10
8.7040513
20
81.122448
11
8.5833513
21
81.210848
0
LINE
8
DEFAULT_255_2_778
10
8.5833513
20
81.210848
11
8.5116513
21
81.323048
0
LINE
8
DEFAULT_255_2_778
10
8.5116513
20
81.323048
11
8.4788513
21
81.413848
0
LINE
8
DEFAULT_255_2_778
10
8.4788513
20
81.413848
11
8.4664513
21
81.465648
0
LINE
8
DEFAULT_255_2_778
10
8.4664513
20
81.465648
11
8.2476513
21
81.465648
0
LINE
8
DEFAULT_255_2_778
10
8.2476513
20
81.465648
11
8.2547513
21
81.416948
0
LINE
8
DEFAULT_255_2_778
10
8.2547513
20
81.416948
11
8.2642513
21
81.368548
0
LINE
8
DEFAULT_255_2_778
10
8.2642513
20
81.368548
11
8.2764513
21
81.320648
0
LINE
8
DEFAULT_255_2_778
10
8.2764513
20
81.320648
11
8.3037513
21
81.241248
0
LINE
8
DEFAULT_255_2_778
10
8.3037513
20
81.241248
11
8.3468513
21
81.152948
0
LINE
8
DEFAULT_255_2_778
10
8.3468513
20
81.152948
11
8.4116513
21
81.061648
0
LINE
8
DEFAULT_255_2_778
10
8.4116513
20
81.061648
11
8.5034513
21
80.975148
0
LINE
8
DEFAULT_255_2_778
10
8.5034513
20
80.975148
11
8.6246513
21
80.907948
0
LINE
8
DEFAULT_255_2_778
10
8.6246513
20
80.907948
11
8.7963513
21
80.874848
0
LINE
8
DEFAULT_255_2_778
10
8.7963513
20
80.874848
11
8.9844513
21
80.894648
0
LINE
8
DEFAULT_255_2_778
10
8.9844513
20
80.894648
11
9.1299513
21
80.955848
0
LINE
8
DEFAULT_255_2_778
10
9.1299513
20
80.955848
11
9.2244513
21
81.031248
0
LINE
8
DEFAULT_255_2_778
10
9.2244513
20
81.031248
11
9.2890513
21
81.112148
0
LINE
8
DEFAULT_255_2_778
10
9.2890513
20
81.112148
11
9.3231513
21
81.174348
0
LINE
8
DEFAULT_255_2_778
10
9.3231513
20
81.174348
11
9.3493513
21
81.242348
0
LINE
8
DEFAULT_255_2_778
10
9.3493513
20
81.242348
11
9.3636513
21
81.295048
0
LINE
8
DEFAULT_255_2_778
10
9.3636513
20
81.295048
11
9.3723513
21
81.340248
0
LINE
8
DEFAULT_255_2_778
10
9.3723513
20
81.340248
11
9.3699513
21
81.618548
0
LINE
8
DEFAULT_255_2_778
10
9.3699513
20
81.618548
11
9.3533513
21
81.681048
0
LINE
8
DEFAULT_255_2_778
10
9.3533513
20
81.681048
11
9.2982513
21
81.789248
0
LINE
8
DEFAULT_255_2_778
10
9.2982513
20
81.789248
11
9.1564513
21
81.915448
0
LINE
8
DEFAULT_255_2_778
10
9.1564513
20
81.915448
11
9.0855513
21
81.942948
0
LINE
8
DEFAULT_255_2_778
10
9.0855513
20
81.942948
11
9.1905513
21
82.019148
0
LINE
8
DEFAULT_255_2_778
10
9.1905513
20
82.019148
11
9.2567513
21
82.096648
0
LINE
8
DEFAULT_255_2_778
10
9.2567513
20
82.096648
11
9.2990513
21
82.171848
0
LINE
8
DEFAULT_255_2_778
10
9.2990513
20
82.171848
11
9.3234513
21
82.237148
0
LINE
8
DEFAULT_255_2_778
10
9.3234513
20
82.237148
11
9.3363513
21
82.289548
0
LINE
8
DEFAULT_255_2_778
10
9.3363513
20
82.289548
11
9.3424513
21
82.327148
0
LINE
8
DEFAULT_255_2_778
10
9.3424513
20
82.327148
11
9.3416513
21
82.522448
0
LINE
8
DEFAULT_255_2_778
10
9.3416513
20
82.522448
11
9.3345513
21
82.561848
0
LINE
8
DEFAULT_255_2_778
10
9.3345513
20
82.561848
11
9.3210513
21
82.612648
0
LINE
8
DEFAULT_255_2_778
10
9.3210513
20
82.612648
11
9.2974513
21
82.672948
0
LINE
8
DEFAULT_255_2_778
10
9.2974513
20
82.672948
11
9.2569513
21
82.742248
0
LINE
8
DEFAULT_255_2_778
10
9.2569513
20
82.742248
11
9.1818513
21
82.824548
0
LINE
8
DEFAULT_255_2_778
10
9.1818513
20
82.824548
11
9.0776513
21
82.893848
0
LINE
8
DEFAULT_255_2_778
10
9.0776513
20
82.893848
11
8.9376513
21
82.939348
0
LINE
8
DEFAULT_255_2_778
10
8.9376513
20
82.939348
11
8.7386513
21
82.944948
0
LINE
8
DEFAULT_255_2_778
10
8.7386513
20
82.944948
11
8.5706513
21
82.898648
0
LINE
8
DEFAULT_255_2_778
10
8.5706513
20
82.898648
11
8.4105513
21
82.774548
0
LINE
8
DEFAULT_255_2_778
10
8.4105513
20
82.774548
11
8.3481513
21
82.676948
0
LINE
8
DEFAULT_255_2_778
10
8.3481513
20
82.676948
11
8.3164513
21
82.590148
0
LINE
8
DEFAULT_255_2_778
10
8.3164513
20
82.590148
11
8.3031513
21
82.529048
0
LINE
8
DEFAULT_255_2_778
10
8.3031513
20
82.529048
11
8.2978513
21
82.490148
0
LINE
8
DEFAULT_255_2_778
10
8.2978513
20
82.490148
11
8.2954513
21
82.464148
0
LINE
8
DEFAULT_255_2_778
10
8.2954513
20
82.464148
11
8.2931513
21
82.399648
0
LINE
8
DEFAULT_255_2_778
10
8.2931513
20
82.399648
11
8.5005513
21
82.399648
0
LINE
8
DEFAULT_255_2_778
10
8.5005513
20
82.399648
11
8.5024513
21
82.444048
0
LINE
8
DEFAULT_255_2_778
10
8.5024513
20
82.444048
11
8.5069513
21
82.477448
0
LINE
8
DEFAULT_255_2_778
10
8.5069513
20
82.477448
11
8.5196513
21
82.528448
0
LINE
8
DEFAULT_255_2_778
10
8.5196513
20
82.528448
11
8.5489513
21
82.591748
0
LINE
8
DEFAULT_255_2_778
10
8.5489513
20
82.591748
11
8.6283513
21
82.676648
0
LINE
8
DEFAULT_255_2_778
10
8.6283513
20
82.676648
11
8.7656513
21
82.730348
0
LINE
8
DEFAULT_255_2_778
10
7.4144513
20
108.615348
11
7.6067513
21
108.548448
0
LINE
8
DEFAULT_255_2_778
10
7.6067513
20
108.548448
11
7.6718513
21
108.442548
0
LINE
8
DEFAULT_255_2_778
10
7.6718513
20
108.442548
11
7.6888513
21
108.376948
0
LINE
8
DEFAULT_255_2_778
10
7.6888513
20
108.376948
11
7.6941513
21
108.334348
0
LINE
8
DEFAULT_255_2_778
10
7.6941513
20
108.334348
11
7.6956513
21
108.308648
0
LINE
8
DEFAULT_255_2_778
10
7.6956513
20
108.308648
11
7.8623513
21
108.308648
0
LINE
8
DEFAULT_255_2_778
10
7.8623513
20
108.308648
11
7.8605513
21
108.379348
0
LINE
8
DEFAULT_255_2_778
10
7.8605513
20
108.379348
11
7.8576513
21
108.409248
0
LINE
8
DEFAULT_255_2_778
10
7.8576513
20
108.409248
11
7.8509513
21
108.455248
0
LINE
8
DEFAULT_255_2_778
10
7.8509513
20
108.455248
11
7.8375513
21
108.517448
0
LINE
8
DEFAULT_255_2_778
10
7.8375513
20
108.517448
11
7.8126513
21
108.593948
0
LINE
8
DEFAULT_255_2_778
10
7.8126513
20
108.593948
11
7.7705513
21
108.678848
0
LINE
8
DEFAULT_255_2_778
10
7.7705513
20
108.678848
11
7.7068513
21
108.757948
0
LINE
8
DEFAULT_255_2_778
10
7.7068513
20
108.757948
11
7.6112513
21
108.818548
0
LINE
8
DEFAULT_255_2_778
10
7.6112513
20
108.818548
11
7.4456513
21
108.848948
0
LINE
8
DEFAULT_255_2_778
10
7.4456513
20
108.848948
11
7.2874513
21
108.822248
0
LINE
8
DEFAULT_255_2_778
10
7.2874513
20
108.822248
11
7.1781513
21
108.760048
0
LINE
8
DEFAULT_255_2_778
10
7.1781513
20
108.760048
11
7.1009513
21
108.677548
0
LINE
8
DEFAULT_255_2_778
10
7.1009513
20
108.677548
11
7.0577513
21
108.604248
0
LINE
8
DEFAULT_255_2_778
10
7.0577513
20
108.604248
11
7.0321513
21
108.539148
0
LINE
8
DEFAULT_255_2_778
10
7.0321513
20
108.539148
11
7.0141513
21
108.471448
0
LINE
8
DEFAULT_255_2_778
10
7.0141513
20
108.471448
11
7.0069513
21
108.434148
0
LINE
8
DEFAULT_255_2_778
10
7.0069513
20
108.434148
11
7.0014513
21
108.393848
0
LINE
8
DEFAULT_255_2_778
10
7.0014513
20
108.393848
11
7.0024513
21
108.148348
0
LINE
8
DEFAULT_255_2_778
10
7.0024513
20
108.148348
11
7.0112513
21
108.096548
0
LINE
8
DEFAULT_255_2_778
10
7.0112513
20
108.096548
11
7.0302513
21
108.025848
0
LINE
8
DEFAULT_255_2_778
10
7.0302513
20
108.025848
11
7.0725513
21
107.934048
0
LINE
8
DEFAULT_255_2_778
10
7.0725513
20
107.934048
11
7.1649513
21
107.832748
0
LINE
8
DEFAULT_255_2_778
10
7.1649513
20
107.832748
11
7.2993513
21
107.757348
0
LINE
8
DEFAULT_255_2_778
10
7.2993513
20
107.757348
11
7.6221513
21
107.616048
0
LINE
8
DEFAULT_255_2_778
10
7.6221513
20
107.616048
11
7.6877513
21
107.543748
0
LINE
8
DEFAULT_255_2_778
10
7.6877513
20
107.543748
11
7.7126513
21
107.490048
0
LINE
8
DEFAULT_255_2_778
10
7.7126513
20
107.490048
11
7.7213513
21
107.456748
0
LINE
8
DEFAULT_255_2_778
10
7.7213513
20
107.456748
11
7.7195513
21
107.237648
0
LINE
8
DEFAULT_255_2_778
10
7.7195513
20
107.237648
11
7.7062513
21
107.188948
0
LINE
8
DEFAULT_255_2_778
10
7.7062513
20
107.188948
11
7.6708513
21
107.114148
0
LINE
8
DEFAULT_255_2_778
10
7.6708513
20
107.114148
11
7.6075513
21
107.043948
0
LINE
8
DEFAULT_255_2_778
10
7.6075513
20
107.043948
11
7.4475513
21
106.996348
0
LINE
8
DEFAULT_255_2_778
10
7.4475513
20
106.996348
11
7.2636513
21
107.052148
0
LINE
8
DEFAULT_255_2_778
10
7.2636513
20
107.052148
11
7.1823513
21
107.170948
0
LINE
8
DEFAULT_255_2_778
10
7.1823513
20
107.170948
11
7.1556513
21
107.263848
0
LINE
8
DEFAULT_255_2_778
10
7.1556513
20
107.263848
11
7.1480513
21
107.317848
0
LINE
8
DEFAULT_255_2_778
10
7.1480513
20
107.317848
11
7.1461513
21
107.389048
0
LINE
8
DEFAULT_255_2_778
10
7.1461513
20
107.389048
11
6.9810513
21
107.389048
0
LINE
8
DEFAULT_255_2_778
10
6.9810513
20
107.389048
11
6.9836513
21
107.336648
0
LINE
8
DEFAULT_255_2_778
10
6.9836513
20
107.336648
11
6.9868513
21
107.299548
0
LINE
8
DEFAULT_255_2_778
10
6.9868513
20
107.299548
11
6.9945513
21
107.241848
0
LINE
8
DEFAULT_255_2_778
10
6.9945513
20
107.241848
11
7.0056513
21
107.182648
0
LINE
8
DEFAULT_255_2_778
10
7.0056513
20
107.182648
11
7.0204513
21
107.122848
0
LINE
8
DEFAULT_255_2_778
10
7.0204513
20
107.122848
11
7.0527513
21
107.031048
0
LINE
8
DEFAULT_255_2_778
10
7.0527513
20
107.031048
11
7.1014513
21
106.940248
0
LINE
8
DEFAULT_255_2_778
10
7.1014513
20
106.940248
11
7.1662513
21
106.864648
0
LINE
8
DEFAULT_255_2_778
10
7.1662513
20
106.864648
11
7.2726513
21
106.800048
0
LINE
8
DEFAULT_255_2_778
10
7.2726513
20
106.800048
11
7.4379513
21
106.769648
0
LINE
8
DEFAULT_255_2_778
10
7.4379513
20
106.769648
11
7.5895513
21
106.794748
0
LINE
8
DEFAULT_255_2_778
10
7.5895513
20
106.794748
11
7.6925513
21
106.851348
0
LINE
8
DEFAULT_255_2_778
10
7.6925513
20
106.851348
11
7.7671513
21
106.927048
0
LINE
8
DEFAULT_255_2_778
10
7.7671513
20
106.927048
11
7.8192513
21
107.011148
0
LINE
8
DEFAULT_255_2_778
10
7.8192513
20
107.011148
11
7.8465513
21
107.076048
0
LINE
8
DEFAULT_255_2_778
10
7.8465513
20
107.076048
11
7.8674513
21
107.147748
0
LINE
8
DEFAULT_255_2_778
10
7.8674513
20
107.147748
11
7.8785513
21
107.202748
0
LINE
8
DEFAULT_255_2_778
10
7.8785513
20
107.202748
11
7.8856513
21
107.251448
0
LINE
8
DEFAULT_255_2_778
10
7.8856513
20
107.251448
11
7.8832513
21
107.541948
0
LINE
8
DEFAULT_255_2_778
10
7.8832513
20
107.541948
11
7.8708513
21
107.603348
0
LINE
8
DEFAULT_255_2_778
10
7.8708513
20
107.603348
11
7.8404513
21
107.691148
0
LINE
8
DEFAULT_255_2_778
10
7.8404513
20
107.691148
11
7.7763513
21
107.791948
0
LINE
8
DEFAULT_255_2_778
10
7.7763513
20
107.791948
11
7.6345513
21
107.898848
0
LINE
8
DEFAULT_255_2_778
10
7.6345513
20
107.898848
11
7.2601513
21
108.063448
0
LINE
8
DEFAULT_255_2_778
10
7.2601513
20
108.063448
11
7.1943513
21
108.142248
0
LINE
8
DEFAULT_255_2_778
10
7.1943513
20
108.142248
11
7.1744513
21
108.191748
0
LINE
8
DEFAULT_255_2_778
10
7.1744513
20
108.191748
11
7.1659513
21
108.231448
0
LINE
8
DEFAULT_255_2_778
10
7.1659513
20
108.231448
11
7.1675513
21
108.376148
0
LINE
8
DEFAULT_255_2_778
10
7.1675513
20
108.376148
11
7.1797513
21
108.429648
0
LINE
8
DEFAULT_255_2_778
10
7.1797513
20
108.429648
11
7.2077513
21
108.493648
0
LINE
8
DEFAULT_255_2_778
10
7.2077513
20
108.493648
11
7.2779513
21
108.569048
0
LINE
8
DEFAULT_255_2_778
10
7.2779513
20
108.569048
11
7.4144513
21
108.615848
0
LINE
8
DEFAULT_255_2_778
10
8.1430513
20
108.809248
11
8.8820513
21
108.809248
0
LINE
8
DEFAULT_255_2_778
10
8.8820513
20
108.809248
11
8.8820513
21
108.582548
0
LINE
8
DEFAULT_255_2_778
10
8.8820513
20
108.582548
11
8.3071513
21
108.582548
0
LINE
8
DEFAULT_255_2_778
10
8.3071513
20
108.582548
11
8.3071513
21
107.951748
0
LINE
8
DEFAULT_255_2_778
10
8.3071513
20
107.951748
11
8.8521513
21
107.951748
0
LINE
8
DEFAULT_255_2_778
10
8.8521513
20
107.951748
11
8.8521513
21
107.725048
0
LINE
8
DEFAULT_255_2_778
10
8.8521513
20
107.725048
11
8.3071513
21
107.725048
0
LINE
8
DEFAULT_255_2_778
10
8.3071513
20
107.725048
11
8.3071513
21
106.809348
0
LINE
8
DEFAULT_255_2_778
10
8.3071513
20
106.809348
11
8.1430513
21
106.809348
0
LINE
8
DEFAULT_255_2_778
10
8.1430513
20
106.809348
11
8.1430513
21
108.809248
0
LINE
8
DEFAULT_255_2_778
10
7.7041513
20
87.088848
11
7.5028513
21
87.105548
0
LINE
8
DEFAULT_255_2_778
10
7.5028513
20
87.105548
11
7.3882513
21
87.165048
0
LINE
8
DEFAULT_255_2_778
10
7.3882513
20
87.165048
11
7.3178513
21
87.239348
0
LINE
8
DEFAULT_255_2_778
10
7.3178513
20
87.239348
11
7.2797513
21
87.307348
0
LINE
8
DEFAULT_255_2_778
10
7.2797513
20
87.307348
11
7.2585513
21
87.370648
0
LINE
8
DEFAULT_255_2_778
10
7.2585513
20
87.370648
11
7.2501513
21
87.412448
0
LINE
8
DEFAULT_255_2_778
10
7.2501513
20
87.412448
11
7.2501513
21
87.591848
0
LINE
8
DEFAULT_255_2_778
10
7.2501513
20
87.591848
11
7.2588513
21
87.635448
0
LINE
8
DEFAULT_255_2_778
10
7.2588513
20
87.635448
11
7.2755513
21
87.687848
0
LINE
8
DEFAULT_255_2_778
10
7.2755513
20
87.687848
11
7.3165513
21
87.765148
0
LINE
8
DEFAULT_255_2_778
10
7.3165513
20
87.765148
11
7.3972513
21
87.847648
0
LINE
8
DEFAULT_255_2_778
10
7.3972513
20
87.847648
11
7.5250513
21
87.906648
0
LINE
8
DEFAULT_255_2_778
10
7.5250513
20
87.906648
11
7.7337513
21
87.917748
0
LINE
8
DEFAULT_255_2_778
10
7.7337513
20
87.917748
11
7.8917513
21
87.866448
0
LINE
8
DEFAULT_255_2_778
10
7.8917513
20
87.866448
11
7.9875513
21
87.783348
0
LINE
8
DEFAULT_255_2_778
10
7.9875513
20
87.783348
11
8.0314513
21
87.712748
0
LINE
8
DEFAULT_255_2_778
10
8.0314513
20
87.712748
11
8.0552513
21
87.648448
0
LINE
8
DEFAULT_255_2_778
10
8.0552513
20
87.648448
11
8.0650513
21
87.606648
0
LINE
8
DEFAULT_255_2_778
10
8.0650513
20
87.606648
11
8.0698513
21
87.576248
0
LINE
8
DEFAULT_255_2_778
10
8.0698513
20
87.576248
11
8.0692513
21
87.424648
0
LINE
8
DEFAULT_255_2_778
10
8.0692513
20
87.424648
11
8.0642513
21
87.394948
0
LINE
8
DEFAULT_255_2_778
10
8.0642513
20
87.394948
11
8.0510513
21
87.345448
0
LINE
8
DEFAULT_255_2_778
10
8.0510513
20
87.345448
11
8.0216513
21
87.279348
0
LINE
8
DEFAULT_255_2_778
10
8.0216513
20
87.279348
11
7.9557513
21
87.196548
0
LINE
8
DEFAULT_255_2_778
10
7.9557513
20
87.196548
11
7.8433513
21
87.123248
0
LINE
8
DEFAULT_255_2_778
10
7.8433513
20
87.123248
11
7.7041513
21
87.088848
0
LINE
8
DEFAULT_255_2_778
10
7.6745513
20
86.860748
11
7.8298513
21
86.893048
0
LINE
8
DEFAULT_255_2_778
10
7.8298513
20
86.893048
11
7.9528513
21
86.960748
0
LINE
8
DEFAULT_255_2_778
10
7.9528513
20
86.960748
11
8.0613513
21
87.063148
0
LINE
8
DEFAULT_255_2_778
10
8.0613513
20
87.063148
11
8.1237513
21
87.149748
0
LINE
8
DEFAULT_255_2_778
10
8.1237513
20
87.149748
11
8.1219513
21
87.106048
0
LINE
8
DEFAULT_255_2_778
10
8.1219513
20
87.106048
11
8.1198513
21
87.062348
0
LINE
8
DEFAULT_255_2_778
10
8.1198513
20
87.062348
11
8.1174513
21
87.018748
0
LINE
8
DEFAULT_255_2_778
10
8.1174513
20
87.018748
11
8.1145513
21
86.975048
0
LINE
8
DEFAULT_255_2_778
10
8.1145513
20
86.975048
11
8.1108513
21
86.931448
0
LINE
8
DEFAULT_255_2_778
10
8.1108513
20
86.931448
11
8.1063513
21
86.887748
0
LINE
8
DEFAULT_255_2_778
10
8.1063513
20
86.887748
11
8.0983513
21
86.827448
0
LINE
8
DEFAULT_255_2_778
10
8.0983513
20
86.827448
11
8.0883513
21
86.767348
0
LINE
8
DEFAULT_255_2_778
10
8.0883513
20
86.767348
11
8.0758513
21
86.707848
0
LINE
8
DEFAULT_255_2_778
10
8.0758513
20
86.707848
11
8.0576513
21
86.638048
0
LINE
8
DEFAULT_255_2_778
10
8.0576513
20
86.638048
11
8.0372513
21
86.578748
0
LINE
8
DEFAULT_255_2_778
10
8.0372513
20
86.578748
11
7.9975513
21
86.496148
0
LINE
8
DEFAULT_255_2_778
10
7.9975513
20
86.496148
11
7.9364513
21
86.415448
0
LINE
8
DEFAULT_255_2_778
10
7.9364513
20
86.415448
11
7.8338513
21
86.341448
0
LINE
8
DEFAULT_255_2_778
10
7.8338513
20
86.341448
11
7.6978513
21
86.300648
0
LINE
8
DEFAULT_255_2_778
10
7.6978513
20
86.300648
11
7.4919513
21
86.305948
0
LINE
8
DEFAULT_255_2_778
10
7.4919513
20
86.305948
11
7.3792513
21
86.353848
0
LINE
8
DEFAULT_255_2_778
10
7.3792513
20
86.353848
11
7.3070513
21
86.422148
0
LINE
8
DEFAULT_255_2_778
10
7.3070513
20
86.422148
11
7.2691513
21
86.485048
0
LINE
8
DEFAULT_255_2_778
10
7.2691513
20
86.485048
11
7.2527513
21
86.531148
0
LINE
8
DEFAULT_255_2_778
10
7.2527513
20
86.531148
11
7.2474513
21
86.554948
0
LINE
8
DEFAULT_255_2_778
10
7.2474513
20
86.554948
11
7.2443513
21
86.579248
0
LINE
8
DEFAULT_255_2_778
10
7.2443513
20
86.579248
11
7.2435513
21
86.603848
0
LINE
8
DEFAULT_255_2_778
10
7.2435513
20
86.603848
11
6.9813513
21
86.603848
0
LINE
8
DEFAULT_255_2_778
10
6.9813513
20
86.603848
11
6.9839513
21
86.544348
0
LINE
8
DEFAULT_255_2_778
10
6.9839513
20
86.544348
11
6.9866513
21
86.524748
0
LINE
8
DEFAULT_255_2_778
10
6.9866513
20
86.524748
11
6.9942513
21
86.486148
0
LINE
8
DEFAULT_255_2_778
10
6.9942513
20
86.486148
11
7.0051513
21
86.448248
0
LINE
8
DEFAULT_255_2_778
10
7.0051513
20
86.448248
11
7.0268513
21
86.393748
0
LINE
8
DEFAULT_255_2_778
10
7.0268513
20
86.393748
11
7.0651513
21
86.325248
0
LINE
8
DEFAULT_255_2_778
10
7.0651513
20
86.325248
11
7.1270513
21
86.247748
0
LINE
8
DEFAULT_255_2_778
10
7.1270513
20
86.247748
11
7.2178513
21
86.171248
0
LINE
8
DEFAULT_255_2_778
10
7.2178513
20
86.171248
11
7.3292513
21
86.114148
0
LINE
8
DEFAULT_255_2_778
10
7.3292513
20
86.114148
11
7.4901513
21
86.078148
0
LINE
8
DEFAULT_255_2_778
10
7.4901513
20
86.078148
11
7.7308513
21
86.082148
0
LINE
8
DEFAULT_255_2_778
10
7.7308513
20
86.082148
11
7.9152513
21
86.127648
0
LINE
8
DEFAULT_255_2_778
10
7.9152513
20
86.127648
11
8.0190513
21
86.179448
0
LINE
8
DEFAULT_255_2_778
10
8.0190513
20
86.179448
11
8.1087513
21
86.251148
0
LINE
8
DEFAULT_255_2_778
10
8.1087513
20
86.251148
11
8.1843513
21
86.339848
0
LINE
8
DEFAULT_255_2_778
10
8.1843513
20
86.339848
11
8.2462513
21
86.440848
0
LINE
8
DEFAULT_255_2_778
10
8.2462513
20
86.440848
11
8.2862513
21
86.527148
0
LINE
8
DEFAULT_255_2_778
10
8.2862513
20
86.527148
11
8.3071513
21
86.582948
0
LINE
8
DEFAULT_255_2_778
10
8.3071513
20
86.582948
11
8.3280513
21
86.651248
0
LINE
8
DEFAULT_255_2_778
10
8.3280513
20
86.651248
11
8.3447513
21
86.720248
0
LINE
8
DEFAULT_255_2_778
10
8.3447513
20
86.720248
11
8.3576513
21
86.789848
0
LINE
8
DEFAULT_255_2_778
10
8.3576513
20
86.789848
11
8.3627513
21
86.824748
0
LINE
8
DEFAULT_255_2_778
10
8.3627513
20
86.824748
11
8.3669513
21
86.859948
0
LINE
8
DEFAULT_255_2_778
10
8.3669513
20
86.859948
11
8.3706513
21
86.895148
0
LINE
8
DEFAULT_255_2_778
10
8.3706513
20
86.895148
11
8.3703513
21
87.385948
0
LINE
8
DEFAULT_255_2_778
10
8.3703513
20
87.385948
11
8.3669513
21
87.417948
0
LINE
8
DEFAULT_255_2_778
10
8.3669513
20
87.417948
11
8.3582513
21
87.482048
0
LINE
8
DEFAULT_255_2_778
10
8.3582513
20
87.482048
11
8.3465513
21
87.545548
0
LINE
8
DEFAULT_255_2_778
10
8.3465513
20
87.545548
11
8.3317513
21
87.608448
0
LINE
8
DEFAULT_255_2_778
10
8.3317513
20
87.608448
11
8.3132513
21
87.670948
0
LINE
8
DEFAULT_255_2_778
10
8.3132513
20
87.670948
11
8.2780513
21
87.763248
0
LINE
8
DEFAULT_255_2_778
10
8.2780513
20
87.763248
11
8.2272513
21
87.861148
0
LINE
8
DEFAULT_255_2_778
10
8.2272513
20
87.861148
11
8.1637513
21
87.949848
0
LINE
8
DEFAULT_255_2_778
10
8.1637513
20
87.949848
11
8.0867513
21
88.024448
0
LINE
8
DEFAULT_255_2_778
10
8.0867513
20
88.024448
11
7.9774513
21
88.089548
0
LINE
8
DEFAULT_255_2_778
10
7.9774513
20
88.089548
11
7.8115513
21
88.137648
0
LINE
8
DEFAULT_255_2_778
10
7.8115513
20
88.137648
11
7.6075513
21
88.146948
0
LINE
8
DEFAULT_255_2_778
10
7.6075513
20
88.146948
11
7.4012513
21
88.107448
0
LINE
8
DEFAULT_255_2_778
10
7.4012513
20
88.107448
11
7.2638513
21
88.044248
0
LINE
8
DEFAULT_255_2_778
10
7.2638513
20
88.044248
11
7.1636513
21
87.967048
0
LINE
8
DEFAULT_255_2_778
10
7.1636513
20
87.967048
11
7.0929513
21
87.886048
0
LINE
8
DEFAULT_255_2_778
10
7.0929513
20
87.886048
11
7.0482513
21
87.811648
0
LINE
8
DEFAULT_255_2_778
10
7.0482513
20
87.811648
11
7.0223513
21
87.751348
0
LINE
8
DEFAULT_255_2_778
10
7.0223513
20
87.751348
11
7.0030513
21
87.688648
0
LINE
8
DEFAULT_255_2_778
10
7.0030513
20
87.688648
11
6.9929513
21
87.641348
0
LINE
8
DEFAULT_255_2_778
10
6.9929513
20
87.641348
11
6.9892513
21
87.617448
0
LINE
8
DEFAULT_255_2_778
10
6.9892513
20
87.617448
11
6.9895513
21
87.376748
0
LINE
8
DEFAULT_255_2_778
10
6.9895513
20
87.376748
11
6.9969513
21
87.335448
0
LINE
8
DEFAULT_255_2_778
10
6.9969513
20
87.335448
11
7.0114513
21
87.279048
0
LINE
8
DEFAULT_255_2_778
10
7.0114513
20
87.279048
11
7.0376513
21
87.209248
0
LINE
8
DEFAULT_255_2_778
10
7.0376513
20
87.209248
11
7.0823513
21
87.128248
0
LINE
8
DEFAULT_255_2_778
10
7.0823513
20
87.128248
11
7.1522513
21
87.043048
0
LINE
8
DEFAULT_255_2_778
10
7.1522513
20
87.043048
11
7.2662513
21
86.952848
0
LINE
8
DEFAULT_255_2_778
10
7.2662513
20
86.952848
11
7.4374513
21
86.882248
0
LINE
8
DEFAULT_255_2_778
10
7.4374513
20
86.882248
11
7.6745513
21
86.860748
0
LINE
8
DEFAULT_255_2_778
10
23.9813513
20
53.159448
11
23.8802513
21
53.074548
0
LINE
8
DEFAULT_255_2_778
10
23.8802513
20
53.074548
11
23.7492513
21
53.003648
0
LINE
8
DEFAULT_255_2_778
10
23.7492513
20
53.003648
11
23.5852513
21
52.961848
0
LINE
8
DEFAULT_255_2_778
10
23.5852513
20
52.961848
11
23.4082513
21
52.961848
0
LINE
8
DEFAULT_255_2_778
10
23.4082513
20
52.961848
11
23.2582513
21
52.998648
0
LINE
8
DEFAULT_255_2_778
10
23.2582513
20
52.998648
11
23.1216513
21
53.070048
0
LINE
8
DEFAULT_255_2_778
10
23.1216513
20
53.070048
11
23.0026513
21
53.172448
0
LINE
8
DEFAULT_255_2_778
10
23.0026513
20
53.172448
11
22.9325513
21
53.259448
0
LINE
8
DEFAULT_255_2_778
10
22.9325513
20
53.259448
11
22.8888513
21
53.334648
0
LINE
8
DEFAULT_255_2_778
10
22.8888513
20
53.334648
11
22.8631513
21
53.393848
0
LINE
8
DEFAULT_255_2_778
10
22.8631513
20
53.393848
11
22.8436513
21
53.456048
0
LINE
8
DEFAULT_255_2_778
10
22.8436513
20
53.456048
11
22.8340513
21
53.499448
0
LINE
8
DEFAULT_255_2_778
10
22.8340513
20
53.499448
11
22.8274513
21
53.543348
0
LINE
8
DEFAULT_255_2_778
10
22.8274513
20
53.543348
11
22.8274513
21
53.723048
0
LINE
8
DEFAULT_255_2_778
10
22.8274513
20
53.723048
11
22.8346513
21
53.767748
0
LINE
8
DEFAULT_255_2_778
10
22.8346513
20
53.767748
11
22.8444513
21
53.811148
0
LINE
8
DEFAULT_255_2_778
10
22.8444513
20
53.811148
11
22.8642513
21
53.873348
0
LINE
8
DEFAULT_255_2_778
10
22.8642513
20
53.873348
11
22.8904513
21
53.933148
0
LINE
8
DEFAULT_255_2_778
10
22.8904513
20
53.933148
11
22.9356513
21
54.009848
0
LINE
8
DEFAULT_255_2_778
10
22.9356513
20
54.009848
11
23.0063513
21
54.097148
0
LINE
8
DEFAULT_255_2_778
10
23.0063513
20
54.097148
11
23.2055513
21
54.244748
0
LINE
8
DEFAULT_255_2_778
10
23.2055513
20
54.244748
11
23.4817513
21
54.309648
0
LINE
8
DEFAULT_255_2_778
10
23.4817513
20
54.309648
11
23.3235513
21
54.327348
0
LINE
8
DEFAULT_255_2_778
10
23.3235513
20
54.327348
11
23.1788513
21
54.379248
0
LINE
8
DEFAULT_255_2_778
10
23.1788513
20
54.379248
11
23.0658513
21
54.451148
0
LINE
8
DEFAULT_255_2_778
10
23.0658513
20
54.451148
11
22.9674513
21
54.544548
0
LINE
8
DEFAULT_255_2_778
10
22.9674513
20
54.544548
11
22.8999513
21
54.635048
0
LINE
8
DEFAULT_255_2_778
10
22.8999513
20
54.635048
11
22.8586513
21
54.712848
0
LINE
8
DEFAULT_255_2_778
10
22.8586513
20
54.712848
11
22.8351513
21
54.774248
0
LINE
8
DEFAULT_255_2_778
10
22.8351513
20
54.774248
11
22.8229513
21
54.816248
0
LINE
8
DEFAULT_255_2_778
10
22.8229513
20
54.816248
11
22.8131513
21
54.860748
0
LINE
8
DEFAULT_255_2_778
10
22.8131513
20
54.860748
11
22.8065513
21
54.905748
0
LINE
8
DEFAULT_255_2_778
10
22.8065513
20
54.905748
11
22.8076513
21
55.085948
0
LINE
8
DEFAULT_255_2_778
10
22.8076513
20
55.085948
11
22.8147513
21
55.130048
0
LINE
8
DEFAULT_255_2_778
10
22.8147513
20
55.130048
11
22.8248513
21
55.173448
0
LINE
8
DEFAULT_255_2_778
10
22.8248513
20
55.173448
11
22.8449513
21
55.235148
0
LINE
8
DEFAULT_255_2_778
10
22.8449513
20
55.235148
11
22.8814513
21
55.313748
0
LINE
8
DEFAULT_255_2_778
10
22.8814513
20
55.313748
11
22.9296513
21
55.388848
0
LINE
8
DEFAULT_255_2_778
10
22.9296513
20
55.388848
11
23.0200513
21
55.489348
0
LINE
8
DEFAULT_255_2_778
10
23.0200513
20
55.489348
11
23.1275513
21
55.572248
0
LINE
8
DEFAULT_255_2_778
10
23.1275513
20
55.572248
11
23.2666513
21
55.637348
0
LINE
8
DEFAULT_255_2_778
10
23.2666513
20
55.637348
11
23.4436513
21
55.669548
0
LINE
8
DEFAULT_255_2_778
10
23.4436513
20
55.669548
11
23.7413513
21
55.623848
0
LINE
8
DEFAULT_255_2_778
10
23.7413513
20
55.623848
11
23.9469513
21
55.494148
0
LINE
8
DEFAULT_255_2_778
10
23.9469513
20
55.494148
11
23.9821513
21
55.459248
0
LINE
8
DEFAULT_255_2_778
10
24.4813513
20
52.959448
11
24.7337513
21
53.037548
0
LINE
8
DEFAULT_255_2_778
10
24.7337513
20
53.037548
11
24.8457513
21
53.152848
0
LINE
8
DEFAULT_255_2_778
10
24.8457513
20
53.152848
11
24.8758513
21
53.199948
0
LINE
8
DEFAULT_255_2_778
10
24.8758513
20
53.199948
11
25.4399513
21
54.147648
0
LINE
8
DEFAULT_255_2_778
10
25.4399513
20
54.147648
11
25.5992513
21
54.271248
0
LINE
8
DEFAULT_255_2_778
10
25.5992513
20
54.271248
11
25.7815513
21
54.309648
0
LINE
8
DEFAULT_255_2_778
10
24.4813075
20
54.3093566
11
24.7258075
21
54.2376566
0
LINE
8
DEFAULT_255_2_778
10
24.7258075
20
54.2376566
11
24.8478075
21
54.1130566
0
LINE
8
DEFAULT_255_2_778
10
24.8478075
20
54.1130566
11
25.4367075
21
53.1253566
0
LINE
8
DEFAULT_255_2_778
10
25.4367075
20
53.1253566
11
25.5902075
21
53.0025566
0
LINE
8
DEFAULT_255_2_778
10
25.5902075
20
53.0025566
11
25.7815075
21
52.9591566
0
LINE
8
DEFAULT_255_2_778
10
23.4812075
20
54.3093566
11
23.7312075
21
54.3093566
0
LINE
8
DEFAULT_255_2_778
10
8.5947075
20
8.2980566
11
8.7762075
21
8.2980566
0
LINE
8
DEFAULT_255_2_778
10
8.7762075
20
8.2980566
11
8.7762075
21
6.3094566
0
LINE
8
DEFAULT_255_2_778
10
8.7762075
20
6.3094566
11
8.5619075
21
6.3094566
0
LINE
8
DEFAULT_255_2_778
10
8.5619075
20
6.3094566
11
8.5619075
21
7.9890566
0
LINE
8
DEFAULT_255_2_778
10
8.5619075
20
7.9890566
11
8.3666075
21
7.8265566
0
LINE
8
DEFAULT_255_2_778
10
8.3666075
20
7.8265566
11
8.2113075
21
7.7408566
0
LINE
8
DEFAULT_255_2_778
10
8.2113075
20
7.7408566
11
8.2113075
21
7.9903566
0
LINE
8
DEFAULT_255_2_778
10
8.2113075
20
7.9903566
11
8.4653075
21
8.1625566
0
LINE
8
DEFAULT_255_2_778
10
8.4653075
20
8.1625566
11
8.5947075
21
8.2977566
0
LINE
8
DEFAULT_255_2_778
10
11.2368438
20
7.7693156
11
11.0294438
21
7.7693156
0
LINE
8
DEFAULT_255_2_778
10
11.0294438
20
7.7693156
11
11.0315438
21
7.8342156
0
LINE
8
DEFAULT_255_2_778
10
11.0315438
20
7.8342156
11
11.0352438
21
7.8731156
0
LINE
8
DEFAULT_255_2_778
10
11.0352438
20
7.8731156
11
11.0432438
21
7.9247156
0
LINE
8
DEFAULT_255_2_778
10
11.0432438
20
7.9247156
11
11.0620438
21
7.9998156
0
LINE
8
DEFAULT_255_2_778
10
11.0620438
20
7.9998156
11
11.1085438
21
8.1056156
0
LINE
8
DEFAULT_255_2_778
10
11.1085438
20
8.1056156
11
11.1837438
21
8.2035156
0
LINE
8
DEFAULT_255_2_778
10
11.1837438
20
8.2035156
11
11.2575438
21
8.2638156
0
LINE
8
DEFAULT_255_2_778
10
11.2575438
20
8.2638156
11
11.3530438
21
8.3107156
0
LINE
8
DEFAULT_255_2_778
10
11.3530438
20
8.3107156
11
11.4858438
21
8.3374156
0
LINE
8
DEFAULT_255_2_778
10
11.4858438
20
8.3374156
11
11.6448438
21
8.3295156
0
LINE
8
DEFAULT_255_2_778
10
11.6448438
20
8.3295156
11
11.7652438
21
8.2916156
0
LINE
8
DEFAULT_255_2_778
10
11.7652438
20
8.2916156
11
11.8520438
21
8.2382156
0
LINE
8
DEFAULT_255_2_778
10
11.8520438
20
8.2382156
11
11.9229438
21
8.1686156
0
LINE
8
DEFAULT_255_2_778
10
11.9229438
20
8.1686156
11
11.9671438
21
8.1038156
0
LINE
8
DEFAULT_255_2_778
10
11.9671438
20
8.1038156
11
11.9936438
21
8.0482156
0
LINE
8
DEFAULT_255_2_778
10
11.9936438
20
8.0482156
11
12.0129438
21
7.9897156
0
LINE
8
DEFAULT_255_2_778
10
12.0129438
20
7.9897156
11
12.0235438
21
7.9434156
0
LINE
8
DEFAULT_255_2_778
10
12.0235438
20
7.9434156
11
12.0208438
21
7.6696156
0
LINE
8
DEFAULT_255_2_778
10
12.0208438
20
7.6696156
11
12.0089438
21
7.6146156
0
LINE
8
DEFAULT_255_2_778
10
12.0089438
20
7.6146156
11
11.9938438
21
7.5601156
0
LINE
8
DEFAULT_255_2_778
10
11.9938438
20
7.5601156
11
11.9660438
21
7.4799156
0
LINE
8
DEFAULT_255_2_778
10
11.9660438
20
7.4799156
11
11.9285438
21
7.3918156
0
LINE
8
DEFAULT_255_2_778
10
11.9285438
20
7.3918156
11
11.8748438
21
7.2878156
0
LINE
8
DEFAULT_255_2_778
10
11.8748438
20
7.2878156
11
11.7922438
21
7.1558156
0
LINE
8
DEFAULT_255_2_778
10
11.7922438
20
7.1558156
11
11.6745438
21
7.0002156
0
LINE
8
DEFAULT_255_2_778
10
11.6745438
20
7.0002156
11
11.5160438
21
6.8213156
0
LINE
8
DEFAULT_255_2_778
10
11.5160438
20
6.8213156
11
11.2247438
21
6.5277156
0
LINE
8
DEFAULT_255_2_778
10
11.2247438
20
6.5277156
11
12.0671438
21
6.5277156
0
LINE
8
DEFAULT_255_2_778
10
12.0671438
20
6.5277156
11
12.0671438
21
6.3094156
0
LINE
8
DEFAULT_255_2_778
10
12.0671438
20
6.3094156
11
10.9638438
21
6.3094156
0
LINE
8
DEFAULT_255_2_778
10
10.9638438
20
6.3094156
11
10.9638438
21
6.5488156
0
LINE
8
DEFAULT_255_2_778
10
10.9638438
20
6.5488156
11
11.1911438
21
6.7766156
0
LINE
8
DEFAULT_255_2_778
10
11.1911438
20
6.7766156
11
11.3993438
21
7.0121156
0
LINE
8
DEFAULT_255_2_778
10
11.3993438
20
7.0121156
11
11.5644438
21
7.2235156
0
LINE
8
DEFAULT_255_2_778
10
11.5644438
20
7.2235156
11
11.7012438
21
7.4315156
0
LINE
8
DEFAULT_255_2_778
10
11.7012438
20
7.4315156
11
11.7546438
21
7.5328156
0
LINE
8
DEFAULT_255_2_778
10
11.7546438
20
7.5328156
11
11.7943438
21
7.6302156
0
LINE
8
DEFAULT_255_2_778
10
11.7943438
20
7.6302156
11
11.8107438
21
7.6850156
0
LINE
8
DEFAULT_255_2_778
10
11.8107438
20
7.6850156
11
11.8189438
21
7.7222156
0
LINE
8
DEFAULT_255_2_778
10
11.8189438
20
7.7222156
11
11.8245438
21
7.7598156
0
LINE
8
DEFAULT_255_2_778
10
11.8245438
20
7.7598156
11
11.8232438
21
7.8630156
0
LINE
8
DEFAULT_255_2_778
10
11.8232438
20
7.8630156
11
11.8128438
21
7.9141156
0
LINE
8
DEFAULT_255_2_778
10
11.8128438
20
7.9141156
11
11.7888438
21
7.9771156
0
LINE
8
DEFAULT_255_2_778
10
11.7888438
20
7.9771156
11
11.7274438
21
8.0554156
0
LINE
8
DEFAULT_255_2_778
10
11.7274438
20
8.0554156
11
11.6128438
21
8.1144156
0
LINE
8
DEFAULT_255_2_778
10
11.6128438
20
8.1144156
11
11.4247438
21
8.1046156
0
LINE
8
DEFAULT_255_2_778
10
11.4247438
20
8.1046156
11
11.3183438
21
8.0284156
0
LINE
8
DEFAULT_255_2_778
10
11.3183438
20
8.0284156
11
11.2734438
21
7.9575156
0
LINE
8
DEFAULT_255_2_778
10
11.2734438
20
7.9575156
11
11.2540438
21
7.9043156
0
LINE
8
DEFAULT_255_2_778
10
11.2540438
20
7.9043156
11
11.2440438
21
7.8585156
0
LINE
8
DEFAULT_255_2_778
10
11.2440438
20
7.8585156
11
11.2406438
21
7.8331156
0
LINE
8
DEFAULT_255_2_778
10
11.2406438
20
7.8331156
11
11.2384438
21
7.8075156
0
LINE
8
DEFAULT_255_2_778
10
11.2384438
20
7.8075156
11
11.2374438
21
7.7693156
0
LINE
8
DEFAULT_255_2_778
10
12.3343283
20
7.1555823
11
12.8854283
21
7.1555823
0
LINE
8
DEFAULT_255_2_778
10
12.8854283
20
7.1555823
11
12.8854283
21
6.9668823
0
LINE
8
DEFAULT_255_2_778
10
12.8854283
20
6.9668823
11
12.3343283
21
6.9668823
0
LINE
8
DEFAULT_255_2_778
10
12.3343283
20
6.9668823
11
12.3343283
21
7.1555823
0
LINE
8
DEFAULT_255_2_778
10
20.6427283
20
7.1555823
11
21.1938283
21
7.1555823
0
LINE
8
DEFAULT_255_2_778
10
21.1938283
20
7.1555823
11
21.1938283
21
6.9668823
0
LINE
8
DEFAULT_255_2_778
10
21.1938283
20
6.9668823
11
20.6427283
21
6.9668823
0
LINE
8
DEFAULT_255_2_778
10
20.6427283
20
6.9668823
11
20.6427283
21
7.1555823
0
LINE
8
DEFAULT_255_2_778
10
10.0469283
20
6.4908823
11
9.8797283
21
6.5411823
0
LINE
8
DEFAULT_255_2_778
10
9.8797283
20
6.5411823
11
9.7771283
21
6.6480823
0
LINE
8
DEFAULT_255_2_778
10
9.7771283
20
6.6480823
11
9.7252283
21
6.7522823
0
LINE
8
DEFAULT_255_2_778
10
9.7252283
20
6.7522823
11
9.6990283
21
6.8422823
0
LINE
8
DEFAULT_255_2_778
10
9.6990283
20
6.8422823
11
9.6961283
21
6.8552823
0
LINE
8
DEFAULT_255_2_778
10
9.6961283
20
6.8552823
11
9.4773283
21
6.8552823
0
LINE
8
DEFAULT_255_2_778
10
9.4773283
20
6.8552823
11
9.4844283
21
6.8065823
0
LINE
8
DEFAULT_255_2_778
10
9.4844283
20
6.8065823
11
9.4940283
21
6.7580823
0
LINE
8
DEFAULT_255_2_778
10
9.4940283
20
6.7580823
11
9.5061283
21
6.7102823
0
LINE
8
DEFAULT_255_2_778
10
9.5061283
20
6.7102823
11
9.5334283
21
6.6308823
0
LINE
8
DEFAULT_255_2_778
10
9.5334283
20
6.6308823
11
9.5765283
21
6.5424823
0
LINE
8
DEFAULT_255_2_778
10
9.5765283
20
6.5424823
11
9.6413283
21
6.4511823
0
LINE
8
DEFAULT_255_2_778
10
9.6413283
20
6.4511823
11
9.7332283
21
6.3646823
0
LINE
8
DEFAULT_255_2_778
10
9.7332283
20
6.3646823
11
9.8543283
21
6.2974823
0
LINE
8
DEFAULT_255_2_778
10
9.8543283
20
6.2974823
11
10.0260283
21
6.2643823
0
LINE
8
DEFAULT_255_2_778
10
10.0260283
20
6.2643823
11
10.2142283
21
6.2842823
0
LINE
8
DEFAULT_255_2_778
10
10.2142283
20
6.2842823
11
10.3597283
21
6.3453823
0
LINE
8
DEFAULT_255_2_778
10
10.3597283
20
6.3453823
11
10.4541283
21
6.4207823
0
LINE
8
DEFAULT_255_2_778
10
10.4541283
20
6.4207823
11
10.5187283
21
6.5017823
0
LINE
8
DEFAULT_255_2_778
10
10.5187283
20
6.5017823
11
10.5528283
21
6.5638823
0
LINE
8
DEFAULT_255_2_778
10
10.5528283
20
6.5638823
11
10.5790283
21
6.6318823
0
LINE
8
DEFAULT_255_2_778
10
10.5790283
20
6.6318823
11
10.5933283
21
6.6845823
0
LINE
8
DEFAULT_255_2_778
10
10.5933283
20
6.6845823
11
10.6020283
21
6.7297823
0
LINE
8
DEFAULT_255_2_778
10
10.6020283
20
6.7297823
11
10.6002283
21
7.0052823
0
LINE
8
DEFAULT_255_2_778
10
10.6002283
20
7.0052823
11
10.5825283
21
7.0716823
0
LINE
8
DEFAULT_255_2_778
10
10.5825283
20
7.0716823
11
10.5256283
21
7.1819823
0
LINE
8
DEFAULT_255_2_778
10
10.5256283
20
7.1819823
11
10.3859283
21
7.3052823
0
LINE
8
DEFAULT_255_2_778
10
10.3859283
20
7.3052823
11
10.3150283
21
7.3327823
0
LINE
8
DEFAULT_255_2_778
10
10.3150283
20
7.3327823
11
10.4200283
21
7.4089823
0
LINE
8
DEFAULT_255_2_778
10
10.4200283
20
7.4089823
11
10.4862283
21
7.4865823
0
LINE
8
DEFAULT_255_2_778
10
10.4862283
20
7.4865823
11
10.5285283
21
7.5616823
0
LINE
8
DEFAULT_255_2_778
10
10.5285283
20
7.5616823
11
10.5528283
21
7.6270823
0
LINE
8
DEFAULT_255_2_778
10
10.5528283
20
7.6270823
11
10.5658283
21
7.6794823
0
LINE
8
DEFAULT_255_2_778
10
10.5658283
20
7.6794823
11
10.5719283
21
7.7169823
0
LINE
8
DEFAULT_255_2_778
10
10.5719283
20
7.7169823
11
10.5711283
21
7.9122823
0
LINE
8
DEFAULT_255_2_778
10
10.5711283
20
7.9122823
11
10.5639283
21
7.9516823
0
LINE
8
DEFAULT_255_2_778
10
10.5639283
20
7.9516823
11
10.5504283
21
8.0024823
0
LINE
8
DEFAULT_255_2_778
10
10.5504283
20
8.0024823
11
10.5269283
21
8.0627823
0
LINE
8
DEFAULT_255_2_778
10
10.5269283
20
8.0627823
11
10.4864283
21
8.1320823
0
LINE
8
DEFAULT_255_2_778
10
10.4864283
20
8.1320823
11
10.4113283
21
8.2143823
0
LINE
8
DEFAULT_255_2_778
10
10.4113283
20
8.2143823
11
10.3070283
21
8.2836823
0
LINE
8
DEFAULT_255_2_778
10
10.3070283
20
8.2836823
11
10.1671283
21
8.3291823
0
LINE
8
DEFAULT_255_2_778
10
10.1671283
20
8.3291823
11
9.9681283
21
8.3347823
0
LINE
8
DEFAULT_255_2_778
10
9.9681283
20
8.3347823
11
9.8001283
21
8.2884823
0
LINE
8
DEFAULT_255_2_778
10
9.8001283
20
8.2884823
11
9.6400283
21
8.1643823
0
LINE
8
DEFAULT_255_2_778
10
9.6400283
20
8.1643823
11
9.5741283
21
8.0590823
0
LINE
8
DEFAULT_255_2_778
10
9.5741283
20
8.0590823
11
9.5427283
21
7.9677823
0
LINE
8
DEFAULT_255_2_778
10
9.5427283
20
7.9677823
11
9.5305283
21
7.9058823
0
LINE
8
DEFAULT_255_2_778
10
9.5305283
20
7.9058823
11
9.5257283
21
7.8669823
0
LINE
8
DEFAULT_255_2_778
10
9.5257283
20
7.8669823
11
9.5231283
21
7.8280823
0
LINE
8
DEFAULT_255_2_778
10
9.5231283
20
7.8280823
11
9.5223283
21
7.7894823
0
LINE
8
DEFAULT_255_2_778
10
9.5223283
20
7.7894823
11
9.7297283
21
7.7894823
0
LINE
8
DEFAULT_255_2_778
10
9.7297283
20
7.7894823
11
9.7316283
21
7.8339823
0
LINE
8
DEFAULT_255_2_778
10
9.7316283
20
7.8339823
11
9.7361283
21
7.8672823
0
LINE
8
DEFAULT_255_2_778
10
9.7361283
20
7.8672823
11
9.7488283
21
7.9182823
0
LINE
8
DEFAULT_255_2_778
10
9.7488283
20
7.9182823
11
9.7781283
21
7.9815823
0
LINE
8
DEFAULT_255_2_778
10
9.7781283
20
7.9815823
11
9.8575283
21
8.0664823
0
LINE
8
DEFAULT_255_2_778
10
9.8575283
20
8.0664823
11
10.0054283
21
8.1214823
0
LINE
8
DEFAULT_255_2_778
10
10.0054283
20
8.1214823
11
10.1888283
21
8.0958823
0
LINE
8
DEFAULT_255_2_778
10
10.1888283
20
8.0958823
11
10.2957283
21
8.0132823
0
LINE
8
DEFAULT_255_2_778
10
10.2957283
20
8.0132823
11
10.3359283
21
7.9463823
0
LINE
8
DEFAULT_255_2_778
10
10.3359283
20
7.9463823
11
10.3544283
21
7.8886823
0
LINE
8
DEFAULT_255_2_778
10
10.3544283
20
7.8886823
11
10.3607283
21
7.8550823
0
LINE
8
DEFAULT_255_2_778
10
10.3607283
20
7.8550823
11
10.3597283
21
7.7222823
0
LINE
8
DEFAULT_255_2_778
10
10.3597283
20
7.7222823
11
10.3467283
21
7.6709823
0
LINE
8
DEFAULT_255_2_778
10
10.3467283
20
7.6709823
11
10.3015283
21
7.5862823
0
LINE
8
DEFAULT_255_2_778
10
10.3015283
20
7.5862823
11
10.1705283
21
7.4809823
0
LINE
8
DEFAULT_255_2_778
10
10.1705283
20
7.4809823
11
10.0022283
21
7.4439823
0
LINE
8
DEFAULT_255_2_778
10
10.0022283
20
7.4439823
11
9.9308283
21
7.4439823
0
LINE
8
DEFAULT_255_2_778
10
9.9308283
20
7.4439823
11
9.9308283
21
7.2200823
0
LINE
8
DEFAULT_255_2_778
10
9.9308283
20
7.2200823
11
10.1734283
21
7.1970823
0
LINE
8
DEFAULT_255_2_778
10
10.1734283
20
7.1970823
11
10.3091283
21
7.1179823
0
LINE
8
DEFAULT_255_2_778
10
10.3091283
20
7.1179823
11
10.3621283
21
7.0480823
0
LINE
8
DEFAULT_255_2_778
10
10.3621283
20
7.0480823
11
10.3838283
21
6.9941823
0
LINE
8
DEFAULT_255_2_778
10
10.3838283
20
6.9941823
11
10.3917283
21
6.9594823
0
LINE
8
DEFAULT_255_2_778
10
10.3917283
20
6.9594823
11
10.3893283
21
6.7856823
0
LINE
8
DEFAULT_255_2_778
10
10.3893283
20
6.7856823
11
10.3745283
21
6.7260823
0
LINE
8
DEFAULT_255_2_778
10
10.3745283
20
6.7260823
11
10.3472283
21
6.6626823
0
LINE
8
DEFAULT_255_2_778
10
10.3472283
20
6.6626823
11
10.2795283
21
6.5763823
0
LINE
8
DEFAULT_255_2_778
10
10.2795283
20
6.5763823
11
10.1639283
21
6.5088823
0
LINE
8
DEFAULT_255_2_778
10
10.1639283
20
6.5088823
11
10.0459283
21
6.4914823
0
LINE
8
DEFAULT_255_2_778
10
19.5452438
20
7.7693156
11
19.3378438
21
7.7693156
0
LINE
8
DEFAULT_255_2_778
10
19.3378438
20
7.7693156
11
19.3399438
21
7.8342156
0
LINE
8
DEFAULT_255_2_778
10
19.3399438
20
7.8342156
11
19.3436438
21
7.8731156
0
LINE
8
DEFAULT_255_2_778
10
19.3436438
20
7.8731156
11
19.3516438
21
7.9247156
0
LINE
8
DEFAULT_255_2_778
10
19.3516438
20
7.9247156
11
19.3704438
21
7.9998156
0
LINE
8
DEFAULT_255_2_778
10
19.3704438
20
7.9998156
11
19.4169438
21
8.1056156
0
LINE
8
DEFAULT_255_2_778
10
19.4169438
20
8.1056156
11
19.4921438
21
8.2035156
0
LINE
8
DEFAULT_255_2_778
10
19.4921438
20
8.2035156
11
19.5659438
21
8.2638156
0
LINE
8
DEFAULT_255_2_778
10
19.5659438
20
8.2638156
11
19.6614438
21
8.3107156
0
LINE
8
DEFAULT_255_2_778
10
19.6614438
20
8.3107156
11
19.7942438
21
8.3374156
0
LINE
8
DEFAULT_255_2_778
10
19.7942438
20
8.3374156
11
19.9532438
21
8.3295156
0
LINE
8
DEFAULT_255_2_778
10
19.9532438
20
8.3295156
11
20.0736438
21
8.2916156
0
LINE
8
DEFAULT_255_2_778
10
20.0736438
20
8.2916156
11
20.1604438
21
8.2382156
0
LINE
8
DEFAULT_255_2_778
10
20.1604438
20
8.2382156
11
20.2313438
21
8.1686156
0
LINE
8
DEFAULT_255_2_778
10
20.2313438
20
8.1686156
11
20.2755438
21
8.1038156
0
LINE
8
DEFAULT_255_2_778
10
20.2755438
20
8.1038156
11
20.3020438
21
8.0482156
0
LINE
8
DEFAULT_255_2_778
10
20.3020438
20
8.0482156
11
20.3213438
21
7.9897156
0
LINE
8
DEFAULT_255_2_778
10
20.3213438
20
7.9897156
11
20.3318438
21
7.9434156
0
LINE
8
DEFAULT_255_2_778
10
20.3318438
20
7.9434156
11
20.3292438
21
7.6696156
0
LINE
8
DEFAULT_255_2_778
10
20.3292438
20
7.6696156
11
20.3173438
21
7.6146156
0
LINE
8
DEFAULT_255_2_778
10
20.3173438
20
7.6146156
11
20.3022438
21
7.5601156
0
LINE
8
DEFAULT_255_2_778
10
20.3022438
20
7.5601156
11
20.2744438
21
7.4799156
0
LINE
8
DEFAULT_255_2_778
10
20.2744438
20
7.4799156
11
20.2369438
21
7.3918156
0
LINE
8
DEFAULT_255_2_778
10
20.2369438
20
7.3918156
11
20.1832438
21
7.2878156
0
LINE
8
DEFAULT_255_2_778
10
20.1832438
20
7.2878156
11
20.1006438
21
7.1558156
0
LINE
8
DEFAULT_255_2_778
10
20.1006438
20
7.1558156
11
19.9829438
21
7.0002156
0
LINE
8
DEFAULT_255_2_778
10
19.9829438
20
7.0002156
11
19.8244438
21
6.8213156
0
LINE
8
DEFAULT_255_2_778
10
19.8244438
20
6.8213156
11
19.5331438
21
6.5277156
0
LINE
8
DEFAULT_255_2_778
10
19.5331438
20
6.5277156
11
20.3755438
21
6.5277156
0
LINE
8
DEFAULT_255_2_778
10
20.3755438
20
6.5277156
11
20.3755438
21
6.3094156
0
LINE
8
DEFAULT_255_2_778
10
20.3755438
20
6.3094156
11
19.2722438
21
6.3094156
0
LINE
8
DEFAULT_255_2_778
10
19.2722438
20
6.3094156
11
19.2722438
21
6.5488156
0
LINE
8
DEFAULT_255_2_778
10
19.2722438
20
6.5488156
11
19.4995438
21
6.7766156
0
LINE
8
DEFAULT_255_2_778
10
19.4995438
20
6.7766156
11
19.7077438
21
7.0121156
0
LINE
8
DEFAULT_255_2_778
10
19.7077438
20
7.0121156
11
19.8728438
21
7.2235156
0
LINE
8
DEFAULT_255_2_778
10
19.8728438
20
7.2235156
11
20.0096438
21
7.4315156
0
LINE
8
DEFAULT_255_2_778
10
20.0096438
20
7.4315156
11
20.0630438
21
7.5328156
0
LINE
8
DEFAULT_255_2_778
10
20.0630438
20
7.5328156
11
20.1027438
21
7.6302156
0
LINE
8
DEFAULT_255_2_778
10
20.1027438
20
7.6302156
11
20.1191438
21
7.6850156
0
LINE
8
DEFAULT_255_2_778
10
20.1191438
20
7.6850156
11
20.1273438
21
7.7222156
0
LINE
8
DEFAULT_255_2_778
10
20.1273438
20
7.7222156
11
20.1329438
21
7.7598156
0
LINE
8
DEFAULT_255_2_778
10
20.1329438
20
7.7598156
11
20.1316438
21
7.8630156
0
LINE
8
DEFAULT_255_2_778
10
20.1316438
20
7.8630156
11
20.1212438
21
7.9141156
0
LINE
8
DEFAULT_255_2_778
10
20.1212438
20
7.9141156
11
20.0972438
21
7.9771156
0
LINE
8
DEFAULT_255_2_778
10
20.0972438
20
7.9771156
11
20.0358438
21
8.0554156
0
LINE
8
DEFAULT_255_2_778
10
20.0358438
20
8.0554156
11
19.9212438
21
8.1144156
0
LINE
8
DEFAULT_255_2_778
10
19.9212438
20
8.1144156
11
19.7331438
21
8.1046156
0
LINE
8
DEFAULT_255_2_778
10
19.7331438
20
8.1046156
11
19.6267438
21
8.0284156
0
LINE
8
DEFAULT_255_2_778
10
19.6267438
20
8.0284156
11
19.5818438
21
7.9575156
0
LINE
8
DEFAULT_255_2_778
10
19.5818438
20
7.9575156
11
19.5624438
21
7.9043156
0
LINE
8
DEFAULT_255_2_778
10
19.5624438
20
7.9043156
11
19.5524438
21
7.8585156
0
LINE
8
DEFAULT_255_2_778
10
19.5524438
20
7.8585156
11
19.5490438
21
7.8331156
0
LINE
8
DEFAULT_255_2_778
10
19.5490438
20
7.8331156
11
19.5468438
21
7.8075156
0
LINE
8
DEFAULT_255_2_778
10
19.5468438
20
7.8075156
11
19.5458438
21
7.7693156
0
LINE
8
DEFAULT_255_2_778
10
18.0893397
20
7.7693156
11
17.8818397
21
7.7693156
0
LINE
8
DEFAULT_255_2_778
10
17.8818397
20
7.7693156
11
17.8839397
21
7.8342156
0
LINE
8
DEFAULT_255_2_778
10
17.8839397
20
7.8342156
11
17.8876397
21
7.8731156
0
LINE
8
DEFAULT_255_2_778
10
17.8876397
20
7.8731156
11
17.8956397
21
7.9247156
0
LINE
8
DEFAULT_255_2_778
10
17.8956397
20
7.9247156
11
17.9144397
21
7.9998156
0
LINE
8
DEFAULT_255_2_778
10
17.9144397
20
7.9998156
11
17.9609397
21
8.1056156
0
LINE
8
DEFAULT_255_2_778
10
17.9609397
20
8.1056156
11
18.0361397
21
8.2035156
0
LINE
8
DEFAULT_255_2_778
10
18.0361397
20
8.2035156
11
18.1099397
21
8.2638156
0
LINE
8
DEFAULT_255_2_778
10
18.1099397
20
8.2638156
11
18.2054397
21
8.3107156
0
LINE
8
DEFAULT_255_2_778
10
18.2054397
20
8.3107156
11
18.3382397
21
8.3374156
0
LINE
8
DEFAULT_255_2_778
10
18.3382397
20
8.3374156
11
18.4972397
21
8.3295156
0
LINE
8
DEFAULT_255_2_778
10
18.4972397
20
8.3295156
11
18.6177397
21
8.2916156
0
LINE
8
DEFAULT_255_2_778
10
18.6177397
20
8.2916156
11
18.7044397
21
8.2382156
0
LINE
8
DEFAULT_255_2_778
10
18.7044397
20
8.2382156
11
18.7753397
21
8.1686156
0
LINE
8
DEFAULT_255_2_778
10
18.7753397
20
8.1686156
11
18.8195397
21
8.1038156
0
LINE
8
DEFAULT_255_2_778
10
18.8195397
20
8.1038156
11
18.8460397
21
8.0482156
0
LINE
8
DEFAULT_255_2_778
10
18.8460397
20
8.0482156
11
18.8653397
21
7.9897156
0
LINE
8
DEFAULT_255_2_778
10
18.8653397
20
7.9897156
11
18.8759397
21
7.9434156
0
LINE
8
DEFAULT_255_2_778
10
18.8759397
20
7.9434156
11
18.8732397
21
7.6696156
0
LINE
8
DEFAULT_255_2_778
10
18.8732397
20
7.6696156
11
18.8613397
21
7.6146156
0
LINE
8
DEFAULT_255_2_778
10
18.8613397
20
7.6146156
11
18.8462397
21
7.5601156
0
LINE
8
DEFAULT_255_2_778
10
18.8462397
20
7.5601156
11
18.8184397
21
7.4799156
0
LINE
8
DEFAULT_255_2_778
10
18.8184397
20
7.4799156
11
18.7809397
21
7.3918156
0
LINE
8
DEFAULT_255_2_778
10
18.7809397
20
7.3918156
11
18.7272397
21
7.2878156
0
LINE
8
DEFAULT_255_2_778
10
18.7272397
20
7.2878156
11
18.6446397
21
7.1558156
0
LINE
8
DEFAULT_255_2_778
10
18.6446397
20
7.1558156
11
18.5269397
21
7.0002156
0
LINE
8
DEFAULT_255_2_778
10
18.5269397
20
7.0002156
11
18.3684397
21
6.8213156
0
LINE
8
DEFAULT_255_2_778
10
18.3684397
20
6.8213156
11
18.0771397
21
6.5277156
0
LINE
8
DEFAULT_255_2_778
10
18.0771397
20
6.5277156
11
18.9195397
21
6.5277156
0
LINE
8
DEFAULT_255_2_778
10
18.9195397
20
6.5277156
11
18.9195397
21
6.3094156
0
LINE
8
DEFAULT_255_2_778
10
18.9195397
20
6.3094156
11
17.8162397
21
6.3094156
0
LINE
8
DEFAULT_255_2_778
10
17.8162397
20
6.3094156
11
17.8162397
21
6.5488156
0
LINE
8
DEFAULT_255_2_778
10
17.8162397
20
6.5488156
11
18.0435397
21
6.7766156
0
LINE
8
DEFAULT_255_2_778
10
18.0435397
20
6.7766156
11
18.2517397
21
7.0121156
0
LINE
8
DEFAULT_255_2_778
10
18.2517397
20
7.0121156
11
18.4168397
21
7.2235156
0
LINE
8
DEFAULT_255_2_778
10
18.4168397
20
7.2235156
11
18.5536397
21
7.4315156
0
LINE
8
DEFAULT_255_2_778
10
18.5536397
20
7.4315156
11
18.6070397
21
7.5328156
0
LINE
8
DEFAULT_255_2_778
10
18.6070397
20
7.5328156
11
18.6467397
21
7.6302156
0
LINE
8
DEFAULT_255_2_778
10
18.6467397
20
7.6302156
11
18.6631397
21
7.6850156
0
LINE
8
DEFAULT_255_2_778
10
18.6631397
20
7.6850156
11
18.6714397
21
7.7222156
0
LINE
8
DEFAULT_255_2_778
10
18.6714397
20
7.7222156
11
18.6769397
21
7.7598156
0
LINE
8
DEFAULT_255_2_778
10
18.6769397
20
7.7598156
11
18.6756397
21
7.8630156
0
LINE
8
DEFAULT_255_2_778
10
18.6756397
20
7.8630156
11
18.6653397
21
7.9141156
0
LINE
8
DEFAULT_255_2_778
10
18.6653397
20
7.9141156
11
18.6412397
21
7.9771156
0
LINE
8
DEFAULT_255_2_778
10
18.6412397
20
7.9771156
11
18.5798397
21
8.0554156
0
LINE
8
DEFAULT_255_2_778
10
18.5798397
20
8.0554156
11
18.4652397
21
8.1144156
0
LINE
8
DEFAULT_255_2_778
10
18.4652397
20
8.1144156
11
18.2771397
21
8.1046156
0
LINE
8
DEFAULT_255_2_778
10
18.2771397
20
8.1046156
11
18.1707397
21
8.0284156
0
LINE
8
DEFAULT_255_2_778
10
18.1707397
20
8.0284156
11
18.1258397
21
7.9575156
0
LINE
8
DEFAULT_255_2_778
10
18.1258397
20
7.9575156
11
18.1065397
21
7.9043156
0
LINE
8
DEFAULT_255_2_778
10
18.1065397
20
7.9043156
11
18.0964397
21
7.8585156
0
LINE
8
DEFAULT_255_2_778
10
18.0964397
20
7.8585156
11
18.0930397
21
7.8331156
0
LINE
8
DEFAULT_255_2_778
10
18.0930397
20
7.8331156
11
18.0908397
21
7.8075156
0
LINE
8
DEFAULT_255_2_778
10
18.0908397
20
7.8075156
11
18.0898397
21
7.7693156
0
LINE
8
DEFAULT_255_2_778
10
13.1860397
20
8.3094156
11
14.2734397
21
8.3094156
0
LINE
8
DEFAULT_255_2_778
10
14.2734397
20
8.3094156
11
14.2734397
21
8.0641156
0
LINE
8
DEFAULT_255_2_778
10
14.2734397
20
8.0641156
11
13.6599397
21
6.3094156
0
LINE
8
DEFAULT_255_2_778
10
13.6599397
20
6.3094156
11
13.4024397
21
6.3094156
0
LINE
8
DEFAULT_255_2_778
10
13.4024397
20
6.3094156
11
14.0477397
21
8.0855156
0
LINE
8
DEFAULT_255_2_778
10
14.0477397
20
8.0855156
11
13.1860397
21
8.0855156
0
LINE
8
DEFAULT_255_2_778
10
13.1860397
20
8.0855156
11
13.1860397
21
8.3094156
0
LINE
8
DEFAULT_255_2_778
10
15.2408397
20
7.2053156
11
15.4461397
21
7.1415156
0
LINE
8
DEFAULT_255_2_778
10
15.4461397
20
7.1415156
11
15.4985397
21
7.0621156
0
LINE
8
DEFAULT_255_2_778
10
15.4985397
20
7.0621156
11
15.5207397
21
6.9952156
0
LINE
8
DEFAULT_255_2_778
10
15.5207397
20
6.9952156
11
15.5339397
21
6.9277156
0
LINE
8
DEFAULT_255_2_778
10
15.5339397
20
6.9277156
11
15.5590397
21
6.7295156
0
LINE
8
DEFAULT_255_2_778
10
15.5590397
20
6.7295156
11
15.5895397
21
6.5054156
0
LINE
8
DEFAULT_255_2_778
10
15.5895397
20
6.5054156
11
15.6003397
21
6.4499156
0
LINE
8
DEFAULT_255_2_778
10
15.6003397
20
6.4499156
11
15.6270397
21
6.3441156
0
LINE
8
DEFAULT_255_2_778
10
15.6270397
20
6.3441156
11
15.6302397
21
6.3197156
0
LINE
8
DEFAULT_255_2_778
10
15.6302397
20
6.3197156
11
15.6310397
21
6.3112156
0
LINE
8
DEFAULT_255_2_778
10
15.6310397
20
6.3112156
11
15.8636397
21
6.3112156
0
LINE
8
DEFAULT_255_2_778
10
15.8636397
20
6.3112156
11
15.8295397
21
6.4269156
0
LINE
8
DEFAULT_255_2_778
10
15.8295397
20
6.4269156
11
15.8101397
21
6.5396156
0
LINE
8
DEFAULT_255_2_778
10
15.8101397
20
6.5396156
11
15.7853397
21
6.7187156
0
LINE
8
DEFAULT_255_2_778
10
15.7853397
20
6.7187156
11
15.7723397
21
6.8208156
0
LINE
8
DEFAULT_255_2_778
10
15.7723397
20
6.8208156
11
15.7559397
21
6.9565156
0
LINE
8
DEFAULT_255_2_778
10
15.7559397
20
6.9565156
11
15.7453397
21
7.0248156
0
LINE
8
DEFAULT_255_2_778
10
15.7453397
20
7.0248156
11
15.7297397
21
7.0960156
0
LINE
8
DEFAULT_255_2_778
10
15.7297397
20
7.0960156
11
15.7083397
21
7.1600156
0
LINE
8
DEFAULT_255_2_778
10
15.7083397
20
7.1600156
11
15.6710397
21
7.2275156
0
LINE
8
DEFAULT_255_2_778
10
15.6710397
20
7.2275156
11
15.5934397
21
7.2859156
0
LINE
8
DEFAULT_255_2_778
10
15.5934397
20
7.2859156
11
15.5016397
21
7.3106156
0
LINE
8
DEFAULT_255_2_778
10
15.5016397
20
7.3106156
11
15.6321397
21
7.3812156
0
LINE
8
DEFAULT_255_2_778
10
15.6321397
20
7.3812156
11
15.7191397
21
7.4675156
0
LINE
8
DEFAULT_255_2_778
10
15.7191397
20
7.4675156
11
15.7662397
21
7.5439156
0
LINE
8
DEFAULT_255_2_778
10
15.7662397
20
7.5439156
11
15.7890397
21
7.6008156
0
LINE
8
DEFAULT_255_2_778
10
15.7890397
20
7.6008156
11
15.8014397
21
7.6450156
0
LINE
8
DEFAULT_255_2_778
10
15.8014397
20
7.6450156
11
15.8088397
21
7.6826156
0
LINE
8
DEFAULT_255_2_778
10
15.8088397
20
7.6826156
11
15.8138397
21
7.7204156
0
LINE
8
DEFAULT_255_2_778
10
15.8138397
20
7.7204156
11
15.8128397
21
7.8871156
0
LINE
8
DEFAULT_255_2_778
10
15.8128397
20
7.8871156
11
15.8075397
21
7.9228156
0
LINE
8
DEFAULT_255_2_778
10
15.8075397
20
7.9228156
11
15.7961397
21
7.9736156
0
LINE
8
DEFAULT_255_2_778
10
15.7961397
20
7.9736156
11
15.7752397
21
8.0339156
0
LINE
8
DEFAULT_255_2_778
10
15.7752397
20
8.0339156
11
15.7390397
21
8.1025156
0
LINE
8
DEFAULT_255_2_778
10
15.7390397
20
8.1025156
11
15.6673397
21
8.1858156
0
LINE
8
DEFAULT_255_2_778
10
15.6673397
20
8.1858156
11
15.5561397
21
8.2586156
0
LINE
8
DEFAULT_255_2_778
10
15.5561397
20
8.2586156
11
15.3977397
21
8.3033156
0
LINE
8
DEFAULT_255_2_778
10
15.3977397
20
8.3033156
11
15.2987397
21
8.3096156
0
LINE
8
DEFAULT_255_2_778
10
15.2987397
20
8.3096156
11
14.6613397
21
8.3096156
0
LINE
8
DEFAULT_255_2_778
10
14.6613397
20
8.3096156
11
14.6613397
21
6.3097156
0
LINE
8
DEFAULT_255_2_778
10
14.6613397
20
6.3097156
11
14.8801397
21
6.3097156
0
LINE
8
DEFAULT_255_2_778
10
14.8801397
20
6.3097156
11
14.8801397
21
7.2055156
0
LINE
8
DEFAULT_255_2_778
10
14.8801397
20
7.2055156
11
15.2408397
21
7.2053156
0
LINE
8
DEFAULT_255_2_778
10
15.2611397
20
7.4320156
11
15.4387397
21
7.4617156
0
LINE
8
DEFAULT_255_2_778
10
15.4387397
20
7.4617156
11
15.5413397
21
7.5394156
0
LINE
8
DEFAULT_255_2_778
10
15.5413397
20
7.5394156
11
15.5752397
21
7.5971156
0
LINE
8
DEFAULT_255_2_778
10
15.5752397
20
7.5971156
11
15.5903397
21
7.6468156
0
LINE
8
DEFAULT_255_2_778
10
15.5903397
20
7.6468156
11
15.5956397
21
7.6778156
0
LINE
8
DEFAULT_255_2_778
10
15.5956397
20
7.6778156
11
15.5932397
21
7.8268156
0
LINE
8
DEFAULT_255_2_778
10
15.5932397
20
7.8268156
11
15.5829397
21
7.8725156
0
LINE
8
DEFAULT_255_2_778
10
15.5829397
20
7.8725156
11
15.5601397
21
7.9302156
0
LINE
8
DEFAULT_255_2_778
10
15.5601397
20
7.9302156
11
15.4969397
21
8.0088156
0
LINE
8
DEFAULT_255_2_778
10
15.4969397
20
8.0088156
11
15.3799397
21
8.0638156
0
LINE
8
DEFAULT_255_2_778
10
15.3799397
20
8.0638156
11
15.2034397
21
8.0823156
0
LINE
8
DEFAULT_255_2_778
10
15.2034397
20
8.0823156
11
14.8804397
21
8.0823156
0
LINE
8
DEFAULT_255_2_778
10
14.8804397
20
8.0823156
11
14.8804397
21
7.4317156
0
LINE
8
DEFAULT_255_2_778
10
14.8804397
20
7.4317156
11
15.2611397
21
7.4320156
0
LINE
8
DEFAULT_255_2_778
10
16.1660865
20
8.3093604
11
16.8026865
21
8.3019604
0
LINE
8
DEFAULT_255_2_778
10
16.8026865
20
8.3019604
11
16.9812865
21
8.2622604
0
LINE
8
DEFAULT_255_2_778
10
16.9812865
20
8.2622604
11
17.0984865
21
8.2088604
0
LINE
8
DEFAULT_255_2_778
10
17.0984865
20
8.2088604
11
17.1818865
21
8.1490604
0
LINE
8
DEFAULT_255_2_778
10
17.1818865
20
8.1490604
11
17.2545865
21
8.0754604
0
LINE
8
DEFAULT_255_2_778
10
17.2545865
20
8.0754604
11
17.3164865
21
7.9913604
0
LINE
8
DEFAULT_255_2_778
10
17.3164865
20
7.9913604
11
17.3675865
21
7.8997604
0
LINE
8
DEFAULT_255_2_778
10
17.3675865
20
7.8997604
11
17.4021865
21
7.8179604
0
LINE
8
DEFAULT_255_2_778
10
17.4021865
20
7.8179604
11
17.4249865
21
7.7489604
0
LINE
8
DEFAULT_255_2_778
10
17.4249865
20
7.7489604
11
17.4429865
21
7.6788604
0
LINE
8
DEFAULT_255_2_778
10
17.4429865
20
7.6788604
11
17.4503865
21
7.6433604
0
LINE
8
DEFAULT_255_2_778
10
17.4503865
20
7.6433604
11
17.4566865
21
7.6076604
0
LINE
8
DEFAULT_255_2_778
10
17.4566865
20
7.6076604
11
17.4619865
21
7.5716604
0
LINE
8
DEFAULT_255_2_778
10
17.4619865
20
7.5716604
11
17.4664865
21
7.5357604
0
LINE
8
DEFAULT_255_2_778
10
17.4664865
20
7.5357604
11
17.4648865
21
7.0234604
0
LINE
8
DEFAULT_255_2_778
10
17.4648865
20
7.0234604
11
17.4598865
21
6.9872604
0
LINE
8
DEFAULT_255_2_778
10
17.4598865
20
6.9872604
11
17.4540865
21
6.9512604
0
LINE
8
DEFAULT_255_2_778
10
17.4540865
20
6.9512604
11
17.4471865
21
6.9155604
0
LINE
8
DEFAULT_255_2_778
10
17.4471865
20
6.9155604
11
17.4296865
21
6.8448604
0
LINE
8
DEFAULT_255_2_778
10
17.4296865
20
6.8448604
11
17.4072865
21
6.7752604
0
LINE
8
DEFAULT_255_2_778
10
17.4072865
20
6.7752604
11
17.3736865
21
6.6961604
0
LINE
8
DEFAULT_255_2_778
10
17.3736865
20
6.6961604
11
17.3254865
21
6.6099604
0
LINE
8
DEFAULT_255_2_778
10
17.3254865
20
6.6099604
11
17.2667865
21
6.5305604
0
LINE
8
DEFAULT_255_2_778
10
17.2667865
20
6.5305604
11
17.1979865
21
6.4612604
0
LINE
8
DEFAULT_255_2_778
10
17.1979865
20
6.4612604
11
17.1177865
21
6.4040604
0
LINE
8
DEFAULT_255_2_778
10
17.1177865
20
6.4040604
11
16.9997865
21
6.3514604
0
LINE
8
DEFAULT_255_2_778
10
16.9997865
20
6.3514604
11
16.8203865
21
6.3146604
0
LINE
8
DEFAULT_255_2_778
10
16.8203865
20
6.3146604
11
16.7163865
21
6.3096604
0
LINE
8
DEFAULT_255_2_778
10
16.7163865
20
6.3096604
11
16.1663865
21
6.3096604
0
LINE
8
DEFAULT_255_2_778
10
16.1663865
20
6.3096604
11
16.1660865
21
8.3093604
0
LINE
8
DEFAULT_255_2_778
10
16.7171865
20
6.5361604
11
16.8748865
21
6.5538604
0
LINE
8
DEFAULT_255_2_778
10
16.8748865
20
6.5538604
11
16.9949865
21
6.6011604
0
LINE
8
DEFAULT_255_2_778
10
16.9949865
20
6.6011604
11
17.0793865
21
6.6654604
0
LINE
8
DEFAULT_255_2_778
10
17.0793865
20
6.6654604
11
17.1354865
21
6.7337604
0
LINE
8
DEFAULT_255_2_778
10
17.1354865
20
6.7337604
11
17.1672865
21
6.7885604
0
LINE
8
DEFAULT_255_2_778
10
17.1672865
20
6.7885604
11
17.1942865
21
6.8514604
0
LINE
8
DEFAULT_255_2_778
10
17.1942865
20
6.8514604
11
17.2162865
21
6.9216604
0
LINE
8
DEFAULT_255_2_778
10
17.2162865
20
6.9216604
11
17.2291865
21
6.9755604
0
LINE
8
DEFAULT_255_2_778
10
17.2291865
20
6.9755604
11
17.2391865
21
7.0300604
0
LINE
8
DEFAULT_255_2_778
10
17.2391865
20
7.0300604
11
17.2468865
21
7.0848604
0
LINE
8
DEFAULT_255_2_778
10
17.2468865
20
7.0848604
11
17.2455865
21
7.5481604
0
LINE
8
DEFAULT_255_2_778
10
17.2455865
20
7.5481604
11
17.2355865
21
7.6047604
0
LINE
8
DEFAULT_255_2_778
10
17.2355865
20
7.6047604
11
17.2220865
21
7.6605604
0
LINE
8
DEFAULT_255_2_778
10
17.2220865
20
7.6605604
11
17.2045865
21
7.7156604
0
LINE
8
DEFAULT_255_2_778
10
17.2045865
20
7.7156604
11
17.1704865
21
7.7952604
0
LINE
8
DEFAULT_255_2_778
10
17.1704865
20
7.7952604
11
17.1204865
21
7.8778604
0
LINE
8
DEFAULT_255_2_778
10
17.1204865
20
7.8778604
11
17.0579865
21
7.9500604
0
LINE
8
DEFAULT_255_2_778
10
17.0579865
20
7.9500604
11
16.9820865
21
8.0077604
0
LINE
8
DEFAULT_255_2_778
10
16.9820865
20
8.0077604
11
16.8526865
21
8.0603604
0
LINE
8
DEFAULT_255_2_778
10
16.8526865
20
8.0603604
11
16.6729865
21
8.0820604
0
LINE
8
DEFAULT_255_2_778
10
16.6729865
20
8.0820604
11
16.3848865
21
8.0820604
0
LINE
8
DEFAULT_255_2_778
10
16.3848865
20
8.0820604
11
16.3848865
21
6.5355604
0
LINE
8
DEFAULT_255_2_778
10
16.3848865
20
6.5355604
11
16.7171865
21
6.5361604
0
LINE
8
DEFAULT_255_2_778
10
21.5571927
20
7.9958052
11
21.5156927
21
7.9003052
0
LINE
8
DEFAULT_255_2_778
10
21.5156927
20
7.9003052
11
21.4926927
21
7.8350052
0
LINE
8
DEFAULT_255_2_778
10
21.4926927
20
7.8350052
11
21.4719927
21
7.7641052
0
LINE
8
DEFAULT_255_2_778
10
21.4719927
20
7.7641052
11
21.4542927
21
7.6876052
0
LINE
8
DEFAULT_255_2_778
10
21.4542927
20
7.6876052
11
21.4468927
21
7.6490052
0
LINE
8
DEFAULT_255_2_778
10
21.4468927
20
7.6490052
11
21.4405927
21
7.6103052
0
LINE
8
DEFAULT_255_2_778
10
21.4405927
20
7.6103052
11
21.4349927
21
7.5715052
0
LINE
8
DEFAULT_255_2_778
10
21.4349927
20
7.5715052
11
21.4299927
21
7.5286052
0
LINE
8
DEFAULT_255_2_778
10
21.4299927
20
7.5286052
11
21.4259927
21
7.4857052
0
LINE
8
DEFAULT_255_2_778
10
21.4259927
20
7.4857052
11
21.4230927
21
7.4426052
0
LINE
8
DEFAULT_255_2_778
10
21.4230927
20
7.4426052
11
21.4230927
21
7.1817052
0
LINE
8
DEFAULT_255_2_778
10
21.4230927
20
7.1817052
11
21.4259927
21
7.1381052
0
LINE
8
DEFAULT_255_2_778
10
21.4259927
20
7.1381052
11
21.4299927
21
7.0944052
0
LINE
8
DEFAULT_255_2_778
10
21.4299927
20
7.0944052
11
21.4349927
21
7.0507052
0
LINE
8
DEFAULT_255_2_778
10
21.4349927
20
7.0507052
11
21.4402927
21
7.0113052
0
LINE
8
DEFAULT_255_2_778
10
21.4402927
20
7.0113052
11
21.4465927
21
6.9719052
0
LINE
8
DEFAULT_255_2_778
10
21.4465927
20
6.9719052
11
21.4619927
21
6.8936052
0
LINE
8
DEFAULT_255_2_778
10
21.4619927
20
6.8936052
11
21.4815927
21
6.8163052
0
LINE
8
DEFAULT_255_2_778
10
21.4815927
20
6.8163052
11
21.5032927
21
6.7462052
0
LINE
8
DEFAULT_255_2_778
10
21.5032927
20
6.7462052
11
21.5288927
21
6.6774052
0
LINE
8
DEFAULT_255_2_778
10
21.5288927
20
6.6774052
11
21.5704927
21
6.5872052
0
LINE
8
DEFAULT_255_2_778
10
21.5704927
20
6.5872052
11
21.6225927
21
6.4986052
0
LINE
8
DEFAULT_255_2_778
10
21.6225927
20
6.4986052
11
21.6865927
21
6.4182052
0
LINE
8
DEFAULT_255_2_778
10
21.6865927
20
6.4182052
11
21.7693927
21
6.3459052
0
LINE
8
DEFAULT_255_2_778
10
21.7693927
20
6.3459052
11
21.8635927
21
6.2954052
0
LINE
8
DEFAULT_255_2_778
10
21.8635927
20
6.2954052
11
21.9969927
21
6.2660052
0
LINE
8
DEFAULT_255_2_778
10
21.9969927
20
6.2660052
11
22.1339927
21
6.2740052
0
LINE
8
DEFAULT_255_2_778
10
22.1339927
20
6.2740052
11
22.2469927
21
6.3123052
0
LINE
8
DEFAULT_255_2_778
10
22.2469927
20
6.3123052
11
22.3382927
21
6.3729052
0
LINE
8
DEFAULT_255_2_778
10
22.3382927
20
6.3729052
11
22.4033927
21
6.4374052
0
LINE
8
DEFAULT_255_2_778
10
22.4033927
20
6.4374052
11
22.4639927
21
6.5203052
0
LINE
8
DEFAULT_255_2_778
10
22.4639927
20
6.5203052
11
22.5133927
21
6.6105052
0
LINE
8
DEFAULT_255_2_778
10
22.5133927
20
6.6105052
11
22.5432927
21
6.6779052
0
LINE
8
DEFAULT_255_2_778
10
22.5432927
20
6.6779052
11
22.5689927
21
6.7470052
0
LINE
8
DEFAULT_255_2_778
10
22.5689927
20
6.7470052
11
22.5906927
21
6.8174052
0
LINE
8
DEFAULT_255_2_778
10
22.5906927
20
6.8174052
11
22.6099927
21
6.8946052
0
LINE
8
DEFAULT_255_2_778
10
22.6099927
20
6.8946052
11
22.6253927
21
6.9730052
0
LINE
8
DEFAULT_255_2_778
10
22.6253927
20
6.9730052
11
22.6316927
21
7.0124052
0
LINE
8
DEFAULT_255_2_778
10
22.6316927
20
7.0124052
11
22.6369927
21
7.0518052
0
LINE
8
DEFAULT_255_2_778
10
22.6369927
20
7.0518052
11
22.6419927
21
7.0952052
0
LINE
8
DEFAULT_255_2_778
10
22.6419927
20
7.0952052
11
22.6459927
21
7.1389052
0
LINE
8
DEFAULT_255_2_778
10
22.6459927
20
7.1389052
11
22.6488927
21
7.1825052
0
LINE
8
DEFAULT_255_2_778
10
22.6488927
20
7.1825052
11
22.6488927
21
7.4431052
0
LINE
8
DEFAULT_255_2_778
10
22.6488927
20
7.4431052
11
22.6459927
21
7.4862052
0
LINE
8
DEFAULT_255_2_778
10
22.6459927
20
7.4862052
11
22.6419927
21
7.5291052
0
LINE
8
DEFAULT_255_2_778
10
22.6419927
20
7.5291052
11
22.6369927
21
7.5720052
0
LINE
8
DEFAULT_255_2_778
10
22.6369927
20
7.5720052
11
22.6314927
21
7.6109052
0
LINE
8
DEFAULT_255_2_778
10
22.6314927
20
7.6109052
11
22.6250927
21
7.6495052
0
LINE
8
DEFAULT_255_2_778
10
22.6250927
20
7.6495052
11
22.6094927
21
7.7265052
0
LINE
8
DEFAULT_255_2_778
10
22.6094927
20
7.7265052
11
22.5895927
21
7.8024052
0
LINE
8
DEFAULT_255_2_778
10
22.5895927
20
7.8024052
11
22.5673927
21
7.8715052
0
LINE
8
DEFAULT_255_2_778
10
22.5673927
20
7.8715052
11
22.5411927
21
7.9392052
0
LINE
8
DEFAULT_255_2_778
10
22.5411927
20
7.9392052
11
22.4872927
21
8.0495052
0
LINE
8
DEFAULT_255_2_778
10
22.4872927
20
8.0495052
11
22.4326927
21
8.1337052
0
LINE
8
DEFAULT_255_2_778
10
22.4326927
20
8.1337052
11
22.3686927
21
8.2062052
0
LINE
8
DEFAULT_255_2_778
10
22.3686927
20
8.2062052
11
22.2832927
21
8.2726052
0
LINE
8
DEFAULT_255_2_778
10
22.2832927
20
8.2726052
11
22.1853927
21
8.3173052
0
LINE
8
DEFAULT_255_2_778
10
22.1853927
20
8.3173052
11
22.0575927
21
8.3390052
0
LINE
8
DEFAULT_255_2_778
10
22.0575927
20
8.3390052
11
21.9284927
21
8.3282052
0
LINE
8
DEFAULT_255_2_778
10
21.9284927
20
8.3282052
11
21.8268927
21
8.2932052
0
LINE
8
DEFAULT_255_2_778
10
21.8268927
20
8.2932052
11
21.7360927
21
8.2348052
0
LINE
8
DEFAULT_255_2_778
10
21.7360927
20
8.2348052
11
21.6709927
21
8.1723052
0
LINE
8
DEFAULT_255_2_778
10
21.6709927
20
8.1723052
11
21.6103927
21
8.0924052
0
LINE
8
DEFAULT_255_2_778
10
21.6103927
20
8.0924052
11
21.5571927
21
7.9958052
0
LINE
8
DEFAULT_255_2_778
10
21.7101927
20
6.7814052
11
21.6849927
21
6.8587052
0
LINE
8
DEFAULT_255_2_778
10
21.6849927
20
6.8587052
11
21.6654927
21
6.9372052
0
LINE
8
DEFAULT_255_2_778
10
21.6654927
20
6.9372052
11
21.6521927
21
7.0074052
0
LINE
8
DEFAULT_255_2_778
10
21.6521927
20
7.0074052
11
21.6468927
21
7.0425052
0
LINE
8
DEFAULT_255_2_778
10
21.6468927
20
7.0425052
11
21.6423927
21
7.0780052
0
LINE
8
DEFAULT_255_2_778
10
21.6423927
20
7.0780052
11
21.6386927
21
7.1135052
0
LINE
8
DEFAULT_255_2_778
10
21.6386927
20
7.1135052
11
21.6352927
21
7.1526052
0
LINE
8
DEFAULT_255_2_778
10
21.6352927
20
7.1526052
11
21.6352927
21
7.4654052
0
LINE
8
DEFAULT_255_2_778
10
21.6352927
20
7.4654052
11
21.6386927
21
7.5040052
0
LINE
8
DEFAULT_255_2_778
10
21.6386927
20
7.5040052
11
21.6423927
21
7.5389052
0
LINE
8
DEFAULT_255_2_778
10
21.6423927
20
7.5389052
11
21.6468927
21
7.5738052
0
LINE
8
DEFAULT_255_2_778
10
21.6468927
20
7.5738052
11
21.6585927
21
7.6432052
0
LINE
8
DEFAULT_255_2_778
10
21.6585927
20
7.6432052
11
21.6717927
21
7.7035052
0
LINE
8
DEFAULT_255_2_778
10
21.6717927
20
7.7035052
11
21.6934927
21
7.7802052
0
LINE
8
DEFAULT_255_2_778
10
21.6934927
20
7.7802052
11
21.7259927
21
7.8672052
0
LINE
8
DEFAULT_255_2_778
10
21.7259927
20
7.8672052
11
21.7617927
21
7.9379052
0
LINE
8
DEFAULT_255_2_778
10
21.7617927
20
7.9379052
11
21.8236927
21
8.0202052
0
LINE
8
DEFAULT_255_2_778
10
21.8236927
20
8.0202052
11
21.9037927
21
8.0813052
0
LINE
8
DEFAULT_255_2_778
10
21.9037927
20
8.0813052
11
22.0091927
21
8.1115052
0
LINE
8
DEFAULT_255_2_778
10
22.0091927
20
8.1115052
11
22.1318927
21
8.0974052
0
LINE
8
DEFAULT_255_2_778
10
22.1318927
20
8.0974052
11
22.2178927
21
8.0498052
0
LINE
8
DEFAULT_255_2_778
10
22.2178927
20
8.0498052
11
22.2781927
21
7.9874052
0
LINE
8
DEFAULT_255_2_778
10
22.2781927
20
7.9874052
11
22.3213927
21
7.9210052
0
LINE
8
DEFAULT_255_2_778
10
22.3213927
20
7.9210052
11
22.3647927
21
7.8239052
0
LINE
8
DEFAULT_255_2_778
10
22.3647927
20
7.8239052
11
22.3842927
21
7.7662052
0
LINE
8
DEFAULT_255_2_778
10
22.3842927
20
7.7662052
11
22.4004927
21
7.7074052
0
LINE
8
DEFAULT_255_2_778
10
22.4004927
20
7.7074052
11
22.4144927
21
7.6434052
0
LINE
8
DEFAULT_255_2_778
10
22.4144927
20
7.6434052
11
22.4260927
21
7.5741052
0
LINE
8
DEFAULT_255_2_778
10
22.4260927
20
7.5741052
11
22.4305927
21
7.5392052
0
LINE
8
DEFAULT_255_2_778
10
22.4305927
20
7.5392052
11
22.4342927
21
7.5042052
0
LINE
8
DEFAULT_255_2_778
10
22.4342927
20
7.5042052
11
22.4377927
21
7.4656052
0
LINE
8
DEFAULT_255_2_778
10
22.4377927
20
7.4656052
11
22.4377927
21
7.1529052
0
LINE
8
DEFAULT_255_2_778
10
22.4377927
20
7.1529052
11
22.4342927
21
7.1137052
0
LINE
8
DEFAULT_255_2_778
10
22.4342927
20
7.1137052
11
22.4305927
21
7.0783052
0
LINE
8
DEFAULT_255_2_778
10
22.4305927
20
7.0783052
11
22.4260927
21
7.0428052
0
LINE
8
DEFAULT_255_2_778
10
22.4260927
20
7.0428052
11
22.4207927
21
7.0076052
0
LINE
8
DEFAULT_255_2_778
10
22.4207927
20
7.0076052
11
22.4075927
21
6.9375052
0
LINE
8
DEFAULT_255_2_778
10
22.4075927
20
6.9375052
11
22.3879927
21
6.8589052
0
LINE
8
DEFAULT_255_2_778
10
22.3879927
20
6.8589052
11
22.3557927
21
6.7629052
0
LINE
8
DEFAULT_255_2_778
10
22.3557927
20
6.7629052
11
22.3221927
21
6.6891052
0
LINE
8
DEFAULT_255_2_778
10
22.3221927
20
6.6891052
11
22.2697927
21
6.6089052
0
LINE
8
DEFAULT_255_2_778
10
22.2697927
20
6.6089052
11
22.2067927
21
6.5472052
0
LINE
8
DEFAULT_255_2_778
10
22.2067927
20
6.5472052
11
22.1186927
21
6.5031052
0
LINE
8
DEFAULT_255_2_778
10
22.1186927
20
6.5031052
11
21.9945927
21
6.4944052
0
LINE
8
DEFAULT_255_2_778
10
21.9945927
20
6.4944052
11
21.9027927
21
6.5237052
0
LINE
8
DEFAULT_255_2_778
10
21.9027927
20
6.5237052
11
21.8223927
21
6.5867052
0
LINE
8
DEFAULT_255_2_778
10
21.8223927
20
6.5867052
11
21.7707927
21
6.6542052
0
LINE
8
DEFAULT_255_2_778
10
21.7707927
20
6.6542052
11
21.7326927
21
6.7256052
0
LINE
8
DEFAULT_255_2_778
10
21.7326927
20
6.7256052
11
21.7101927
21
6.7814052
0
LINE
8
DEFAULT_255_2_778
10
23.4968678
20
8.3093927
11
23.7373678
21
8.3093927
0
LINE
8
DEFAULT_255_2_778
10
23.7373678
20
8.3093927
11
24.3937678
21
6.3093927
0
LINE
8
DEFAULT_255_2_778
10
24.3937678
20
6.3093927
11
24.1556678
21
6.3093927
0
LINE
8
DEFAULT_255_2_778
10
24.1556678
20
6.3093927
11
23.9945678
21
6.8308927
0
LINE
8
DEFAULT_255_2_778
10
23.9945678
20
6.8308927
11
23.2415678
21
6.8308927
0
LINE
8
DEFAULT_255_2_778
10
23.2415678
20
6.8308927
11
23.0827678
21
6.3093927
0
LINE
8
DEFAULT_255_2_778
10
23.0827678
20
6.3093927
11
22.8401678
21
6.3093927
0
LINE
8
DEFAULT_255_2_778
10
22.8401678
20
6.3093927
11
23.4968678
21
8.3093927
0
LINE
8
DEFAULT_255_2_778
10
23.3119678
20
7.0578927
11
23.9254678
21
7.0578927
0
LINE
8
DEFAULT_255_2_778
10
23.9254678
20
7.0578927
11
23.6182678
21
8.0513927
0
LINE
8
DEFAULT_255_2_778
10
23.6182678
20
8.0513927
11
23.3119678
21
7.0578927
0
LINE
8
DEFAULT_255_2_778
10
24.6808678
20
8.3093927
11
25.3745678
21
8.2977927
0
LINE
8
DEFAULT_255_2_778
10
25.3745678
20
8.2977927
11
25.5616678
21
8.2368927
0
LINE
8
DEFAULT_255_2_778
10
25.5616678
20
8.2368927
11
25.6706678
21
8.1548927
0
LINE
8
DEFAULT_255_2_778
10
25.6706678
20
8.1548927
11
25.7204678
21
8.0913927
0
LINE
8
DEFAULT_255_2_778
10
25.7204678
20
8.0913927
11
25.7524678
21
8.0254927
0
LINE
8
DEFAULT_255_2_778
10
25.7524678
20
8.0254927
11
25.7693678
21
7.9685927
0
LINE
8
DEFAULT_255_2_778
10
25.7693678
20
7.9685927
11
25.7778678
21
7.9243927
0
LINE
8
DEFAULT_255_2_778
10
25.7778678
20
7.9243927
11
25.7815678
21
7.8944927
0
LINE
8
DEFAULT_255_2_778
10
25.7815678
20
7.8944927
11
25.7807678
21
7.7322927
0
LINE
8
DEFAULT_255_2_778
10
25.7807678
20
7.7322927
11
25.7757678
21
7.6984927
0
LINE
8
DEFAULT_255_2_778
10
25.7757678
20
7.6984927
11
25.7643678
21
7.6484927
0
LINE
8
DEFAULT_255_2_778
10
25.7643678
20
7.6484927
11
25.7434678
21
7.5904927
0
LINE
8
DEFAULT_255_2_778
10
25.7434678
20
7.5904927
11
25.6950678
21
7.5068927
0
LINE
8
DEFAULT_255_2_778
10
25.6950678
20
7.5068927
11
25.6095678
21
7.4197927
0
LINE
8
DEFAULT_255_2_778
10
25.6095678
20
7.4197927
11
25.5026678
21
7.3639927
0
LINE
8
DEFAULT_255_2_778
10
25.5026678
20
7.3639927
11
25.6330678
21
7.3055927
0
LINE
8
DEFAULT_255_2_778
10
25.6330678
20
7.3055927
11
25.7211678
21
7.2309927
0
LINE
8
DEFAULT_255_2_778
10
25.7211678
20
7.2309927
11
25.7749678
21
7.1560927
0
LINE
8
DEFAULT_255_2_778
10
25.7749678
20
7.1560927
11
25.8029678
21
7.0967927
0
LINE
8
DEFAULT_255_2_778
10
25.8029678
20
7.0967927
11
25.8227678
21
7.0343927
0
LINE
8
DEFAULT_255_2_778
10
25.8227678
20
7.0343927
11
25.8309678
21
6.9978927
0
LINE
8
DEFAULT_255_2_778
10
25.8309678
20
6.9978927
11
25.8376678
21
6.9562927
0
LINE
8
DEFAULT_255_2_778
10
25.8376678
20
6.9562927
11
25.8370678
21
6.7295927
0
LINE
8
DEFAULT_255_2_778
10
25.8370678
20
6.7295927
11
25.8315678
21
6.6953927
0
LINE
8
DEFAULT_255_2_778
10
25.8315678
20
6.6953927
11
25.8198678
21
6.6451927
0
LINE
8
DEFAULT_255_2_778
10
25.8198678
20
6.6451927
11
25.8034678
21
6.5964927
0
LINE
8
DEFAULT_255_2_778
10
25.8034678
20
6.5964927
11
25.7667678
21
6.5250927
0
LINE
8
DEFAULT_255_2_778
10
25.7667678
20
6.5250927
11
25.6905678
21
6.4358927
0
LINE
8
DEFAULT_255_2_778
10
25.6905678
20
6.4358927
11
25.5939678
21
6.3694927
0
LINE
8
DEFAULT_255_2_778
10
25.5939678
20
6.3694927
11
25.4235678
21
6.3183927
0
LINE
8
DEFAULT_255_2_778
10
25.4235678
20
6.3183927
11
25.2806678
21
6.3093927
0
LINE
8
DEFAULT_255_2_778
10
25.2806678
20
6.3093927
11
24.6808678
21
6.3093927
0
LINE
8
DEFAULT_255_2_778
10
24.6808678
20
6.3093927
11
24.6808678
21
8.3093927
0
LINE
8
DEFAULT_255_2_778
10
25.2613678
20
6.5361927
11
25.4785678
21
6.5763927
0
LINE
8
DEFAULT_255_2_778
10
25.4785678
20
6.5763927
11
25.5574678
21
6.6398927
0
LINE
8
DEFAULT_255_2_778
10
25.5574678
20
6.6398927
11
25.5931678
21
6.7006927
0
LINE
8
DEFAULT_255_2_778
10
25.5931678
20
6.7006927
11
25.6108678
21
6.7546927
0
LINE
8
DEFAULT_255_2_778
10
25.6108678
20
6.7546927
11
25.6185678
21
6.7924927
0
LINE
8
DEFAULT_255_2_778
10
25.6185678
20
6.7924927
11
25.6177678
21
6.9763927
0
LINE
8
DEFAULT_255_2_778
10
25.6177678
20
6.9763927
11
25.6074678
21
7.0192927
0
LINE
8
DEFAULT_255_2_778
10
25.6074678
20
7.0192927
11
25.5865678
21
7.0695927
0
LINE
8
DEFAULT_255_2_778
10
25.5865678
20
7.0695927
11
25.5235678
21
7.1459927
0
LINE
8
DEFAULT_255_2_778
10
25.5235678
20
7.1459927
11
25.4105678
21
7.2084927
0
LINE
8
DEFAULT_255_2_778
10
25.4105678
20
7.2084927
11
25.2261678
21
7.2322927
0
LINE
8
DEFAULT_255_2_778
10
25.2261678
20
7.2322927
11
24.8996678
21
7.2322927
0
LINE
8
DEFAULT_255_2_778
10
24.8996678
20
7.2322927
11
24.8996678
21
6.5363927
0
LINE
8
DEFAULT_255_2_778
10
24.8996678
20
6.5363927
11
25.2613678
21
6.5361927
0
LINE
8
DEFAULT_255_2_778
10
25.1989678
20
7.4645927
11
25.3915678
21
7.4931927
0
LINE
8
DEFAULT_255_2_778
10
25.3915678
20
7.4931927
11
25.5042678
21
7.5695927
0
LINE
8
DEFAULT_255_2_778
10
25.5042678
20
7.5695927
11
25.5426678
21
7.6309927
0
LINE
8
DEFAULT_255_2_778
10
25.5426678
20
7.6309927
11
25.5568678
21
7.6764927
0
LINE
8
DEFAULT_255_2_778
10
25.5568678
20
7.6764927
11
25.5632678
21
7.7148927
0
LINE
8
DEFAULT_255_2_778
10
25.5632678
20
7.7148927
11
25.5613678
21
7.8365927
0
LINE
8
DEFAULT_255_2_778
10
25.5613678
20
7.8365927
11
25.5529678
21
7.8764927
0
LINE
8
DEFAULT_255_2_778
10
25.5529678
20
7.8764927
11
25.5304678
21
7.9323927
0
LINE
8
DEFAULT_255_2_778
10
25.5304678
20
7.9323927
11
25.4579678
21
8.0143927
0
LINE
8
DEFAULT_255_2_778
10
25.4579678
20
8.0143927
11
25.3142678
21
8.0741927
0
LINE
8
DEFAULT_255_2_778
10
25.3142678
20
8.0741927
11
25.1986678
21
8.0825927
0
LINE
8
DEFAULT_255_2_778
10
25.1986678
20
8.0825927
11
24.8994678
21
8.0825927
0
LINE
8
DEFAULT_255_2_778
10
24.8994678
20
8.0825927
11
24.8994678
21
7.4645927
0
LINE
8
DEFAULT_255_2_778
10
24.8994678
20
7.4645927
11
25.1989678
21
7.4645927
0
LINE
8
DEFAULT_255_2_778
10
26.1822927
20
7.9958052
11
26.1407927
21
7.9003052
0
LINE
8
DEFAULT_255_2_778
10
26.1407927
20
7.9003052
11
26.1177927
21
7.8350052
0
LINE
8
DEFAULT_255_2_778
10
26.1177927
20
7.8350052
11
26.0970927
21
7.7641052
0
LINE
8
DEFAULT_255_2_778
10
26.0970927
20
7.7641052
11
26.0793927
21
7.6876052
0
LINE
8
DEFAULT_255_2_778
10
26.0793927
20
7.6876052
11
26.0719927
21
7.6490052
0
LINE
8
DEFAULT_255_2_778
10
26.0719927
20
7.6490052
11
26.0656927
21
7.6103052
0
LINE
8
DEFAULT_255_2_778
10
26.0656927
20
7.6103052
11
26.0600927
21
7.5715052
0
LINE
8
DEFAULT_255_2_778
10
26.0600927
20
7.5715052
11
26.0550927
21
7.5286052
0
LINE
8
DEFAULT_255_2_778
10
26.0550927
20
7.5286052
11
26.0510927
21
7.4857052
0
LINE
8
DEFAULT_255_2_778
10
26.0510927
20
7.4857052
11
26.0481927
21
7.4426052
0
LINE
8
DEFAULT_255_2_778
10
26.0481927
20
7.4426052
11
26.0481927
21
7.1817052
0
LINE
8
DEFAULT_255_2_778
10
26.0481927
20
7.1817052
11
26.0510927
21
7.1381052
0
LINE
8
DEFAULT_255_2_778
10
26.0510927
20
7.1381052
11
26.0550927
21
7.0944052
0
LINE
8
DEFAULT_255_2_778
10
26.0550927
20
7.0944052
11
26.0600927
21
7.0507052
0
LINE
8
DEFAULT_255_2_778
10
26.0600927
20
7.0507052
11
26.0653927
21
7.0113052
0
LINE
8
DEFAULT_255_2_778
10
26.0653927
20
7.0113052
11
26.0716927
21
6.9719052
0
LINE
8
DEFAULT_255_2_778
10
26.0716927
20
6.9719052
11
26.0870927
21
6.8936052
0
LINE
8
DEFAULT_255_2_778
10
26.0870927
20
6.8936052
11
26.1066927
21
6.8163052
0
LINE
8
DEFAULT_255_2_778
10
26.1066927
20
6.8163052
11
26.1283927
21
6.7462052
0
LINE
8
DEFAULT_255_2_778
10
26.1283927
20
6.7462052
11
26.1539927
21
6.6774052
0
LINE
8
DEFAULT_255_2_778
10
26.1539927
20
6.6774052
11
26.1955927
21
6.5872052
0
LINE
8
DEFAULT_255_2_778
10
26.1955927
20
6.5872052
11
26.2476927
21
6.4986052
0
LINE
8
DEFAULT_255_2_778
10
26.2476927
20
6.4986052
11
26.3116927
21
6.4182052
0
LINE
8
DEFAULT_255_2_778
10
26.3116927
20
6.4182052
11
26.3944927
21
6.3459052
0
LINE
8
DEFAULT_255_2_778
10
26.3944927
20
6.3459052
11
26.4886927
21
6.2954052
0
LINE
8
DEFAULT_255_2_778
10
26.4886927
20
6.2954052
11
26.6220927
21
6.2660052
0
LINE
8
DEFAULT_255_2_778
10
26.6220927
20
6.2660052
11
26.7590927
21
6.2740052
0
LINE
8
DEFAULT_255_2_778
10
26.7590927
20
6.2740052
11
26.8720927
21
6.3123052
0
LINE
8
DEFAULT_255_2_778
10
26.8720927
20
6.3123052
11
26.9633927
21
6.3729052
0
LINE
8
DEFAULT_255_2_778
10
26.9633927
20
6.3729052
11
27.0284927
21
6.4374052
0
LINE
8
DEFAULT_255_2_778
10
27.0284927
20
6.4374052
11
27.0890927
21
6.5203052
0
LINE
8
DEFAULT_255_2_778
10
27.0890927
20
6.5203052
11
27.1384927
21
6.6105052
0
LINE
8
DEFAULT_255_2_778
10
27.1384927
20
6.6105052
11
27.1683927
21
6.6779052
0
LINE
8
DEFAULT_255_2_778
10
27.1683927
20
6.6779052
11
27.1940927
21
6.7470052
0
LINE
8
DEFAULT_255_2_778
10
27.1940927
20
6.7470052
11
27.2157927
21
6.8174052
0
LINE
8
DEFAULT_255_2_778
10
27.2157927
20
6.8174052
11
27.2350927
21
6.8946052
0
LINE
8
DEFAULT_255_2_778
10
27.2350927
20
6.8946052
11
27.2504927
21
6.9730052
0
LINE
8
DEFAULT_255_2_778
10
27.2504927
20
6.9730052
11
27.2567927
21
7.0124052
0
LINE
8
DEFAULT_255_2_778
10
27.2567927
20
7.0124052
11
27.2620927
21
7.0518052
0
LINE
8
DEFAULT_255_2_778
10
27.2620927
20
7.0518052
11
27.2670927
21
7.0952052
0
LINE
8
DEFAULT_255_2_778
10
27.2670927
20
7.0952052
11
27.2710927
21
7.1389052
0
LINE
8
DEFAULT_255_2_778
10
27.2710927
20
7.1389052
11
27.2739927
21
7.1825052
0
LINE
8
DEFAULT_255_2_778
10
27.2739927
20
7.1825052
11
27.2739927
21
7.4431052
0
LINE
8
DEFAULT_255_2_778
10
27.2739927
20
7.4431052
11
27.2710927
21
7.4862052
0
LINE
8
DEFAULT_255_2_778
10
27.2710927
20
7.4862052
11
27.2670927
21
7.5291052
0
LINE
8
DEFAULT_255_2_778
10
27.2670927
20
7.5291052
11
27.2620927
21
7.5720052
0
LINE
8
DEFAULT_255_2_778
10
27.2620927
20
7.5720052
11
27.2565927
21
7.6109052
0
LINE
8
DEFAULT_255_2_778
10
27.2565927
20
7.6109052
11
27.2501927
21
7.6495052
0
LINE
8
DEFAULT_255_2_778
10
27.2501927
20
7.6495052
11
27.2345927
21
7.7265052
0
LINE
8
DEFAULT_255_2_778
10
27.2345927
20
7.7265052
11
27.2146927
21
7.8024052
0
LINE
8
DEFAULT_255_2_778
10
27.2146927
20
7.8024052
11
27.1924927
21
7.8715052
0
LINE
8
DEFAULT_255_2_778
10
27.1924927
20
7.8715052
11
27.1662927
21
7.9392052
0
LINE
8
DEFAULT_255_2_778
10
27.1662927
20
7.9392052
11
27.1123927
21
8.0495052
0
LINE
8
DEFAULT_255_2_778
10
27.1123927
20
8.0495052
11
27.0577927
21
8.1337052
0
LINE
8
DEFAULT_255_2_778
10
27.0577927
20
8.1337052
11
26.9937927
21
8.2062052
0
LINE
8
DEFAULT_255_2_778
10
26.9937927
20
8.2062052
11
26.9083927
21
8.2726052
0
LINE
8
DEFAULT_255_2_778
10
26.9083927
20
8.2726052
11
26.8104927
21
8.3173052
0
LINE
8
DEFAULT_255_2_778
10
26.8104927
20
8.3173052
11
26.6826927
21
8.3390052
0
LINE
8
DEFAULT_255_2_778
10
26.6826927
20
8.3390052
11
26.5535927
21
8.3282052
0
LINE
8
DEFAULT_255_2_778
10
26.5535927
20
8.3282052
11
26.4519927
21
8.2932052
0
LINE
8
DEFAULT_255_2_778
10
26.4519927
20
8.2932052
11
26.3611927
21
8.2348052
0
LINE
8
DEFAULT_255_2_778
10
26.3611927
20
8.2348052
11
26.2960927
21
8.1723052
0
LINE
8
DEFAULT_255_2_778
10
26.2960927
20
8.1723052
11
26.2354927
21
8.0924052
0
LINE
8
DEFAULT_255_2_778
10
26.2354927
20
8.0924052
11
26.1822927
21
7.9958052
0
LINE
8
DEFAULT_255_2_778
10
26.3352927
20
6.7814052
11
26.3100927
21
6.8587052
0
LINE
8
DEFAULT_255_2_778
10
26.3100927
20
6.8587052
11
26.2905927
21
6.9372052
0
LINE
8
DEFAULT_255_2_778
10
26.2905927
20
6.9372052
11
26.2772927
21
7.0074052
0
LINE
8
DEFAULT_255_2_778
10
26.2772927
20
7.0074052
11
26.2719927
21
7.0425052
0
LINE
8
DEFAULT_255_2_778
10
26.2719927
20
7.0425052
11
26.2674927
21
7.0780052
0
LINE
8
DEFAULT_255_2_778
10
26.2674927
20
7.0780052
11
26.2637927
21
7.1135052
0
LINE
8
DEFAULT_255_2_778
10
26.2637927
20
7.1135052
11
26.2603927
21
7.1526052
0
LINE
8
DEFAULT_255_2_778
10
26.2603927
20
7.1526052
11
26.2603927
21
7.4654052
0
LINE
8
DEFAULT_255_2_778
10
26.2603927
20
7.4654052
11
26.2637927
21
7.5040052
0
LINE
8
DEFAULT_255_2_778
10
26.2637927
20
7.5040052
11
26.2674927
21
7.5389052
0
LINE
8
DEFAULT_255_2_778
10
26.2674927
20
7.5389052
11
26.2719927
21
7.5738052
0
LINE
8
DEFAULT_255_2_778
10
26.2719927
20
7.5738052
11
26.2836927
21
7.6432052
0
LINE
8
DEFAULT_255_2_778
10
26.2836927
20
7.6432052
11
26.2968927
21
7.7035052
0
LINE
8
DEFAULT_255_2_778
10
26.2968927
20
7.7035052
11
26.3185927
21
7.7802052
0
LINE
8
DEFAULT_255_2_778
10
26.3185927
20
7.7802052
11
26.3510927
21
7.8672052
0
LINE
8
DEFAULT_255_2_778
10
26.3510927
20
7.8672052
11
26.3868927
21
7.9379052
0
LINE
8
DEFAULT_255_2_778
10
26.3868927
20
7.9379052
11
26.4487927
21
8.0202052
0
LINE
8
DEFAULT_255_2_778
10
26.4487927
20
8.0202052
11
26.5288927
21
8.0813052
0
LINE
8
DEFAULT_255_2_778
10
26.5288927
20
8.0813052
11
26.6342927
21
8.1115052
0
LINE
8
DEFAULT_255_2_778
10
26.6342927
20
8.1115052
11
26.7569927
21
8.0974052
0
LINE
8
DEFAULT_255_2_778
10
26.7569927
20
8.0974052
11
26.8429927
21
8.0498052
0
LINE
8
DEFAULT_255_2_778
10
26.8429927
20
8.0498052
11
26.9032927
21
7.9874052
0
LINE
8
DEFAULT_255_2_778
10
26.9032927
20
7.9874052
11
26.9464927
21
7.9210052
0
LINE
8
DEFAULT_255_2_778
10
26.9464927
20
7.9210052
11
26.9898927
21
7.8239052
0
LINE
8
DEFAULT_255_2_778
10
26.9898927
20
7.8239052
11
27.0093927
21
7.7662052
0
LINE
8
DEFAULT_255_2_778
10
27.0093927
20
7.7662052
11
27.0255927
21
7.7074052
0
LINE
8
DEFAULT_255_2_778
10
27.0255927
20
7.7074052
11
27.0395927
21
7.6434052
0
LINE
8
DEFAULT_255_2_778
10
27.0395927
20
7.6434052
11
27.0511927
21
7.5741052
0
LINE
8
DEFAULT_255_2_778
10
27.0511927
20
7.5741052
11
27.0556927
21
7.5392052
0
LINE
8
DEFAULT_255_2_778
10
27.0556927
20
7.5392052
11
27.0593927
21
7.5042052
0
LINE
8
DEFAULT_255_2_778
10
27.0593927
20
7.5042052
11
27.0628927
21
7.4656052
0
LINE
8
DEFAULT_255_2_778
10
27.0628927
20
7.4656052
11
27.0628927
21
7.1529052
0
LINE
8
DEFAULT_255_2_778
10
27.0628927
20
7.1529052
11
27.0593927
21
7.1137052
0
LINE
8
DEFAULT_255_2_778
10
27.0593927
20
7.1137052
11
27.0556927
21
7.0783052
0
LINE
8
DEFAULT_255_2_778
10
27.0556927
20
7.0783052
11
27.0511927
21
7.0428052
0
LINE
8
DEFAULT_255_2_778
10
27.0511927
20
7.0428052
11
27.0458927
21
7.0076052
0
LINE
8
DEFAULT_255_2_778
10
27.0458927
20
7.0076052
11
27.0326927
21
6.9375052
0
LINE
8
DEFAULT_255_2_778
10
27.0326927
20
6.9375052
11
27.0130927
21
6.8589052
0
LINE
8
DEFAULT_255_2_778
10
27.0130927
20
6.8589052
11
26.9808927
21
6.7629052
0
LINE
8
DEFAULT_255_2_778
10
26.9808927
20
6.7629052
11
26.9472927
21
6.6891052
0
LINE
8
DEFAULT_255_2_778
10
26.9472927
20
6.6891052
11
26.8948927
21
6.6089052
0
LINE
8
DEFAULT_255_2_778
10
26.8948927
20
6.6089052
11
26.8318927
21
6.5472052
0
LINE
8
DEFAULT_255_2_778
10
26.8318927
20
6.5472052
11
26.7437927
21
6.5031052
0
LINE
8
DEFAULT_255_2_778
10
26.7437927
20
6.5031052
11
26.6196927
21
6.4944052
0
LINE
8
DEFAULT_255_2_778
10
26.6196927
20
6.4944052
11
26.5278927
21
6.5237052
0
LINE
8
DEFAULT_255_2_778
10
26.5278927
20
6.5237052
11
26.4474927
21
6.5867052
0
LINE
8
DEFAULT_255_2_778
10
26.4474927
20
6.5867052
11
26.3958927
21
6.6542052
0
LINE
8
DEFAULT_255_2_778
10
26.3958927
20
6.6542052
11
26.3577927
21
6.7256052
0
LINE
8
DEFAULT_255_2_778
10
26.3577927
20
6.7256052
11
26.3352927
21
6.7814052
0
ENDSEC
0
EOF