0
SECTION
2
HEADER
9
$MEASUREMENT
70
1
0
ENDSEC
0
SECTION
2
TABLES
0
TABLE
2
LTYPE
0
LTYPE
72
65
70
64
2
CONTINUOUS
3
______
73
0
40
0
0
ENDTAB
0
TABLE
2
LAYER
0
LAYER
2
DEFAULT_255_2_778
70
0
62
255
6
CONTINUOUS
0
ENDTAB
0
ENDSEC
0
SECTION
2
ENTITIES
0
ARC
8
DEFAULT_255_2_778
10
18.9863486
20
109.8112658
40
3.4944039
50
19.1888591
51
40.69537
0
ARC
8
DEFAULT_255_2_778
10
18.9804694
20
109.8063895
40
3.5020409
50
40.6931387
51
82.4790056
0
ARC
8
DEFAULT_255_2_778
10
18.9816303
20
109.7991576
40
3.5090593
50
82.5132546
51
90.0069532
0
ARC
8
DEFAULT_255_2_778
10
18.9796106
20
109.8136207
40
3.4945966
50
89.9738673
51
111.4796819
0
ARC
8
DEFAULT_255_2_778
10
18.9822016
20
109.8066569
40
3.5020256
50
111.4774089
51
153.2642235
0
ARC
8
DEFAULT_255_2_778
10
18.9895616
20
109.8052956
40
3.5092118
50
153.2984346
51
160.7920709
0
ARC
8
DEFAULT_255_2_778
10
0.9974548
20
0.3093501
40
0.4999332
50
269.9942327
51
357.0035927
0
LINE
8
DEFAULT_255_2_778
10
0.1812045
20
128.263517
11
0.1844045
21
128.319317
0
LINE
8
DEFAULT_255_2_778
10
0.1844045
20
128.319317
11
0.1939045
21
128.374617
0
LINE
8
DEFAULT_255_2_778
10
0.1939045
20
128.374617
11
0.2095045
21
128.428317
0
LINE
8
DEFAULT_255_2_778
10
0.2095045
20
128.428317
11
0.2309045
21
128.480217
0
LINE
8
DEFAULT_255_2_778
10
0.2309045
20
128.480217
11
0.2582045
21
128.529217
0
LINE
8
DEFAULT_255_2_778
10
0.2582045
20
128.529217
11
0.2907045
21
128.574917
0
LINE
8
DEFAULT_255_2_778
10
0.2907045
20
128.574917
11
0.3280045
21
128.616717
0
LINE
8
DEFAULT_255_2_778
10
0.3280045
20
128.616717
11
0.3698045
21
128.654017
0
LINE
8
DEFAULT_255_2_778
10
0.3698045
20
128.654017
11
0.4156045
21
128.686617
0
LINE
8
DEFAULT_255_2_778
10
0.4156045
20
128.686617
11
0.4648045
21
128.713817
0
LINE
8
DEFAULT_255_2_778
10
0.4648045
20
128.713817
11
0.5167045
21
128.735317
0
LINE
8
DEFAULT_255_2_778
10
0.5167045
20
128.735317
11
0.5707045
21
128.750917
0
LINE
8
DEFAULT_255_2_778
10
0.5707045
20
128.750917
11
0.6260045
21
128.760417
0
LINE
8
DEFAULT_255_2_778
10
15.6757045
20
110.959817
11
15.6580045
21
110.899717
0
LINE
8
DEFAULT_255_2_778
10
15.6580045
20
110.899717
11
15.6469045
21
110.840417
0
LINE
8
DEFAULT_255_2_778
10
15.6469045
20
110.840417
11
15.6421045
21
110.782217
0
LINE
8
DEFAULT_255_2_778
10
15.6421045
20
110.782217
11
15.6434045
21
110.725617
0
LINE
8
DEFAULT_255_2_778
10
15.6434045
20
110.725617
11
15.6506045
21
110.670817
0
LINE
8
DEFAULT_255_2_778
10
15.6506045
20
110.670817
11
15.6633045
21
110.618217
0
LINE
8
DEFAULT_255_2_778
10
15.6633045
20
110.618217
11
15.6810045
21
110.568217
0
LINE
8
DEFAULT_255_2_778
10
15.6810045
20
110.568217
11
15.6405045
21
110.373717
0
LINE
8
DEFAULT_255_2_778
10
15.6405045
20
110.373717
11
15.6114045
21
110.177117
0
LINE
8
DEFAULT_255_2_778
10
15.6114045
20
110.177117
11
15.5940045
21
109.979217
0
LINE
8
DEFAULT_255_2_778
10
15.5940045
20
109.979217
11
15.5882045
21
109.780517
0
LINE
8
DEFAULT_255_2_778
10
15.5882045
20
109.780517
11
15.5971045
21
109.532917
0
LINE
8
DEFAULT_255_2_778
10
15.5971045
20
109.532917
11
15.6244045
21
109.286517
0
LINE
8
DEFAULT_255_2_778
10
15.6244045
20
109.286517
11
15.6694045
21
109.042917
0
LINE
8
DEFAULT_255_2_778
10
15.6694045
20
109.042917
11
15.7321045
21
108.802917
0
LINE
8
DEFAULT_255_2_778
10
15.7321045
20
108.802917
11
15.8123045
21
108.568517
0
LINE
8
DEFAULT_255_2_778
10
15.8123045
20
108.568517
11
15.9094045
21
108.340417
0
LINE
8
DEFAULT_255_2_778
10
15.9094045
20
108.340417
11
16.0229045
21
108.120317
0
LINE
8
DEFAULT_255_2_778
10
16.0229045
20
108.120317
11
16.1522045
21
107.908617
0
LINE
8
DEFAULT_255_2_778
10
16.1522045
20
107.908617
11
16.2964045
21
107.707217
0
LINE
8
DEFAULT_255_2_778
10
16.2964045
20
107.707217
11
16.4552045
21
107.517017
0
LINE
8
DEFAULT_255_2_778
10
16.4552045
20
107.517017
11
16.6272045
21
107.338917
0
LINE
8
DEFAULT_255_2_778
10
16.6272045
20
107.338917
11
16.8118045
21
107.173817
0
LINE
8
DEFAULT_255_2_778
10
16.8118045
20
107.173817
11
17.0079045
21
107.022817
0
LINE
8
DEFAULT_255_2_778
10
17.0079045
20
107.022817
11
17.2145045
21
106.886217
0
LINE
8
DEFAULT_255_2_778
10
17.2145045
20
106.886217
11
17.4307045
21
106.765117
0
LINE
8
DEFAULT_255_2_778
10
17.4307045
20
106.765117
11
17.6551045
21
106.660017
0
LINE
8
DEFAULT_255_2_778
10
17.6551045
20
106.660017
11
17.8866045
21
106.571617
0
LINE
8
DEFAULT_255_2_778
10
17.8866045
20
106.571617
11
18.1237045
21
106.500517
0
LINE
8
DEFAULT_255_2_778
10
18.1237045
20
106.500517
11
18.3655045
21
106.446817
0
LINE
8
DEFAULT_255_2_778
10
18.3655045
20
106.446817
11
18.6102045
21
106.410817
0
LINE
8
DEFAULT_255_2_778
10
18.6102045
20
106.410817
11
18.8571045
21
106.392817
0
LINE
8
DEFAULT_255_2_778
10
18.8571045
20
106.392817
11
19.1045045
21
106.392817
0
LINE
8
DEFAULT_255_2_778
10
19.1045045
20
106.392817
11
19.3513045
21
106.410817
0
LINE
8
DEFAULT_255_2_778
10
19.3513045
20
106.410817
11
19.5961045
21
106.446817
0
LINE
8
DEFAULT_255_2_778
10
19.5961045
20
106.446817
11
19.8379045
21
106.500517
0
LINE
8
DEFAULT_255_2_778
10
19.8379045
20
106.500517
11
20.0750045
21
106.571617
0
LINE
8
DEFAULT_255_2_778
10
20.0750045
20
106.571617
11
20.3065045
21
106.660017
0
LINE
8
DEFAULT_255_2_778
10
20.3065045
20
106.660017
11
20.5308045
21
106.765117
0
LINE
8
DEFAULT_255_2_778
10
20.5308045
20
106.765117
11
20.7470045
21
106.886217
0
LINE
8
DEFAULT_255_2_778
10
20.7470045
20
106.886217
11
20.9536045
21
107.022817
0
LINE
8
DEFAULT_255_2_778
10
20.9536045
20
107.022817
11
21.1497045
21
107.173817
0
LINE
8
DEFAULT_255_2_778
10
21.1497045
20
107.173817
11
21.3344045
21
107.338917
0
LINE
8
DEFAULT_255_2_778
10
21.3344045
20
107.338917
11
21.5064045
21
107.517017
0
LINE
8
DEFAULT_255_2_778
10
21.5064045
20
107.517017
11
21.6651045
21
107.707217
0
LINE
8
DEFAULT_255_2_778
10
21.6651045
20
107.707217
11
21.8093045
21
107.908617
0
LINE
8
DEFAULT_255_2_778
10
21.8093045
20
107.908617
11
21.9387045
21
108.120017
0
LINE
8
DEFAULT_255_2_778
10
21.9387045
20
108.120017
11
22.0522045
21
108.340117
0
LINE
8
DEFAULT_255_2_778
10
22.0522045
20
108.340117
11
22.1493045
21
108.568217
0
LINE
8
DEFAULT_255_2_778
10
22.1493045
20
108.568217
11
22.2295045
21
108.802617
0
LINE
8
DEFAULT_255_2_778
10
22.2295045
20
108.802617
11
22.2922045
21
109.042617
0
LINE
8
DEFAULT_255_2_778
10
22.2922045
20
109.042617
11
22.3371045
21
109.286317
0
LINE
8
DEFAULT_255_2_778
10
22.3371045
20
109.286317
11
22.3644045
21
109.532617
0
LINE
8
DEFAULT_255_2_778
10
22.3644045
20
109.532617
11
22.3734045
21
109.780317
0
LINE
8
DEFAULT_255_2_778
10
22.3734045
20
109.780317
11
22.3676045
21
109.979017
0
LINE
8
DEFAULT_255_2_778
10
22.3676045
20
109.979017
11
22.3501045
21
110.176917
0
LINE
8
DEFAULT_255_2_778
10
22.3501045
20
110.176917
11
22.3210045
21
110.373417
0
LINE
8
DEFAULT_255_2_778
10
22.3210045
20
110.373417
11
22.2805045
21
110.567917
0
LINE
8
DEFAULT_255_2_778
10
22.2805045
20
110.567917
11
22.2982045
21
110.617917
0
LINE
8
DEFAULT_255_2_778
10
22.2982045
20
110.617917
11
22.3109045
21
110.670617
0
LINE
8
DEFAULT_255_2_778
10
22.3109045
20
110.670617
11
22.3181045
21
110.725317
0
LINE
8
DEFAULT_255_2_778
10
22.3181045
20
110.725317
11
22.3194045
21
110.782017
0
LINE
8
DEFAULT_255_2_778
10
22.3194045
20
110.782017
11
22.3147045
21
110.840217
0
LINE
8
DEFAULT_255_2_778
10
22.3147045
20
110.840217
11
22.3035045
21
110.899417
0
LINE
8
DEFAULT_255_2_778
10
22.3035045
20
110.899417
11
22.2858045
21
110.959517
0
LINE
8
DEFAULT_255_2_778
10
1.6814045
20
3.809317
11
1.4967045
21
0.283217
0
ARC
8
DEFAULT_255_2_778
10
0.6813032
20
0.3094791
40
0.5000758
50
180.008676
51
270.0027763
0
ARC
8
DEFAULT_255_2_778
10
4.5807028
20
0.4100282
40
0.600625
50
270.0500466
51
359.9404002
0
ARC
8
DEFAULT_255_2_778
10
24.0982398
20
2.1445971
40
0.5000937
50
269.9985863
51
357.9953332
0
ARC
8
DEFAULT_255_2_778
10
6.0642151
20
2.1445971
40
0.5000937
50
182.0046668
51
270.0014137
0
LINE
8
DEFAULT_255_2_778
10
0.1812274
20
4.3094034
11
0.1812274
21
0.3094034
0
LINE
8
DEFAULT_255_2_778
10
0.6813274
20
-0.1905966
11
4.5812274
21
-0.1905966
0
LINE
8
DEFAULT_255_2_778
10
5.1813274
20
0.4094034
11
5.1813274
21
3.8093034
0
LINE
8
DEFAULT_255_2_778
10
24.6567274
20
3.8093034
11
24.5980274
21
2.1271034
0
LINE
8
DEFAULT_255_2_778
10
24.0982274
20
1.6445034
11
6.0642274
21
1.6445034
0
LINE
8
DEFAULT_255_2_778
10
5.5644274
20
2.1271034
11
5.5057274
21
3.8093034
0
ARC
8
DEFAULT_255_2_778
10
29.1657246
20
0.3096188
40
0.500228
50
183.0169778
51
269.973128
0
LINE
8
DEFAULT_255_2_778
10
29.98119
20
4.3096909
11
29.97799
21
4.2538909
0
LINE
8
DEFAULT_255_2_778
10
29.97799
20
4.2538909
11
29.96879
21
4.1982909
0
LINE
8
DEFAULT_255_2_778
10
29.96879
20
4.1982909
11
29.95319
21
4.1443909
0
LINE
8
DEFAULT_255_2_778
10
29.95319
20
4.1443909
11
29.93169
21
4.0927909
0
LINE
8
DEFAULT_255_2_778
10
29.93169
20
4.0927909
11
29.90449
21
4.0434909
0
LINE
8
DEFAULT_255_2_778
10
29.90449
20
4.0434909
11
29.87189
21
3.9974909
0
LINE
8
DEFAULT_255_2_778
10
29.87189
20
3.9974909
11
29.83459
21
3.9556909
0
LINE
8
DEFAULT_255_2_778
10
29.83459
20
3.9556909
11
29.79279
21
3.9183909
0
LINE
8
DEFAULT_255_2_778
10
29.79279
20
3.9183909
11
29.74709
21
3.8858909
0
LINE
8
DEFAULT_255_2_778
10
29.74709
20
3.8858909
11
29.69789
21
3.8585909
0
LINE
8
DEFAULT_255_2_778
10
29.69789
20
3.8585909
11
29.64629
21
3.8371909
0
LINE
8
DEFAULT_255_2_778
10
29.64629
20
3.8371909
11
29.59229
21
3.8215909
0
LINE
8
DEFAULT_255_2_778
10
29.59229
20
3.8215909
11
29.53699
21
3.8119909
0
LINE
8
DEFAULT_255_2_778
10
29.53699
20
3.8119909
11
29.48119
21
3.8088909
0
LINE
8
DEFAULT_255_2_778
10
29.48119
20
3.8088909
11
0.68129
21
3.8088909
0
LINE
8
DEFAULT_255_2_778
10
0.68129
20
3.8088909
11
0.62539
21
3.8119909
0
LINE
8
DEFAULT_255_2_778
10
0.62539
20
3.8119909
11
0.57009
21
3.8215909
0
LINE
8
DEFAULT_255_2_778
10
0.57009
20
3.8215909
11
0.51619
21
3.8371909
0
LINE
8
DEFAULT_255_2_778
10
0.51619
20
3.8371909
11
0.46459
21
3.8585909
0
LINE
8
DEFAULT_255_2_778
10
0.46459
20
3.8585909
11
0.41539
21
3.8858909
0
LINE
8
DEFAULT_255_2_778
10
0.41539
20
3.8858909
11
0.36959
21
3.9183909
0
LINE
8
DEFAULT_255_2_778
10
0.36959
20
3.9183909
11
0.32779
21
3.9556909
0
LINE
8
DEFAULT_255_2_778
10
0.32779
20
3.9556909
11
0.29049
21
3.9974909
0
LINE
8
DEFAULT_255_2_778
10
0.29049
20
3.9974909
11
0.25789
21
4.0434909
0
LINE
8
DEFAULT_255_2_778
10
0.25789
20
4.0434909
11
0.23069
21
4.0927909
0
LINE
8
DEFAULT_255_2_778
10
0.23069
20
4.0927909
11
0.20919
21
4.1443909
0
LINE
8
DEFAULT_255_2_778
10
0.20919
20
4.1443909
11
0.19359
21
4.1982909
0
LINE
8
DEFAULT_255_2_778
10
0.19359
20
4.1982909
11
0.18409
21
4.2538909
0
LINE
8
DEFAULT_255_2_778
10
0.18409
20
4.2538909
11
0.18119
21
4.3096909
0
LINE
8
DEFAULT_255_2_778
10
0.18119
20
4.3096909
11
0.18119
21
128.3090909
0
LINE
8
DEFAULT_255_2_778
10
0.18119
20
128.3090909
11
0.18439
21
128.3648909
0
LINE
8
DEFAULT_255_2_778
10
0.18439
20
128.3648909
11
0.19389
21
128.4204909
0
LINE
8
DEFAULT_255_2_778
10
0.19389
20
128.4204909
11
0.20949
21
128.4743909
0
LINE
8
DEFAULT_255_2_778
10
0.20949
20
128.4743909
11
0.23089
21
128.5259909
0
LINE
8
DEFAULT_255_2_778
10
0.23089
20
128.5259909
11
0.25789
21
128.5751909
0
LINE
8
DEFAULT_255_2_778
10
0.25789
20
128.5751909
11
0.29049
21
128.6209909
0
LINE
8
DEFAULT_255_2_778
10
0.29049
20
128.6209909
11
0.32779
21
128.6627909
0
LINE
8
DEFAULT_255_2_778
10
0.32779
20
128.6627909
11
0.36959
21
128.7000909
0
LINE
8
DEFAULT_255_2_778
10
0.36959
20
128.7000909
11
0.41539
21
128.7326909
0
LINE
8
DEFAULT_255_2_778
10
0.41539
20
128.7326909
11
0.46459
21
128.7598909
0
LINE
8
DEFAULT_255_2_778
10
0.46459
20
128.7598909
11
0.51619
21
128.7813909
0
LINE
8
DEFAULT_255_2_778
10
0.51619
20
128.7813909
11
0.57009
21
128.7969909
0
LINE
8
DEFAULT_255_2_778
10
0.57009
20
128.7969909
11
0.62539
21
128.8064909
0
LINE
8
DEFAULT_255_2_778
10
0.62539
20
128.8064909
11
0.68129
21
128.8093909
0
LINE
8
DEFAULT_255_2_778
10
0.68129
20
128.8093909
11
29.48119
21
128.8093909
0
LINE
8
DEFAULT_255_2_778
10
29.48119
20
128.8093909
11
29.53699
21
128.8061909
0
LINE
8
DEFAULT_255_2_778
10
29.53699
20
128.8061909
11
29.59229
21
128.7966909
0
LINE
8
DEFAULT_255_2_778
10
29.59229
20
128.7966909
11
29.64629
21
128.7810909
0
LINE
8
DEFAULT_255_2_778
10
29.64629
20
128.7810909
11
29.69789
21
128.7596909
0
LINE
8
DEFAULT_255_2_778
10
29.69789
20
128.7596909
11
29.74709
21
128.7323909
0
LINE
8
DEFAULT_255_2_778
10
29.74709
20
128.7323909
11
29.79279
21
128.6998909
0
LINE
8
DEFAULT_255_2_778
10
29.79279
20
128.6998909
11
29.83459
21
128.6625909
0
LINE
8
DEFAULT_255_2_778
10
29.83459
20
128.6625909
11
29.87189
21
128.6207909
0
LINE
8
DEFAULT_255_2_778
10
29.87189
20
128.6207909
11
29.90449
21
128.5746909
0
LINE
8
DEFAULT_255_2_778
10
29.90449
20
128.5746909
11
29.93169
21
128.5254909
0
LINE
8
DEFAULT_255_2_778
10
29.93169
20
128.5254909
11
29.95319
21
128.4738909
0
LINE
8
DEFAULT_255_2_778
10
29.95319
20
128.4738909
11
29.96879
21
128.4198909
0
LINE
8
DEFAULT_255_2_778
10
29.96879
20
128.4198909
11
29.97799
21
128.3643909
0
LINE
8
DEFAULT_255_2_778
10
29.97799
20
128.3643909
11
29.98119
21
128.3084909
0
LINE
8
DEFAULT_255_2_778
10
28.66619
20
0.2832909
11
28.48159
21
3.8093909
0
ARC
8
DEFAULT_255_2_778
10
29.4812139
20
0.3094483
40
0.5000969
50
269.9996485
51
0.0003515
0
ARC
8
DEFAULT_255_2_778
10
25.5818569
20
0.4099975
40
0.6006464
50
180.0520945
51
269.9479055
0
LINE
8
DEFAULT_255_2_778
10
22.0940108
20
111.4092513
11
27.9813108
21
111.4092513
0
LINE
8
DEFAULT_255_2_778
10
27.9813108
20
111.4092513
11
27.9813108
21
108.5681513
0
LINE
8
DEFAULT_255_2_778
10
27.9813108
20
108.5681513
11
27.2812108
21
108.5681513
0
LINE
8
DEFAULT_255_2_778
10
27.2812108
20
108.5681513
11
27.2812108
21
58.5092513
0
LINE
8
DEFAULT_255_2_778
10
27.2812108
20
58.5092513
11
10.9813108
21
58.5092513
0
LINE
8
DEFAULT_255_2_778
10
10.9813108
20
58.5092513
11
10.9813108
21
108.5681513
0
LINE
8
DEFAULT_255_2_778
10
10.9813108
20
108.5681513
11
10.2812108
21
108.5681513
0
LINE
8
DEFAULT_255_2_778
10
10.2812108
20
108.5681513
11
10.2812108
21
111.4092513
0
LINE
8
DEFAULT_255_2_778
10
10.2812108
20
111.4092513
11
15.8684108
21
111.4092513
0
LINE
8
DEFAULT_255_2_778
10
29.9802108
20
128.2986513
11
29.9802108
21
4.2993513
0
LINE
8
DEFAULT_255_2_778
10
29.9813108
20
4.3093513
11
29.9813108
21
0.3094513
0
LINE
8
DEFAULT_255_2_778
10
29.4812108
20
-0.1906487
11
25.5813108
21
-0.1906487
0
LINE
8
DEFAULT_255_2_778
10
24.9812108
20
0.4094513
11
24.9812108
21
3.8093513
0
LINE
8
DEFAULT_255_2_778
10
0.8813108
20
109.4092513
11
4.9313108
21
109.4092513
0
LINE
8
DEFAULT_255_2_778
10
0.6247108
20
128.7598513
11
0.6813108
21
128.7632513
0
LINE
8
DEFAULT_255_2_778
10
0.6813108
20
128.7632513
11
1.7725108
21
128.7236513
0
LINE
8
DEFAULT_255_2_778
10
1.7725108
20
128.7236513
11
3.9886108
21
128.7220513
0
LINE
8
DEFAULT_255_2_778
10
3.9886108
20
128.7220513
11
5.1295108
21
128.7598513
0
LINE
8
DEFAULT_255_2_778
10
5.1295108
20
128.7598513
11
5.3316108
21
128.7770513
0
LINE
8
DEFAULT_255_2_778
10
5.3316108
20
128.7770513
11
5.4012108
21
128.7701513
0
LINE
8
DEFAULT_255_2_778
10
5.4012108
20
128.7701513
11
5.4660108
21
128.7548513
0
LINE
8
DEFAULT_255_2_778
10
5.4660108
20
128.7548513
11
5.5250108
21
128.7323513
0
LINE
8
DEFAULT_255_2_778
10
5.5250108
20
128.7323513
11
5.5780108
21
128.7037513
0
LINE
8
DEFAULT_255_2_778
10
5.5780108
20
128.7037513
11
5.6248108
21
128.6701513
0
LINE
8
DEFAULT_255_2_778
10
5.6248108
20
128.6701513
11
5.6655108
21
128.6325513
0
LINE
8
DEFAULT_255_2_778
10
5.6655108
20
128.6325513
11
5.7007108
21
128.5918513
0
LINE
8
DEFAULT_255_2_778
10
5.7007108
20
128.5918513
11
5.7304108
21
128.5489513
0
LINE
8
DEFAULT_255_2_778
10
5.7304108
20
128.5489513
11
5.7547108
21
128.5045513
0
LINE
8
DEFAULT_255_2_778
10
5.7547108
20
128.5045513
11
5.7743108
21
128.4590513
0
LINE
8
DEFAULT_255_2_778
10
5.7743108
20
128.4590513
11
5.7894108
21
128.4129513
0
LINE
8
DEFAULT_255_2_778
10
5.7894108
20
128.4129513
11
5.8002108
21
128.3666513
0
LINE
8
DEFAULT_255_2_778
10
5.8002108
20
128.3666513
11
5.8071108
21
128.3203513
0
LINE
8
DEFAULT_255_2_778
10
5.8071108
20
128.3203513
11
5.8089108
21
3.8093513
0
ARC
8
DEFAULT_255_2_778
10
2.9300696
20
97.5104304
40
0.5488398
50
89.8682888
51
180.1317112
0
ARC
8
DEFAULT_255_2_778
10
2.9325782
20
97.5105154
40
0.5487547
50
359.8593896
51
90.1301939
0
ARC
8
DEFAULT_255_2_778
10
2.9326632
20
97.5078368
40
0.5486696
50
269.8609058
51
0.1390942
0
ARC
8
DEFAULT_255_2_778
10
2.9299846
20
97.5079218
40
0.5487547
50
179.8698061
51
270.1406104
0
LINE
8
DEFAULT_255_2_778
10
2.3812313
20
97.5091687
11
2.3812313
21
97.5091687
0
ARC
8
DEFAULT_255_2_778
10
2.9300696
20
61.1106304
40
0.5488398
50
89.8682888
51
180.1317112
0
ARC
8
DEFAULT_255_2_778
10
2.9325782
20
61.1107154
40
0.5487547
50
359.8593896
51
90.1301939
0
ARC
8
DEFAULT_255_2_778
10
2.9326632
20
61.1080368
40
0.5486696
50
269.8609058
51
0.1390942
0
ARC
8
DEFAULT_255_2_778
10
2.9299846
20
61.1081218
40
0.5487547
50
179.8698061
51
270.1406104
0
LINE
8
DEFAULT_255_2_778
10
2.3812313
20
61.1093687
11
2.3812313
21
61.1093687
0
LINE
8
DEFAULT_255_2_778
10
0.8813115
20
64.80926
11
4.9313115
21
64.80926
0
LINE
8
DEFAULT_255_2_778
10
0.8813115
20
62.60926
11
4.9313115
21
62.60926
0
LINE
8
DEFAULT_255_2_778
10
0.8813115
20
59.60946
11
4.9313115
21
59.60946
0
LINE
8
DEFAULT_255_2_778
10
0.8813115
20
75.20926
11
4.9313115
21
75.20926
0
LINE
8
DEFAULT_255_2_778
10
0.8813115
20
73.00926
11
4.9313115
21
73.00926
0
LINE
8
DEFAULT_255_2_778
10
0.8813115
20
70.00946
11
4.9313115
21
70.00946
0
LINE
8
DEFAULT_255_2_778
10
0.8813115
20
67.80936
11
4.9313115
21
67.80936
0
LINE
8
DEFAULT_255_2_778
10
0.8813115
20
88.60936
11
4.9313115
21
88.60936
0
LINE
8
DEFAULT_255_2_778
10
0.8813115
20
85.60926
11
4.9313115
21
85.60926
0
LINE
8
DEFAULT_255_2_778
10
0.8813115
20
83.40926
11
4.9313115
21
83.40926
0
LINE
8
DEFAULT_255_2_778
10
0.8813115
20
78.20936
11
4.9313115
21
78.20936
0
LINE
8
DEFAULT_255_2_778
10
0.8813115
20
80.40936
11
4.9313115
21
80.40936
0
LINE
8
DEFAULT_255_2_778
10
0.8813115
20
110.0094118
11
4.9313115
21
110.0094118
0
LINE
8
DEFAULT_255_2_778
10
4.9313115
20
110.0094118
11
4.9313115
21
59.0094118
0
LINE
8
DEFAULT_255_2_778
10
4.9313115
20
59.0094118
11
0.8813115
21
59.0094118
0
LINE
8
DEFAULT_255_2_778
10
0.8813115
20
59.0094118
11
0.8813115
21
110.0094118
0
LINE
8
DEFAULT_255_2_778
10
0.8813115
20
96.0092487
11
4.9313115
21
96.0092487
0
LINE
8
DEFAULT_255_2_778
10
0.8813115
20
93.8091487
11
4.9313115
21
93.8091487
0
LINE
8
DEFAULT_255_2_778
10
0.8813115
20
90.8093487
11
4.9313115
21
90.8093487
0
LINE
8
DEFAULT_255_2_778
10
0.8813115
20
106.4094487
11
4.9313115
21
106.4094487
0
LINE
8
DEFAULT_255_2_778
10
0.8813115
20
104.2094487
11
4.9313115
21
104.2094487
0
LINE
8
DEFAULT_255_2_778
10
0.8813115
20
101.2093487
11
4.9313115
21
101.2093487
0
LINE
8
DEFAULT_255_2_778
10
0.8813115
20
99.0093487
11
4.9313115
21
99.0093487
0
ARC
8
DEFAULT_255_2_778
10
2.9300696
20
102.7105304
40
0.5488398
50
89.8682888
51
180.1317112
0
ARC
8
DEFAULT_255_2_778
10
2.9325782
20
102.7106154
40
0.5487547
50
359.8593896
51
90.1301939
0
ARC
8
DEFAULT_255_2_778
10
2.9326632
20
102.7079368
40
0.5486696
50
269.8609058
51
0.1390942
0
ARC
8
DEFAULT_255_2_778
10
2.9299846
20
102.7080218
40
0.5487547
50
179.8698061
51
270.1406104
0
LINE
8
DEFAULT_255_2_778
10
2.3812313
20
102.7092687
11
2.3812313
21
102.7092687
0
ARC
8
DEFAULT_255_2_778
10
2.9300696
20
107.9106304
40
0.5488398
50
89.8682888
51
180.1317112
0
ARC
8
DEFAULT_255_2_778
10
2.9325782
20
107.9107154
40
0.5487547
50
359.8593896
51
90.1301939
0
ARC
8
DEFAULT_255_2_778
10
2.9326632
20
107.9080368
40
0.5486696
50
269.8609058
51
0.1390942
0
ARC
8
DEFAULT_255_2_778
10
2.9299846
20
107.9081218
40
0.5487547
50
179.8698061
51
270.1406104
0
LINE
8
DEFAULT_255_2_778
10
2.3812313
20
107.9093687
11
2.3812313
21
107.9093687
0
ARC
8
DEFAULT_255_2_778
10
2.9300696
20
92.3105304
40
0.5488398
50
89.8682888
51
180.1317112
0
ARC
8
DEFAULT_255_2_778
10
2.9325782
20
92.3106154
40
0.5487547
50
359.8593896
51
90.1301939
0
ARC
8
DEFAULT_255_2_778
10
2.9326632
20
92.3079368
40
0.5486696
50
269.8609058
51
0.1390942
0
ARC
8
DEFAULT_255_2_778
10
2.9299846
20
92.3080218
40
0.5487547
50
179.8698061
51
270.1406104
0
LINE
8
DEFAULT_255_2_778
10
2.3812313
20
92.3092687
11
2.3812313
21
92.3092687
0
ARC
8
DEFAULT_255_2_778
10
2.9311115
20
87.1084883
40
0.5503034
50
89.9970497
51
152.8279854
0
ARC
8
DEFAULT_255_2_778
10
2.9312376
20
87.108602
40
0.5501897
50
27.1647759
51
90.0101811
0
ARC
8
DEFAULT_255_2_778
10
2.9300783
20
87.1097512
40
0.5510833
50
0.0035219
51
7.5849171
0
ARC
8
DEFAULT_255_2_778
10
2.9309999
20
87.1099062
40
0.5501618
50
305.2266297
51
359.9873889
0
ARC
8
DEFAULT_255_2_778
10
2.9309115
20
87.1094495
40
0.5498398
50
269.9866098
51
305.2616
0
ARC
8
DEFAULT_255_2_778
10
2.9307937
20
87.1107796
40
0.5511699
50
268.8133817
51
269.9988883
0
ARC
8
DEFAULT_255_2_778
10
2.9307137
20
87.1093133
40
0.5497024
50
242.893006
51
268.8185558
0
ARC
8
DEFAULT_255_2_778
10
2.9314979
20
87.1095552
40
0.5502754
50
180.4543396
51
242.831794
0
LINE
8
DEFAULT_255_2_778
10
3.4207398
20
87.3597917
11
3.4239398
21
87.3536917
0
LINE
8
DEFAULT_255_2_778
10
3.4239398
20
87.3536917
11
3.4692398
21
87.2234917
0
LINE
8
DEFAULT_255_2_778
10
3.4692398
20
87.2234917
11
3.4763398
21
87.1824917
0
LINE
8
DEFAULT_255_2_778
10
2.3812398
20
87.1051917
11
2.3860398
21
87.1827917
0
LINE
8
DEFAULT_255_2_778
10
2.3860398
20
87.1827917
11
2.4071398
21
87.2771917
0
LINE
8
DEFAULT_255_2_778
10
2.4071398
20
87.2771917
11
2.4413398
21
87.3599917
0
ARC
8
DEFAULT_255_2_778
10
2.9300696
20
81.9105304
40
0.5488398
50
89.8682888
51
180.1317112
0
ARC
8
DEFAULT_255_2_778
10
2.9325782
20
81.9106154
40
0.5487547
50
359.8593896
51
90.1301939
0
ARC
8
DEFAULT_255_2_778
10
2.9326632
20
81.9079368
40
0.5486696
50
269.8609058
51
0.1390942
0
ARC
8
DEFAULT_255_2_778
10
2.9299846
20
81.9080218
40
0.5487547
50
179.8698061
51
270.1406104
0
LINE
8
DEFAULT_255_2_778
10
2.3812313
20
81.9092687
11
2.3812313
21
81.9092687
0
ARC
8
DEFAULT_255_2_778
10
2.9313219
20
76.7083174
40
0.5504428
50
90.0000543
51
154.6646576
0
ARC
8
DEFAULT_255_2_778
10
2.9313128
20
76.7084633
40
0.550297
50
25.3257066
51
89.9991114
0
ARC
8
DEFAULT_255_2_778
10
2.9295932
20
76.7096446
40
0.5517456
50
0.0011765
51
4.388162
0
ARC
8
DEFAULT_255_2_778
10
2.931015
20
76.7097726
40
0.5503238
50
301.4832558
51
359.9878511
0
ARC
8
DEFAULT_255_2_778
10
2.9311316
20
76.7093523
40
0.5499045
50
269.9894594
51
301.4957685
0
ARC
8
DEFAULT_255_2_778
10
2.9309088
20
76.7095344
40
0.5500867
50
238.5894003
51
270.0108189
0
ARC
8
DEFAULT_255_2_778
10
2.9318327
20
76.7093941
40
0.5504493
50
180.0028095
51
238.4997103
0
ARC
8
DEFAULT_255_2_778
10
2.9337825
20
76.7093518
40
0.5523992
50
175.5865775
51
179.9984122
0
LINE
8
DEFAULT_255_2_778
10
3.4287213
20
76.9438603
11
3.4316213
21
76.9378603
0
LINE
8
DEFAULT_255_2_778
10
3.4316213
20
76.9378603
11
3.4718213
21
76.8110603
0
LINE
8
DEFAULT_255_2_778
10
3.4718213
20
76.8110603
11
3.4797213
21
76.7518603
0
LINE
8
DEFAULT_255_2_778
10
2.3830213
20
76.7518603
11
2.3836213
21
76.7583603
0
LINE
8
DEFAULT_255_2_778
10
2.3836213
20
76.7583603
11
2.3949213
21
76.8309603
0
LINE
8
DEFAULT_255_2_778
10
2.3949213
20
76.8309603
11
2.4338213
21
76.9438603
0
ARC
8
DEFAULT_255_2_778
10
2.9300696
20
71.5106304
40
0.5488398
50
89.8682888
51
180.1317112
0
ARC
8
DEFAULT_255_2_778
10
2.9325782
20
71.5107154
40
0.5487547
50
359.8593896
51
90.1301939
0
ARC
8
DEFAULT_255_2_778
10
2.9326632
20
71.5080368
40
0.5486696
50
269.8609058
51
0.1390942
0
ARC
8
DEFAULT_255_2_778
10
2.9299846
20
71.5081218
40
0.5487547
50
179.8698061
51
270.1406104
0
LINE
8
DEFAULT_255_2_778
10
2.3812313
20
71.5093687
11
2.3812313
21
71.5093687
0
ARC
8
DEFAULT_255_2_778
10
2.9311879
20
66.3086199
40
0.5503064
50
89.9927409
51
151.8757393
0
ARC
8
DEFAULT_255_2_778
10
2.9313202
20
66.3087748
40
0.5501514
50
28.1145888
51
90.0065199
0
ARC
8
DEFAULT_255_2_778
10
2.9306255
20
66.3095625
40
0.5504365
50
270.0449845
51
357.1012399
0
ARC
8
DEFAULT_255_2_778
10
2.9315035
20
66.3094718
40
0.5503457
50
182.8897799
51
269.953577
0
LINE
8
DEFAULT_255_2_778
10
3.4165576
20
66.5680262
11
3.4205576
21
66.5606262
0
LINE
8
DEFAULT_255_2_778
10
3.4205576
20
66.5606262
11
3.4650576
21
66.4423262
0
LINE
8
DEFAULT_255_2_778
10
3.4650576
20
66.4423262
11
3.4771576
21
66.3759262
0
LINE
8
DEFAULT_255_2_778
10
3.4771576
20
66.3759262
11
3.4800576
21
66.3426262
0
LINE
8
DEFAULT_255_2_778
10
3.4800576
20
66.3426262
11
3.4803576
21
66.2817262
0
LINE
8
DEFAULT_255_2_778
10
2.3818576
20
66.2817262
11
2.3815576
21
66.2843262
0
LINE
8
DEFAULT_255_2_778
10
2.3815576
20
66.2843262
11
2.3841576
21
66.3677262
0
LINE
8
DEFAULT_255_2_778
10
2.3841576
20
66.3677262
11
2.3937576
21
66.4259262
0
LINE
8
DEFAULT_255_2_778
10
2.3937576
20
66.4259262
11
2.4310576
21
66.5376262
0
LINE
8
DEFAULT_255_2_778
10
2.4310576
20
66.5376262
11
2.4458576
21
66.5677262
0
LINE
8
DEFAULT_255_2_778
10
25.6958576
20
126.0429262
11
25.6421576
21
125.9640262
0
LINE
8
DEFAULT_255_2_778
10
25.6421576
20
125.9640262
11
25.5974576
21
125.8796262
0
LINE
8
DEFAULT_255_2_778
10
25.5974576
20
125.8796262
11
25.5709576
21
125.8169262
0
LINE
8
DEFAULT_255_2_778
10
25.5709576
20
125.8169262
11
25.5474576
21
125.7484262
0
LINE
8
DEFAULT_255_2_778
10
25.5474576
20
125.7484262
11
25.5283576
21
125.6783262
0
LINE
8
DEFAULT_255_2_778
10
25.5283576
20
125.6783262
11
25.5135576
21
125.6074262
0
LINE
8
DEFAULT_255_2_778
10
25.5135576
20
125.6074262
11
25.5069576
21
125.5669262
0
LINE
8
DEFAULT_255_2_778
10
25.5069576
20
125.5669262
11
25.5016576
21
125.5261262
0
LINE
8
DEFAULT_255_2_778
10
25.5016576
20
125.5261262
11
25.4974576
21
125.4854262
0
LINE
8
DEFAULT_255_2_778
10
25.4974576
20
125.4854262
11
25.4942576
21
125.4444262
0
LINE
8
DEFAULT_255_2_778
10
25.4942576
20
125.4444262
11
25.4939576
21
125.1962262
0
LINE
8
DEFAULT_255_2_778
10
25.4939576
20
125.1962262
11
25.4971576
21
125.1547262
0
LINE
8
DEFAULT_255_2_778
10
25.4971576
20
125.1547262
11
25.5013576
21
125.1131262
0
LINE
8
DEFAULT_255_2_778
10
25.5013576
20
125.1131262
11
25.5066576
21
125.0719262
0
LINE
8
DEFAULT_255_2_778
10
25.5066576
20
125.0719262
11
25.5132576
21
125.0306262
0
LINE
8
DEFAULT_255_2_778
10
25.5132576
20
125.0306262
11
25.5278576
21
124.9583262
0
LINE
8
DEFAULT_255_2_778
10
25.5278576
20
124.9583262
11
25.5463576
21
124.8869262
0
LINE
8
DEFAULT_255_2_778
10
25.5463576
20
124.8869262
11
25.5693576
21
124.8168262
0
LINE
8
DEFAULT_255_2_778
10
25.5693576
20
124.8168262
11
25.6066576
21
124.7284262
0
LINE
8
DEFAULT_255_2_778
10
25.6066576
20
124.7284262
11
25.6487576
21
124.6504262
0
LINE
8
DEFAULT_255_2_778
10
25.6487576
20
124.6504262
11
25.7156576
21
124.5551262
0
LINE
8
DEFAULT_255_2_778
10
25.7156576
20
124.5551262
11
25.7916576
21
124.4744262
0
LINE
8
DEFAULT_255_2_778
10
25.7916576
20
124.4744262
11
25.8784576
21
124.4059262
0
LINE
8
DEFAULT_255_2_778
10
25.8784576
20
124.4059262
11
26.0016576
21
124.3397262
0
LINE
8
DEFAULT_255_2_778
10
26.0016576
20
124.3397262
11
26.1416576
21
124.2948262
0
LINE
8
DEFAULT_255_2_778
10
26.1416576
20
124.2948262
11
26.3157576
21
124.2710262
0
LINE
8
DEFAULT_255_2_778
10
26.3157576
20
124.2710262
11
26.5263576
21
124.2770262
0
LINE
8
DEFAULT_255_2_778
10
26.5263576
20
124.2770262
11
26.6909576
21
124.3112262
0
LINE
8
DEFAULT_255_2_778
10
26.6909576
20
124.3112262
11
26.8208576
21
124.3638262
0
LINE
8
DEFAULT_255_2_778
10
26.8208576
20
124.3638262
11
26.9380576
21
124.4392262
0
LINE
8
DEFAULT_255_2_778
10
26.9380576
20
124.4392262
11
27.0198576
21
124.5144262
0
LINE
8
DEFAULT_255_2_778
10
27.0198576
20
124.5144262
11
27.0912576
21
124.6020262
0
LINE
8
DEFAULT_255_2_778
10
27.0912576
20
124.6020262
11
27.1386576
21
124.6768262
0
LINE
8
DEFAULT_255_2_778
10
27.1386576
20
124.6768262
11
27.1785576
21
124.7559262
0
LINE
8
DEFAULT_255_2_778
10
27.1785576
20
124.7559262
11
27.2036576
21
124.8173262
0
LINE
8
DEFAULT_255_2_778
10
27.2036576
20
124.8173262
11
27.2269576
21
124.8872262
0
LINE
8
DEFAULT_255_2_778
10
27.2269576
20
124.8872262
11
27.2457576
21
124.9583262
0
LINE
8
DEFAULT_255_2_778
10
27.2457576
20
124.9583262
11
27.2603576
21
125.0306262
0
LINE
8
DEFAULT_255_2_778
10
27.2603576
20
125.0306262
11
27.2669576
21
125.0716262
0
LINE
8
DEFAULT_255_2_778
10
27.2669576
20
125.0716262
11
27.2722576
21
125.1129262
0
LINE
8
DEFAULT_255_2_778
10
27.2722576
20
125.1129262
11
27.2764576
21
125.1544262
0
LINE
8
DEFAULT_255_2_778
10
27.2764576
20
125.1544262
11
27.2796576
21
125.1959262
0
LINE
8
DEFAULT_255_2_778
10
27.2796576
20
125.1959262
11
27.2793576
21
125.4433262
0
LINE
8
DEFAULT_255_2_778
10
27.2793576
20
125.4433262
11
27.2761576
21
125.4841262
0
LINE
8
DEFAULT_255_2_778
10
27.2761576
20
125.4841262
11
27.2716576
21
125.5246262
0
LINE
8
DEFAULT_255_2_778
10
27.2716576
20
125.5246262
11
27.2661576
21
125.5650262
0
LINE
8
DEFAULT_255_2_778
10
27.2661576
20
125.5650262
11
27.2595576
21
125.6053262
0
LINE
8
DEFAULT_255_2_778
10
27.2595576
20
125.6053262
11
27.2447576
21
125.6762262
0
LINE
8
DEFAULT_255_2_778
10
27.2447576
20
125.6762262
11
27.2253576
21
125.7460262
0
LINE
8
DEFAULT_255_2_778
10
27.2253576
20
125.7460262
11
27.2015576
21
125.8145262
0
LINE
8
DEFAULT_255_2_778
10
27.2015576
20
125.8145262
11
27.1629576
21
125.9011262
0
LINE
8
DEFAULT_255_2_778
10
27.1629576
20
125.9011262
11
27.1192576
21
125.9775262
0
LINE
8
DEFAULT_255_2_778
10
27.1192576
20
125.9775262
11
27.0507576
21
126.0704262
0
LINE
8
DEFAULT_255_2_778
10
27.0507576
20
126.0704262
11
26.9745576
21
126.1487262
0
LINE
8
DEFAULT_255_2_778
10
26.9745576
20
126.1487262
11
26.8645576
21
126.2299262
0
LINE
8
DEFAULT_255_2_778
10
26.8645576
20
126.2299262
11
26.7398576
21
126.2897262
0
LINE
8
DEFAULT_255_2_778
10
26.7398576
20
126.2897262
11
26.5933576
21
126.3302262
0
LINE
8
DEFAULT_255_2_778
10
26.5933576
20
126.3302262
11
26.3866576
21
126.3482262
0
LINE
8
DEFAULT_255_2_778
10
26.3866576
20
126.3482262
11
26.2130576
21
126.3360262
0
LINE
8
DEFAULT_255_2_778
10
26.2130576
20
126.3360262
11
26.0315576
21
126.2900262
0
LINE
8
DEFAULT_255_2_778
10
26.0315576
20
126.2900262
11
25.9067576
21
126.2305262
0
LINE
8
DEFAULT_255_2_778
10
25.9067576
20
126.2305262
11
25.7966576
21
126.1498262
0
LINE
8
DEFAULT_255_2_778
10
25.7966576
20
126.1498262
11
25.7204576
21
126.0717262
0
LINE
8
DEFAULT_255_2_778
10
25.7204576
20
126.0717262
11
25.6958576
21
126.0429262
0
LINE
8
DEFAULT_255_2_778
10
25.8950576
20
124.7544262
11
25.8593576
21
124.8197262
0
LINE
8
DEFAULT_255_2_778
10
25.8593576
20
124.8197262
11
25.8302576
21
124.8882262
0
LINE
8
DEFAULT_255_2_778
10
25.8302576
20
124.8882262
11
25.8056576
21
124.9644262
0
LINE
8
DEFAULT_255_2_778
10
25.8056576
20
124.9644262
11
25.7924576
21
125.0181262
0
LINE
8
DEFAULT_255_2_778
10
25.7924576
20
125.0181262
11
25.7820576
21
125.0724262
0
LINE
8
DEFAULT_255_2_778
10
25.7820576
20
125.0724262
11
25.7778576
21
125.0996262
0
LINE
8
DEFAULT_255_2_778
10
25.7778576
20
125.0996262
11
25.7730576
21
125.1359262
0
LINE
8
DEFAULT_255_2_778
10
25.7730576
20
125.1359262
11
25.7693576
21
125.1724262
0
LINE
8
DEFAULT_255_2_778
10
25.7693576
20
125.1724262
11
25.7664576
21
125.2089262
0
LINE
8
DEFAULT_255_2_778
10
25.7664576
20
125.2089262
11
25.7667576
21
125.4267262
0
LINE
8
DEFAULT_255_2_778
10
25.7667576
20
125.4267262
11
25.7696576
21
125.4626262
0
LINE
8
DEFAULT_255_2_778
10
25.7696576
20
125.4626262
11
25.7733576
21
125.4984262
0
LINE
8
DEFAULT_255_2_778
10
25.7733576
20
125.4984262
11
25.7781576
21
125.5341262
0
LINE
8
DEFAULT_255_2_778
10
25.7781576
20
125.5341262
11
25.7873576
21
125.5878262
0
LINE
8
DEFAULT_255_2_778
10
25.7873576
20
125.5878262
11
25.7992576
21
125.6407262
0
LINE
8
DEFAULT_255_2_778
10
25.7992576
20
125.6407262
11
25.8141576
21
125.6931262
0
LINE
8
DEFAULT_255_2_778
10
25.8141576
20
125.6931262
11
25.8405576
21
125.7645262
0
LINE
8
DEFAULT_255_2_778
10
25.8405576
20
125.7645262
11
25.8725576
21
125.8307262
0
LINE
8
DEFAULT_255_2_778
10
25.8725576
20
125.8307262
11
25.9215576
21
125.9071262
0
LINE
8
DEFAULT_255_2_778
10
25.9215576
20
125.9071262
11
25.9911576
21
125.9847262
0
LINE
8
DEFAULT_255_2_778
10
25.9911576
20
125.9847262
11
26.0913576
21
126.0556262
0
LINE
8
DEFAULT_255_2_778
10
26.0913576
20
126.0556262
11
26.2070576
21
126.1008262
0
LINE
8
DEFAULT_255_2_778
10
26.2070576
20
126.1008262
11
26.3850576
21
126.1222262
0
LINE
8
DEFAULT_255_2_778
10
26.3850576
20
126.1222262
11
26.5419576
21
126.1061262
0
LINE
8
DEFAULT_255_2_778
10
26.5419576
20
126.1061262
11
26.6798576
21
126.0556262
0
LINE
8
DEFAULT_255_2_778
10
26.6798576
20
126.0556262
11
26.7647576
21
125.9984262
0
LINE
8
DEFAULT_255_2_778
10
26.7647576
20
125.9984262
11
26.8375576
21
125.9238262
0
LINE
8
DEFAULT_255_2_778
10
26.8375576
20
125.9238262
11
26.8904576
21
125.8463262
0
LINE
8
DEFAULT_255_2_778
10
26.8904576
20
125.8463262
11
26.9319576
21
125.7624262
0
LINE
8
DEFAULT_255_2_778
10
26.9319576
20
125.7624262
11
26.9573576
21
125.6928262
0
LINE
8
DEFAULT_255_2_778
10
26.9573576
20
125.6928262
11
26.9721576
21
125.6404262
0
LINE
8
DEFAULT_255_2_778
10
26.9721576
20
125.6404262
11
26.9840576
21
125.5875262
0
LINE
8
DEFAULT_255_2_778
10
26.9840576
20
125.5875262
11
26.9933576
21
125.5338262
0
LINE
8
DEFAULT_255_2_778
10
26.9933576
20
125.5338262
11
26.9981576
21
125.4981262
0
LINE
8
DEFAULT_255_2_778
10
26.9981576
20
125.4981262
11
27.0018576
21
125.4624262
0
LINE
8
DEFAULT_255_2_778
10
27.0018576
20
125.4624262
11
27.0047576
21
125.4264262
0
LINE
8
DEFAULT_255_2_778
10
27.0047576
20
125.4264262
11
27.0049576
21
125.2084262
0
LINE
8
DEFAULT_255_2_778
10
27.0049576
20
125.2084262
11
27.0020576
21
125.1719262
0
LINE
8
DEFAULT_255_2_778
10
27.0020576
20
125.1719262
11
26.9983576
21
125.1354262
0
LINE
8
DEFAULT_255_2_778
10
26.9983576
20
125.1354262
11
26.9936576
21
125.0988262
0
LINE
8
DEFAULT_255_2_778
10
26.9936576
20
125.0988262
11
26.9846576
21
125.0443262
0
LINE
8
DEFAULT_255_2_778
10
26.9846576
20
125.0443262
11
26.9729576
21
124.9904262
0
LINE
8
DEFAULT_255_2_778
10
26.9729576
20
124.9904262
11
26.9584576
21
124.9372262
0
LINE
8
DEFAULT_255_2_778
10
26.9584576
20
124.9372262
11
26.9327576
21
124.8647262
0
LINE
8
DEFAULT_255_2_778
10
26.9327576
20
124.8647262
11
26.9015576
21
124.7975262
0
LINE
8
DEFAULT_255_2_778
10
26.9015576
20
124.7975262
11
26.8531576
21
124.7192262
0
LINE
8
DEFAULT_255_2_778
10
26.8531576
20
124.7192262
11
26.7832576
21
124.6390262
0
LINE
8
DEFAULT_255_2_778
10
26.7832576
20
124.6390262
11
26.7001576
21
124.5760262
0
LINE
8
DEFAULT_255_2_778
10
26.7001576
20
124.5760262
11
26.5872576
21
124.5252262
0
LINE
8
DEFAULT_255_2_778
10
26.5872576
20
124.5252262
11
26.4308576
21
124.4977262
0
LINE
8
DEFAULT_255_2_778
10
26.4308576
20
124.4977262
11
26.2493576
21
124.5086262
0
LINE
8
DEFAULT_255_2_778
10
26.2493576
20
124.5086262
11
26.1067576
21
124.5559262
0
LINE
8
DEFAULT_255_2_778
10
26.1067576
20
124.5559262
11
26.0196576
21
124.6109262
0
LINE
8
DEFAULT_255_2_778
10
26.0196576
20
124.6109262
11
25.9442576
21
124.6853262
0
LINE
8
DEFAULT_255_2_778
10
25.9442576
20
124.6853262
11
25.8950576
21
124.7544262
0
LINE
8
DEFAULT_255_2_778
10
23.47412
20
126.3093187
11
24.26762
21
126.3030187
0
LINE
8
DEFAULT_255_2_778
10
24.26762
20
126.3030187
11
24.45812
21
126.2731187
0
LINE
8
DEFAULT_255_2_778
10
24.45812
20
126.2731187
11
24.60942
21
126.2228187
0
LINE
8
DEFAULT_255_2_778
10
24.60942
20
126.2228187
11
24.73562
21
126.1529187
0
LINE
8
DEFAULT_255_2_778
10
24.73562
20
126.1529187
11
24.84072
21
126.0675187
0
LINE
8
DEFAULT_255_2_778
10
24.84072
20
126.0675187
11
24.93062
21
125.9659187
0
LINE
8
DEFAULT_255_2_778
10
24.93062
20
125.9659187
11
24.98962
21
125.8756187
0
LINE
8
DEFAULT_255_2_778
10
24.98962
20
125.8756187
11
25.01742
21
125.8214187
0
LINE
8
DEFAULT_255_2_778
10
25.01742
20
125.8214187
11
25.04392
21
125.7584187
0
LINE
8
DEFAULT_255_2_778
10
25.04392
20
125.7584187
11
25.06532
21
125.6936187
0
LINE
8
DEFAULT_255_2_778
10
25.06532
20
125.6936187
11
25.08222
21
125.6272187
0
LINE
8
DEFAULT_255_2_778
10
25.08222
20
125.6272187
11
25.08912
21
125.5936187
0
LINE
8
DEFAULT_255_2_778
10
25.08912
20
125.5936187
11
25.09492
21
125.5595187
0
LINE
8
DEFAULT_255_2_778
10
25.09492
20
125.5595187
11
25.10002
21
125.5251187
0
LINE
8
DEFAULT_255_2_778
10
25.10002
20
125.5251187
11
25.10422
21
125.4907187
0
LINE
8
DEFAULT_255_2_778
10
25.10422
20
125.4907187
11
25.10762
21
125.4560187
0
LINE
8
DEFAULT_255_2_778
10
25.10762
20
125.4560187
11
25.10762
21
125.1152187
0
LINE
8
DEFAULT_255_2_778
10
25.10762
20
125.1152187
11
25.10452
21
125.0824187
0
LINE
8
DEFAULT_255_2_778
10
25.10452
20
125.0824187
11
25.10052
21
125.0499187
0
LINE
8
DEFAULT_255_2_778
10
25.10052
20
125.0499187
11
25.09572
21
125.0176187
0
LINE
8
DEFAULT_255_2_778
10
25.09572
20
125.0176187
11
25.08362
21
124.9536187
0
LINE
8
DEFAULT_255_2_778
10
25.08362
20
124.9536187
11
25.06772
21
124.8909187
0
LINE
8
DEFAULT_255_2_778
10
25.06772
20
124.8909187
11
25.04762
21
124.8298187
0
LINE
8
DEFAULT_255_2_778
10
25.04762
20
124.8298187
11
25.02272
21
124.7702187
0
LINE
8
DEFAULT_255_2_778
10
25.02272
20
124.7702187
11
24.98202
21
124.6945187
0
LINE
8
DEFAULT_255_2_778
10
24.98202
20
124.6945187
11
24.91922
21
124.6067187
0
LINE
8
DEFAULT_255_2_778
10
24.91922
20
124.6067187
11
24.84462
21
124.5279187
0
LINE
8
DEFAULT_255_2_778
10
24.84462
20
124.5279187
11
24.73752
21
124.4450187
0
LINE
8
DEFAULT_255_2_778
10
24.73752
20
124.4450187
11
24.63352
21
124.3900187
0
LINE
8
DEFAULT_255_2_778
10
24.63352
20
124.3900187
11
24.48142
21
124.3413187
0
LINE
8
DEFAULT_255_2_778
10
24.48142
20
124.3413187
11
24.22582
21
124.3109187
0
LINE
8
DEFAULT_255_2_778
10
24.22582
20
124.3109187
11
23.47442
21
124.3098187
0
LINE
8
DEFAULT_255_2_778
10
23.47442
20
124.3098187
11
23.47412
21
126.3093187
0
LINE
8
DEFAULT_255_2_778
10
24.16312
20
124.5361187
11
24.35992
21
124.5538187
0
LINE
8
DEFAULT_255_2_778
10
24.35992
20
124.5538187
11
24.50912
21
124.6006187
0
LINE
8
DEFAULT_255_2_778
10
24.50912
20
124.6006187
11
24.61442
21
124.6647187
0
LINE
8
DEFAULT_255_2_778
10
24.61442
20
124.6647187
11
24.68542
21
124.7334187
0
LINE
8
DEFAULT_255_2_778
10
24.68542
20
124.7334187
11
24.73272
21
124.8009187
0
LINE
8
DEFAULT_255_2_778
10
24.73272
20
124.8009187
11
24.76982
21
124.8758187
0
LINE
8
DEFAULT_255_2_778
10
24.76982
20
124.8758187
11
24.78702
21
124.9216187
0
LINE
8
DEFAULT_255_2_778
10
24.78702
20
124.9216187
11
24.80312
21
124.9753187
0
LINE
8
DEFAULT_255_2_778
10
24.80312
20
124.9753187
11
24.81582
21
125.0298187
0
LINE
8
DEFAULT_255_2_778
10
24.81582
20
125.0298187
11
24.82562
21
125.0848187
0
LINE
8
DEFAULT_255_2_778
10
24.82562
20
125.0848187
11
24.83012
21
125.1179187
0
LINE
8
DEFAULT_255_2_778
10
24.83012
20
125.1179187
11
24.83382
21
125.1510187
0
LINE
8
DEFAULT_255_2_778
10
24.83382
20
125.1510187
11
24.83412
21
125.4727187
0
LINE
8
DEFAULT_255_2_778
10
24.83412
20
125.4727187
11
24.82742
21
125.5238187
0
LINE
8
DEFAULT_255_2_778
10
24.82742
20
125.5238187
11
24.81822
21
125.5743187
0
LINE
8
DEFAULT_255_2_778
10
24.81822
20
125.5743187
11
24.80602
21
125.6240187
0
LINE
8
DEFAULT_255_2_778
10
24.80602
20
125.6240187
11
24.79042
21
125.6724187
0
LINE
8
DEFAULT_255_2_778
10
24.79042
20
125.6724187
11
24.77132
21
125.7195187
0
LINE
8
DEFAULT_255_2_778
10
24.77132
20
125.7195187
11
24.73092
21
125.7942187
0
LINE
8
DEFAULT_255_2_778
10
24.73092
20
125.7942187
11
24.65702
21
125.8881187
0
LINE
8
DEFAULT_255_2_778
10
24.65702
20
125.8881187
11
24.54992
21
125.9770187
0
LINE
8
DEFAULT_255_2_778
10
24.54992
20
125.9770187
11
24.44912
21
126.0283187
0
LINE
8
DEFAULT_255_2_778
10
24.44912
20
126.0283187
11
24.28162
21
126.0709187
0
LINE
8
DEFAULT_255_2_778
10
24.28162
20
126.0709187
11
24.10882
21
126.0823187
0
LINE
8
DEFAULT_255_2_778
10
24.10882
20
126.0823187
11
23.74772
21
126.0823187
0
LINE
8
DEFAULT_255_2_778
10
23.74772
20
126.0823187
11
23.74772
21
124.5358187
0
LINE
8
DEFAULT_255_2_778
10
23.74772
20
124.5358187
11
24.16312
21
124.5361187
0
LINE
8
DEFAULT_255_2_778
10
21.44292
20
126.3093187
11
21.75912
21
126.3093187
0
LINE
8
DEFAULT_255_2_778
10
21.75912
20
126.3093187
11
21.75912
21
125.0279187
0
LINE
8
DEFAULT_255_2_778
10
21.75912
20
125.0279187
11
22.13742
21
125.0279187
0
LINE
8
DEFAULT_255_2_778
10
22.13742
20
125.0279187
11
22.13742
21
124.8096187
0
LINE
8
DEFAULT_255_2_778
10
22.13742
20
124.8096187
11
21.75912
21
124.8096187
0
LINE
8
DEFAULT_255_2_778
10
21.75912
20
124.8096187
11
21.75912
21
124.3093187
0
LINE
8
DEFAULT_255_2_778
10
21.75912
20
124.3093187
11
21.49102
21
124.3093187
0
LINE
8
DEFAULT_255_2_778
10
21.49102
20
124.3093187
11
21.49102
21
124.8096187
0
LINE
8
DEFAULT_255_2_778
10
21.49102
20
124.8096187
11
20.56132
21
124.8096187
0
LINE
8
DEFAULT_255_2_778
10
20.56132
20
124.8096187
11
20.56132
21
125.0507187
0
LINE
8
DEFAULT_255_2_778
10
20.56132
20
125.0507187
11
21.44292
21
126.3093187
0
LINE
8
DEFAULT_255_2_778
10
20.79522
20
125.0279187
11
21.49102
21
125.0279187
0
LINE
8
DEFAULT_255_2_778
10
21.49102
20
125.0279187
11
21.49102
21
126.0243187
0
LINE
8
DEFAULT_255_2_778
10
21.49102
20
126.0243187
11
20.79522
21
125.0279187
0
LINE
8
DEFAULT_255_2_778
10
23.37512
20
122.2027187
11
23.60612
21
122.2027187
0
LINE
8
DEFAULT_255_2_778
10
23.60612
20
122.2027187
11
23.60612
21
122.0368187
0
LINE
8
DEFAULT_255_2_778
10
23.60612
20
122.0368187
11
23.70722
21
122.1479187
0
LINE
8
DEFAULT_255_2_778
10
23.70722
20
122.1479187
11
23.84662
21
122.2225187
0
LINE
8
DEFAULT_255_2_778
10
23.84662
20
122.2225187
11
24.05332
21
122.2379187
0
LINE
8
DEFAULT_255_2_778
10
24.05332
20
122.2379187
11
24.22372
21
122.1762187
0
LINE
8
DEFAULT_255_2_778
10
24.22372
20
122.1762187
11
24.32952
21
122.0797187
0
LINE
8
DEFAULT_255_2_778
10
24.32952
20
122.0797187
11
24.38582
21
121.9873187
0
LINE
8
DEFAULT_255_2_778
10
24.38582
20
121.9873187
11
24.47742
21
122.1143187
0
LINE
8
DEFAULT_255_2_778
10
24.47742
20
122.1143187
11
24.57452
21
122.1905187
0
LINE
8
DEFAULT_255_2_778
10
24.57452
20
122.1905187
11
24.72112
21
122.2376187
0
LINE
8
DEFAULT_255_2_778
10
24.72112
20
122.2376187
11
24.94092
21
122.2252187
0
LINE
8
DEFAULT_255_2_778
10
24.94092
20
122.2252187
11
25.05972
21
122.1715187
0
LINE
8
DEFAULT_255_2_778
10
25.05972
20
122.1715187
11
25.14282
21
122.0897187
0
LINE
8
DEFAULT_255_2_778
10
25.14282
20
122.0897187
11
25.19632
21
121.9992187
0
LINE
8
DEFAULT_255_2_778
10
25.19632
20
121.9992187
11
25.22012
21
121.9360187
0
LINE
8
DEFAULT_255_2_778
10
25.22012
20
121.9360187
11
25.23362
21
121.8836187
0
LINE
8
DEFAULT_255_2_778
10
25.23362
20
121.8836187
11
25.24282
21
121.8302187
0
LINE
8
DEFAULT_255_2_778
10
25.24282
20
121.8302187
11
25.24712
21
121.7942187
0
LINE
8
DEFAULT_255_2_778
10
25.24712
20
121.7942187
11
25.25002
21
121.7582187
0
LINE
8
DEFAULT_255_2_778
10
25.25002
20
121.7582187
11
25.25242
21
120.8091187
0
LINE
8
DEFAULT_255_2_778
10
25.25242
20
120.8091187
11
25.02142
21
120.8091187
0
LINE
8
DEFAULT_255_2_778
10
25.02142
20
120.8091187
11
25.01952
21
121.7410187
0
LINE
8
DEFAULT_255_2_778
10
25.01952
20
121.7410187
11
25.01742
21
121.7667187
0
LINE
8
DEFAULT_255_2_778
10
25.01742
20
121.7667187
11
25.01192
21
121.8050187
0
LINE
8
DEFAULT_255_2_778
10
25.01192
20
121.8050187
11
24.99972
21
121.8553187
0
LINE
8
DEFAULT_255_2_778
10
24.99972
20
121.8553187
11
24.96342
21
121.9339187
0
LINE
8
DEFAULT_255_2_778
10
24.96342
20
121.9339187
11
24.89972
21
122.0016187
0
LINE
8
DEFAULT_255_2_778
10
24.89972
20
122.0016187
11
24.71902
21
122.0413187
0
LINE
8
DEFAULT_255_2_778
10
24.71902
20
122.0413187
11
24.57902
21
121.9979187
0
LINE
8
DEFAULT_255_2_778
10
24.57902
20
121.9979187
11
24.50072
21
121.9151187
0
LINE
8
DEFAULT_255_2_778
10
24.50072
20
121.9151187
11
24.46632
21
121.8445187
0
LINE
8
DEFAULT_255_2_778
10
24.46632
20
121.8445187
11
24.44912
21
121.7876187
0
LINE
8
DEFAULT_255_2_778
10
24.44912
20
121.7876187
11
24.44062
21
121.7442187
0
LINE
8
DEFAULT_255_2_778
10
24.44062
20
121.7442187
11
24.43532
21
121.7003187
0
LINE
8
DEFAULT_255_2_778
10
24.43532
20
121.7003187
11
24.43322
21
121.6709187
0
LINE
8
DEFAULT_255_2_778
10
24.43322
20
121.6709187
11
24.43142
21
120.8091187
0
LINE
8
DEFAULT_255_2_778
10
24.43142
20
120.8091187
11
24.20042
21
120.8091187
0
LINE
8
DEFAULT_255_2_778
10
24.20042
20
120.8091187
11
24.19852
21
121.7399187
0
LINE
8
DEFAULT_255_2_778
10
24.19852
20
121.7399187
11
24.19642
21
121.7659187
0
LINE
8
DEFAULT_255_2_778
10
24.19642
20
121.7659187
11
24.19092
21
121.8042187
0
LINE
8
DEFAULT_255_2_778
10
24.19092
20
121.8042187
11
24.17842
21
121.8545187
0
LINE
8
DEFAULT_255_2_778
10
24.17842
20
121.8545187
11
24.14192
21
121.9334187
0
LINE
8
DEFAULT_255_2_778
10
24.14192
20
121.9334187
11
24.07762
21
122.0014187
0
LINE
8
DEFAULT_255_2_778
10
24.07762
20
122.0014187
11
23.89612
21
122.0413187
0
LINE
8
DEFAULT_255_2_778
10
23.89612
20
122.0413187
11
23.75562
21
121.9979187
0
LINE
8
DEFAULT_255_2_778
10
23.75562
20
121.9979187
11
23.67682
21
121.9151187
0
LINE
8
DEFAULT_255_2_778
10
23.67682
20
121.9151187
11
23.64212
21
121.8445187
0
LINE
8
DEFAULT_255_2_778
10
23.64212
20
121.8445187
11
23.62492
21
121.7876187
0
LINE
8
DEFAULT_255_2_778
10
23.62492
20
121.7876187
11
23.61642
21
121.7442187
0
LINE
8
DEFAULT_255_2_778
10
23.61642
20
121.7442187
11
23.61112
21
121.7003187
0
LINE
8
DEFAULT_255_2_778
10
23.61112
20
121.7003187
11
23.60902
21
121.6709187
0
LINE
8
DEFAULT_255_2_778
10
23.60902
20
121.6709187
11
23.60722
21
120.8091187
0
LINE
8
DEFAULT_255_2_778
10
23.60722
20
120.8091187
11
23.37622
21
120.8091187
0
LINE
8
DEFAULT_255_2_778
10
23.37622
20
120.8091187
11
23.37622
21
122.2027187
0
LINE
8
DEFAULT_255_2_778
10
19.73322
20
122.8094187
11
19.87872
21
122.8094187
0
LINE
8
DEFAULT_255_2_778
10
19.87872
20
122.8094187
11
19.30582
21
120.6591187
0
LINE
8
DEFAULT_255_2_778
10
19.30582
20
120.6591187
11
19.16032
21
120.6591187
0
LINE
8
DEFAULT_255_2_778
10
19.16032
20
120.6591187
11
19.73322
21
122.8094187
0
LINE
8
DEFAULT_255_2_778
10
18.68592
20
122.8094187
11
18.95262
21
122.8094187
0
LINE
8
DEFAULT_255_2_778
10
18.95262
20
122.8094187
11
18.23832
21
120.8094187
0
LINE
8
DEFAULT_255_2_778
10
18.23832
20
120.8094187
11
17.96282
21
120.8094187
0
LINE
8
DEFAULT_255_2_778
10
17.96282
20
120.8094187
11
17.24842
21
122.8094187
0
LINE
8
DEFAULT_255_2_778
10
17.24842
20
122.8094187
11
17.51512
21
122.8094187
0
LINE
8
DEFAULT_255_2_778
10
17.51512
20
122.8094187
11
18.10462
21
121.0716187
0
LINE
8
DEFAULT_255_2_778
10
18.10462
20
121.0716187
11
18.68652
21
122.8094187
0
LINE
8
DEFAULT_255_2_778
10
15.03862
20
121.1468187
11
15.30402
21
121.1468187
0
LINE
8
DEFAULT_255_2_778
10
15.30402
20
121.1468187
11
15.03232
21
120.4721187
0
LINE
8
DEFAULT_255_2_778
10
15.03232
20
120.4721187
11
14.87412
21
120.4721187
0
LINE
8
DEFAULT_255_2_778
10
14.87412
20
120.4721187
11
15.03862
21
121.1468187
0
LINE
8
DEFAULT_255_2_778
10
11.90552
20
122.2694187
11
11.67212
21
122.2694187
0
LINE
8
DEFAULT_255_2_778
10
11.67212
20
122.2694187
11
11.67392
21
122.3294187
0
LINE
8
DEFAULT_255_2_778
10
11.67392
20
122.3294187
11
11.67742
21
122.3657187
0
LINE
8
DEFAULT_255_2_778
10
11.67742
20
122.3657187
11
11.68512
21
122.4138187
0
LINE
8
DEFAULT_255_2_778
10
11.68512
20
122.4138187
11
11.70732
21
122.4961187
0
LINE
8
DEFAULT_255_2_778
10
11.70732
20
122.4961187
11
11.75992
21
122.6043187
0
LINE
8
DEFAULT_255_2_778
10
11.75992
20
122.6043187
11
11.84572
21
122.7038187
0
LINE
8
DEFAULT_255_2_778
10
11.84572
20
122.7038187
11
11.92872
21
122.7641187
0
LINE
8
DEFAULT_255_2_778
10
11.92872
20
122.7641187
11
12.03622
21
122.8107187
0
LINE
8
DEFAULT_255_2_778
10
12.03622
20
122.8107187
11
12.18512
21
122.8372187
0
LINE
8
DEFAULT_255_2_778
10
12.18512
20
122.8372187
11
12.36372
21
122.8292187
0
LINE
8
DEFAULT_255_2_778
10
12.36372
20
122.8292187
11
12.49892
21
122.7914187
0
LINE
8
DEFAULT_255_2_778
10
12.49892
20
122.7914187
11
12.59632
21
122.7380187
0
LINE
8
DEFAULT_255_2_778
10
12.59632
20
122.7380187
11
12.67622
21
122.6686187
0
LINE
8
DEFAULT_255_2_778
10
12.67622
20
122.6686187
11
12.72652
21
122.6035187
0
LINE
8
DEFAULT_255_2_778
10
12.72652
20
122.6035187
11
12.75582
21
122.5482187
0
LINE
8
DEFAULT_255_2_778
10
12.75582
20
122.5482187
11
12.77782
21
122.4895187
0
LINE
8
DEFAULT_255_2_778
10
12.77782
20
122.4895187
11
12.78892
21
122.4469187
0
LINE
8
DEFAULT_255_2_778
10
12.78892
20
122.4469187
11
12.79342
21
122.4242187
0
LINE
8
DEFAULT_255_2_778
10
12.79342
20
122.4242187
11
12.79682
21
122.4011187
0
LINE
8
DEFAULT_255_2_778
10
12.79682
20
122.4011187
11
12.79602
21
122.2244187
0
LINE
8
DEFAULT_255_2_778
10
12.79602
20
122.2244187
11
12.79182
21
122.1964187
0
LINE
8
DEFAULT_255_2_778
10
12.79182
20
122.1964187
11
12.78022
21
122.1408187
0
LINE
8
DEFAULT_255_2_778
10
12.78022
20
122.1408187
11
12.76482
21
122.0860187
0
LINE
8
DEFAULT_255_2_778
10
12.76482
20
122.0860187
11
12.73602
21
122.0053187
0
LINE
8
DEFAULT_255_2_778
10
12.73602
20
122.0053187
11
12.70112
21
121.9270187
0
LINE
8
DEFAULT_255_2_778
10
12.70112
20
121.9270187
11
12.64312
21
121.8201187
0
LINE
8
DEFAULT_255_2_778
10
12.64312
20
121.8201187
11
12.57702
21
121.7188187
0
LINE
8
DEFAULT_255_2_778
10
12.57702
20
121.7188187
11
12.45182
21
121.5603187
0
LINE
8
DEFAULT_255_2_778
10
12.45182
20
121.5603187
11
12.27512
21
121.3756187
0
LINE
8
DEFAULT_255_2_778
10
12.27512
20
121.3756187
11
11.89142
21
121.0274187
0
LINE
8
DEFAULT_255_2_778
10
11.89142
20
121.0274187
11
12.83922
21
121.0274187
0
LINE
8
DEFAULT_255_2_778
10
12.83922
20
121.0274187
11
12.83922
21
120.8091187
0
LINE
8
DEFAULT_255_2_778
10
12.83922
20
120.8091187
11
11.59802
21
120.8091187
0
LINE
8
DEFAULT_255_2_778
10
11.59802
20
120.8091187
11
11.59802
21
121.0486187
0
LINE
8
DEFAULT_255_2_778
10
11.59802
20
121.0486187
11
11.85362
21
121.2764187
0
LINE
8
DEFAULT_255_2_778
10
11.85362
20
121.2764187
11
12.08782
21
121.5116187
0
LINE
8
DEFAULT_255_2_778
10
12.08782
20
121.5116187
11
12.27322
21
121.7227187
0
LINE
8
DEFAULT_255_2_778
10
12.27322
20
121.7227187
11
12.42722
21
121.9307187
0
LINE
8
DEFAULT_255_2_778
10
12.42722
20
121.9307187
11
12.48732
21
122.0318187
0
LINE
8
DEFAULT_255_2_778
10
12.48732
20
122.0318187
11
12.53232
21
122.1297187
0
LINE
8
DEFAULT_255_2_778
10
12.53232
20
122.1297187
11
12.55052
21
122.1844187
0
LINE
8
DEFAULT_255_2_778
10
12.55052
20
122.1844187
11
12.55982
21
122.2218187
0
LINE
8
DEFAULT_255_2_778
10
12.55982
20
122.2218187
11
12.56592
21
122.2593187
0
LINE
8
DEFAULT_255_2_778
10
12.56592
20
122.2593187
11
12.56432
21
122.3628187
0
LINE
8
DEFAULT_255_2_778
10
12.56432
20
122.3628187
11
12.55262
21
122.4141187
0
LINE
8
DEFAULT_255_2_778
10
12.55262
20
122.4141187
11
12.52562
21
122.4768187
0
LINE
8
DEFAULT_255_2_778
10
12.52562
20
122.4768187
11
12.45662
21
122.5554187
0
LINE
8
DEFAULT_255_2_778
10
12.45662
20
122.5554187
11
12.32772
21
122.6144187
0
LINE
8
DEFAULT_255_2_778
10
12.32772
20
122.6144187
11
12.11632
21
122.6049187
0
LINE
8
DEFAULT_255_2_778
10
12.11632
20
122.6049187
11
11.99652
21
122.5284187
0
LINE
8
DEFAULT_255_2_778
10
11.99652
20
122.5284187
11
11.94572
21
122.4575187
0
LINE
8
DEFAULT_255_2_778
10
11.94572
20
122.4575187
11
11.92082
21
122.3935187
0
LINE
8
DEFAULT_255_2_778
10
11.92082
20
122.3935187
11
11.91292
21
122.3585187
0
LINE
8
DEFAULT_255_2_778
10
11.91292
20
122.3585187
11
11.90892
21
122.3331187
0
LINE
8
DEFAULT_255_2_778
10
11.90892
20
122.3331187
11
11.90652
21
122.3075187
0
LINE
8
DEFAULT_255_2_778
10
11.90652
20
122.3075187
11
11.90522
21
122.2691187
0
LINE
8
DEFAULT_255_2_778
10
10.97282
20
122.2792187
11
11.22552
21
122.2792187
0
LINE
8
DEFAULT_255_2_778
10
11.22552
20
122.2792187
11
11.22362
21
122.3392187
0
LINE
8
DEFAULT_255_2_778
10
11.22362
20
122.3392187
11
11.22152
21
122.3593187
0
LINE
8
DEFAULT_255_2_778
10
11.22152
20
122.3593187
11
11.21542
21
122.3993187
0
LINE
8
DEFAULT_255_2_778
10
11.21542
20
122.3993187
11
11.20642
21
122.4387187
0
LINE
8
DEFAULT_255_2_778
10
11.20642
20
122.4387187
11
11.18682
21
122.4974187
0
LINE
8
DEFAULT_255_2_778
10
11.18682
20
122.4974187
11
11.16042
21
122.5538187
0
LINE
8
DEFAULT_255_2_778
10
11.16042
20
122.5538187
11
11.11382
21
122.6229187
0
LINE
8
DEFAULT_255_2_778
10
11.11382
20
122.6229187
11
11.03792
21
122.6975187
0
LINE
8
DEFAULT_255_2_778
10
11.03792
20
122.6975187
11
10.93872
21
122.7618187
0
LINE
8
DEFAULT_255_2_778
10
10.93872
20
122.7618187
11
10.79312
21
122.8179187
0
LINE
8
DEFAULT_255_2_778
10
10.79312
20
122.8179187
11
10.59712
21
122.8478187
0
LINE
8
DEFAULT_255_2_778
10
10.59712
20
122.8478187
11
10.38732
21
122.8372187
0
LINE
8
DEFAULT_255_2_778
10
10.38732
20
122.8372187
11
10.22402
21
122.7914187
0
LINE
8
DEFAULT_255_2_778
10
10.22402
20
122.7914187
11
10.10262
21
122.7253187
0
LINE
8
DEFAULT_255_2_778
10
10.10262
20
122.7253187
11
10.01242
21
122.6498187
0
LINE
8
DEFAULT_255_2_778
10
10.01242
20
122.6498187
11
9.93562
21
122.5596187
0
LINE
8
DEFAULT_255_2_778
10
9.93562
20
122.5596187
11
9.87662
21
122.4668187
0
LINE
8
DEFAULT_255_2_778
10
9.87662
20
122.4668187
11
9.83852
21
122.3892187
0
LINE
8
DEFAULT_255_2_778
10
9.83852
20
122.3892187
11
9.80622
21
122.3059187
0
LINE
8
DEFAULT_255_2_778
10
9.80622
20
122.3059187
11
9.78752
21
122.2450187
0
LINE
8
DEFAULT_255_2_778
10
9.78752
20
122.2450187
11
9.77192
21
122.1831187
0
LINE
8
DEFAULT_255_2_778
10
9.77192
20
122.1831187
11
9.75922
21
122.1207187
0
LINE
8
DEFAULT_255_2_778
10
9.75922
20
122.1207187
11
9.75392
21
122.0892187
0
LINE
8
DEFAULT_255_2_778
10
9.75392
20
122.0892187
11
9.74802
21
122.0482187
0
LINE
8
DEFAULT_255_2_778
10
9.74802
20
122.0482187
11
9.74332
21
122.0072187
0
LINE
8
DEFAULT_255_2_778
10
9.74332
20
122.0072187
11
9.73932
21
121.9659187
0
LINE
8
DEFAULT_255_2_778
10
9.73932
20
121.9659187
11
9.73642
21
121.9246187
0
LINE
8
DEFAULT_255_2_778
10
9.73642
20
121.9246187
11
9.73642
21
121.6770187
0
LINE
8
DEFAULT_255_2_778
10
9.73642
20
121.6770187
11
9.73932
21
121.6360187
0
LINE
8
DEFAULT_255_2_778
10
9.73932
20
121.6360187
11
9.74332
21
121.5950187
0
LINE
8
DEFAULT_255_2_778
10
9.74332
20
121.5950187
11
9.74802
21
121.5542187
0
LINE
8
DEFAULT_255_2_778
10
9.74802
20
121.5542187
11
9.75392
21
121.5135187
0
LINE
8
DEFAULT_255_2_778
10
9.75392
20
121.5135187
11
9.76522
21
121.4513187
0
LINE
8
DEFAULT_255_2_778
10
9.76522
20
121.4513187
11
9.77952
21
121.3896187
0
LINE
8
DEFAULT_255_2_778
10
9.77952
20
121.3896187
11
9.79672
21
121.3288187
0
LINE
8
DEFAULT_255_2_778
10
9.79672
20
121.3288187
11
9.82792
21
121.2425187
0
LINE
8
DEFAULT_255_2_778
10
9.82792
20
121.2425187
11
9.86392
21
121.1650187
0
LINE
8
DEFAULT_255_2_778
10
9.86392
20
121.1650187
11
9.90712
21
121.0912187
0
LINE
8
DEFAULT_255_2_778
10
9.90712
20
121.0912187
11
9.98112
21
120.9951187
0
LINE
8
DEFAULT_255_2_778
10
9.98112
20
120.9951187
11
10.06582
21
120.9163187
0
LINE
8
DEFAULT_255_2_778
10
10.06582
20
120.9163187
11
10.18252
21
120.8441187
0
LINE
8
DEFAULT_255_2_778
10
10.18252
20
120.8441187
11
10.31612
21
120.7956187
0
LINE
8
DEFAULT_255_2_778
10
10.31612
20
120.7956187
11
10.50982
21
120.7702187
0
LINE
8
DEFAULT_255_2_778
10
10.50982
20
120.7702187
11
10.70952
21
120.7845187
0
LINE
8
DEFAULT_255_2_778
10
10.70952
20
120.7845187
11
10.86272
21
120.8285187
0
LINE
8
DEFAULT_255_2_778
10
10.86272
20
120.8285187
11
10.97602
21
120.8875187
0
LINE
8
DEFAULT_255_2_778
10
10.97602
20
120.8875187
11
11.07892
21
120.9708187
0
LINE
8
DEFAULT_255_2_778
10
11.07892
20
120.9708187
11
11.13292
21
121.0359187
0
LINE
8
DEFAULT_255_2_778
10
11.13292
20
121.0359187
11
11.17392
21
121.1076187
0
LINE
8
DEFAULT_255_2_778
10
11.17392
20
121.1076187
11
11.19692
21
121.1653187
0
LINE
8
DEFAULT_255_2_778
10
11.19692
20
121.1653187
11
11.20932
21
121.2081187
0
LINE
8
DEFAULT_255_2_778
10
11.20932
20
121.2081187
11
11.21832
21
121.2518187
0
LINE
8
DEFAULT_255_2_778
10
11.21832
20
121.2518187
11
11.22152
21
121.2738187
0
LINE
8
DEFAULT_255_2_778
10
11.22152
20
121.2738187
11
11.22392
21
121.2957187
0
LINE
8
DEFAULT_255_2_778
10
11.22392
20
121.2957187
11
11.22572
21
121.3399187
0
LINE
8
DEFAULT_255_2_778
10
11.22572
20
121.3399187
11
10.97312
21
121.3399187
0
LINE
8
DEFAULT_255_2_778
10
10.97312
20
121.3399187
11
10.96882
21
121.3092187
0
LINE
8
DEFAULT_255_2_778
10
10.96882
20
121.3092187
11
10.95822
21
121.2637187
0
LINE
8
DEFAULT_255_2_778
10
10.95822
20
121.2637187
11
10.93712
21
121.2076187
0
LINE
8
DEFAULT_255_2_778
10
10.93712
20
121.2076187
11
10.89982
21
121.1465187
0
LINE
8
DEFAULT_255_2_778
10
10.89982
20
121.1465187
11
10.82752
21
121.0777187
0
LINE
8
DEFAULT_255_2_778
10
10.82752
20
121.0777187
11
10.72962
21
121.0266187
0
LINE
8
DEFAULT_255_2_778
10
10.72962
20
121.0266187
11
10.59362
21
120.9996187
0
LINE
8
DEFAULT_255_2_778
10
10.59362
20
120.9996187
11
10.42222
21
121.0121187
0
LINE
8
DEFAULT_255_2_778
10
10.42222
20
121.0121187
11
10.28992
21
121.0645187
0
LINE
8
DEFAULT_255_2_778
10
10.28992
20
121.0645187
11
10.20602
21
121.1282187
0
LINE
8
DEFAULT_255_2_778
10
10.20602
20
121.1282187
11
10.13462
21
121.2142187
0
LINE
8
DEFAULT_255_2_778
10
10.13462
20
121.2142187
11
10.08542
21
121.3005187
0
LINE
8
DEFAULT_255_2_778
10
10.08542
20
121.3005187
11
10.05232
21
121.3801187
0
LINE
8
DEFAULT_255_2_778
10
10.05232
20
121.3801187
11
10.03112
21
121.4478187
0
LINE
8
DEFAULT_255_2_778
10
10.03112
20
121.4478187
11
10.01792
21
121.5018187
0
LINE
8
DEFAULT_255_2_778
10
10.01792
20
121.5018187
11
10.00732
21
121.5563187
0
LINE
8
DEFAULT_255_2_778
10
10.00732
20
121.5563187
11
9.99912
21
121.6114187
0
LINE
8
DEFAULT_255_2_778
10
9.99912
20
121.6114187
11
9.99542
21
121.6428187
0
LINE
8
DEFAULT_255_2_778
10
9.99542
20
121.6428187
11
9.99232
21
121.6743187
0
LINE
8
DEFAULT_255_2_778
10
9.99232
20
121.6743187
11
9.99202
21
121.9762187
0
LINE
8
DEFAULT_255_2_778
10
9.99202
20
121.9762187
11
9.99572
21
122.0119187
0
LINE
8
DEFAULT_255_2_778
10
9.99572
20
122.0119187
11
10.00392
21
122.0709187
0
LINE
8
DEFAULT_255_2_778
10
10.00392
20
122.0709187
11
10.01262
21
122.1172187
0
LINE
8
DEFAULT_255_2_778
10
10.01262
20
122.1172187
11
10.02962
21
122.1860187
0
LINE
8
DEFAULT_255_2_778
10
10.02962
20
122.1860187
11
10.05682
21
122.2662187
0
LINE
8
DEFAULT_255_2_778
10
10.05682
20
122.2662187
11
10.09682
21
122.3509187
0
LINE
8
DEFAULT_255_2_778
10
10.09682
20
122.3509187
11
10.16342
21
122.4474187
0
LINE
8
DEFAULT_255_2_778
10
10.16342
20
122.4474187
11
10.25682
21
122.5321187
0
LINE
8
DEFAULT_255_2_778
10
10.25682
20
122.5321187
11
10.39732
21
122.5972187
0
LINE
8
DEFAULT_255_2_778
10
10.39732
20
122.5972187
11
10.59842
21
122.6176187
0
LINE
8
DEFAULT_255_2_778
10
10.59842
20
122.6176187
11
10.75932
21
122.5845187
0
LINE
8
DEFAULT_255_2_778
10
10.75932
20
122.5845187
11
10.87942
21
122.5101187
0
LINE
8
DEFAULT_255_2_778
10
10.87942
20
122.5101187
11
10.92782
21
122.4522187
0
LINE
8
DEFAULT_255_2_778
10
10.92782
20
122.4522187
11
10.95452
21
122.3966187
0
LINE
8
DEFAULT_255_2_778
10
10.95452
20
122.3966187
11
10.96542
21
122.3591187
0
LINE
8
DEFAULT_255_2_778
10
10.96542
20
122.3591187
11
10.97022
21
122.3326187
0
LINE
8
DEFAULT_255_2_778
10
10.97022
20
122.3326187
11
10.97282
21
122.3062187
0
LINE
8
DEFAULT_255_2_778
10
10.97282
20
122.3062187
11
10.97332
21
122.2797187
0
LINE
8
DEFAULT_255_2_778
10
15.81152
20
122.7980187
11
16.85372
21
122.7980187
0
LINE
8
DEFAULT_255_2_778
10
16.85372
20
122.7980187
11
16.85372
21
122.5797187
0
LINE
8
DEFAULT_255_2_778
10
16.85372
20
122.5797187
11
16.03722
21
122.5797187
0
LINE
8
DEFAULT_255_2_778
10
16.03722
20
122.5797187
11
16.02322
21
121.9363187
0
LINE
8
DEFAULT_255_2_778
10
16.02322
20
121.9363187
11
16.13032
21
122.0447187
0
LINE
8
DEFAULT_255_2_778
10
16.13032
20
122.0447187
11
16.24832
21
122.1088187
0
LINE
8
DEFAULT_255_2_778
10
16.24832
20
122.1088187
11
16.43882
21
122.1360187
0
LINE
8
DEFAULT_255_2_778
10
16.43882
20
122.1360187
11
16.61052
21
122.1040187
0
LINE
8
DEFAULT_255_2_778
10
16.61052
20
122.1040187
11
16.72752
21
122.0371187
0
LINE
8
DEFAULT_255_2_778
10
16.72752
20
122.0371187
11
16.81292
21
121.9474187
0
LINE
8
DEFAULT_255_2_778
10
16.81292
20
121.9474187
11
16.86512
21
121.8622187
0
LINE
8
DEFAULT_255_2_778
10
16.86512
20
121.8622187
11
16.89922
21
121.7810187
0
LINE
8
DEFAULT_255_2_778
10
16.89922
20
121.7810187
11
16.91722
21
121.7217187
0
LINE
8
DEFAULT_255_2_778
10
16.91722
20
121.7217187
11
16.93072
21
121.6614187
0
LINE
8
DEFAULT_255_2_778
10
16.93072
20
121.6614187
11
16.93782
21
121.6167187
0
LINE
8
DEFAULT_255_2_778
10
16.93782
20
121.6167187
11
16.94342
21
121.5677187
0
LINE
8
DEFAULT_255_2_778
10
16.94342
20
121.5677187
11
16.94182
21
121.3343187
0
LINE
8
DEFAULT_255_2_778
10
16.94182
20
121.3343187
11
16.93522
21
121.2857187
0
LINE
8
DEFAULT_255_2_778
10
16.93522
20
121.2857187
11
16.92652
21
121.2399187
0
LINE
8
DEFAULT_255_2_778
10
16.92652
20
121.2399187
11
16.90982
21
121.1761187
0
LINE
8
DEFAULT_255_2_778
10
16.90982
20
121.1761187
11
16.88762
21
121.1142187
0
LINE
8
DEFAULT_255_2_778
10
16.88762
20
121.1142187
11
16.85082
21
121.0393187
0
LINE
8
DEFAULT_255_2_778
10
16.85082
20
121.0393187
11
16.79232
21
120.9552187
0
LINE
8
DEFAULT_255_2_778
10
16.79232
20
120.9552187
11
16.70132
21
120.8692187
0
LINE
8
DEFAULT_255_2_778
10
16.70132
20
120.8692187
11
16.57562
21
120.8015187
0
LINE
8
DEFAULT_255_2_778
10
16.57562
20
120.8015187
11
16.41662
21
120.7665187
0
LINE
8
DEFAULT_255_2_778
10
16.41662
20
120.7665187
11
16.24202
21
120.7718187
0
LINE
8
DEFAULT_255_2_778
10
16.24202
20
120.7718187
11
16.10202
21
120.8113187
0
LINE
8
DEFAULT_255_2_778
10
16.10202
20
120.8113187
11
15.98002
21
120.8835187
0
LINE
8
DEFAULT_255_2_778
10
15.98002
20
120.8835187
11
15.88512
21
120.9777187
0
LINE
8
DEFAULT_255_2_778
10
15.88512
20
120.9777187
11
15.83292
21
121.0560187
0
LINE
8
DEFAULT_255_2_778
10
15.83292
20
121.0560187
11
15.80062
21
121.1251187
0
LINE
8
DEFAULT_255_2_778
10
15.80062
20
121.1251187
11
15.78162
21
121.1809187
0
LINE
8
DEFAULT_255_2_778
10
15.78162
20
121.1809187
11
15.76682
21
121.2415187
0
LINE
8
DEFAULT_255_2_778
10
15.76682
20
121.2415187
11
15.75962
21
121.2825187
0
LINE
8
DEFAULT_255_2_778
10
15.75962
20
121.2825187
11
15.75492
21
121.3235187
0
LINE
8
DEFAULT_255_2_778
10
15.75492
20
121.3235187
11
16.00122
21
121.3235187
0
LINE
8
DEFAULT_255_2_778
10
16.00122
20
121.3235187
11
16.00622
21
121.2902187
0
LINE
8
DEFAULT_255_2_778
10
16.00622
20
121.2902187
11
16.02102
21
121.2343187
0
LINE
8
DEFAULT_255_2_778
10
16.02102
20
121.2343187
11
16.05492
21
121.1587187
0
LINE
8
DEFAULT_255_2_778
10
16.05492
20
121.1587187
11
16.12662
21
121.0679187
0
LINE
8
DEFAULT_255_2_778
10
16.12662
20
121.0679187
11
16.24362
21
121.0036187
0
LINE
8
DEFAULT_255_2_778
10
16.24362
20
121.0036187
11
16.43702
21
121.0002187
0
LINE
8
DEFAULT_255_2_778
10
16.43702
20
121.0002187
11
16.55472
21
121.0608187
0
LINE
8
DEFAULT_255_2_778
10
16.55472
20
121.0608187
11
16.62462
21
121.1444187
0
LINE
8
DEFAULT_255_2_778
10
16.62462
20
121.1444187
11
16.66422
21
121.2264187
0
LINE
8
DEFAULT_255_2_778
10
16.66422
20
121.2264187
11
16.68442
21
121.2936187
0
LINE
8
DEFAULT_255_2_778
10
16.68442
20
121.2936187
11
16.69232
21
121.3349187
0
LINE
8
DEFAULT_255_2_778
10
16.69232
20
121.3349187
11
16.69762
21
121.3761187
0
LINE
8
DEFAULT_255_2_778
10
16.69762
20
121.3761187
11
16.69682
21
121.5476187
0
LINE
8
DEFAULT_255_2_778
10
16.69682
20
121.5476187
11
16.68962
21
121.5963187
0
LINE
8
DEFAULT_255_2_778
10
16.68962
20
121.5963187
11
16.67692
21
121.6503187
0
LINE
8
DEFAULT_255_2_778
10
16.67692
20
121.6503187
11
16.64842
21
121.7251187
0
LINE
8
DEFAULT_255_2_778
10
16.64842
20
121.7251187
11
16.58752
21
121.8180187
0
LINE
8
DEFAULT_255_2_778
10
16.58752
20
121.8180187
11
16.48492
21
121.8937187
0
LINE
8
DEFAULT_255_2_778
10
16.48492
20
121.8937187
11
16.31662
21
121.9183187
0
LINE
8
DEFAULT_255_2_778
10
16.31662
20
121.9183187
11
16.18302
21
121.8751187
0
LINE
8
DEFAULT_255_2_778
10
16.18302
20
121.8751187
11
16.10152
21
121.8021187
0
LINE
8
DEFAULT_255_2_778
10
16.10152
20
121.8021187
11
16.06182
21
121.7336187
0
LINE
8
DEFAULT_255_2_778
10
16.06182
20
121.7336187
11
16.04702
21
121.6884187
0
LINE
8
DEFAULT_255_2_778
10
16.04702
20
121.6884187
11
16.03962
21
121.6521187
0
LINE
8
DEFAULT_255_2_778
10
16.03962
20
121.6521187
11
16.03672
21
121.6278187
0
LINE
8
DEFAULT_255_2_778
10
16.03672
20
121.6278187
11
15.79562
21
121.6278187
0
LINE
8
DEFAULT_255_2_778
10
15.79562
20
121.6278187
11
15.81102
21
122.7972187
0
LINE
8
DEFAULT_255_2_778
10
13.30622
20
122.7980187
11
14.34842
21
122.7980187
0
LINE
8
DEFAULT_255_2_778
10
14.34842
20
122.7980187
11
14.34842
21
122.5797187
0
LINE
8
DEFAULT_255_2_778
10
14.34842
20
122.5797187
11
13.53212
21
122.5797187
0
LINE
8
DEFAULT_255_2_778
10
13.53212
20
122.5797187
11
13.51812
21
121.9363187
0
LINE
8
DEFAULT_255_2_778
10
13.51812
20
121.9363187
11
13.62522
21
122.0447187
0
LINE
8
DEFAULT_255_2_778
10
13.62522
20
122.0447187
11
13.74322
21
122.1088187
0
LINE
8
DEFAULT_255_2_778
10
13.74322
20
122.1088187
11
13.93372
21
122.1360187
0
LINE
8
DEFAULT_255_2_778
10
13.93372
20
122.1360187
11
14.10552
21
122.1040187
0
LINE
8
DEFAULT_255_2_778
10
14.10552
20
122.1040187
11
14.22242
21
122.0371187
0
LINE
8
DEFAULT_255_2_778
10
14.22242
20
122.0371187
11
14.30792
21
121.9474187
0
LINE
8
DEFAULT_255_2_778
10
14.30792
20
121.9474187
11
14.36002
21
121.8622187
0
LINE
8
DEFAULT_255_2_778
10
14.36002
20
121.8622187
11
14.39412
21
121.7810187
0
LINE
8
DEFAULT_255_2_778
10
14.39412
20
121.7810187
11
14.41212
21
121.7217187
0
LINE
8
DEFAULT_255_2_778
10
14.41212
20
121.7217187
11
14.42562
21
121.6614187
0
LINE
8
DEFAULT_255_2_778
10
14.42562
20
121.6614187
11
14.43282
21
121.6167187
0
LINE
8
DEFAULT_255_2_778
10
14.43282
20
121.6167187
11
14.43832
21
121.5677187
0
LINE
8
DEFAULT_255_2_778
10
14.43832
20
121.5677187
11
14.43672
21
121.3343187
0
LINE
8
DEFAULT_255_2_778
10
14.43672
20
121.3343187
11
14.43012
21
121.2857187
0
LINE
8
DEFAULT_255_2_778
10
14.43012
20
121.2857187
11
14.42142
21
121.2399187
0
LINE
8
DEFAULT_255_2_778
10
14.42142
20
121.2399187
11
14.40472
21
121.1761187
0
LINE
8
DEFAULT_255_2_778
10
14.40472
20
121.1761187
11
14.38252
21
121.1142187
0
LINE
8
DEFAULT_255_2_778
10
14.38252
20
121.1142187
11
14.34572
21
121.0393187
0
LINE
8
DEFAULT_255_2_778
10
14.34572
20
121.0393187
11
14.28722
21
120.9552187
0
LINE
8
DEFAULT_255_2_778
10
14.28722
20
120.9552187
11
14.19622
21
120.8692187
0
LINE
8
DEFAULT_255_2_778
10
14.19622
20
120.8692187
11
14.07052
21
120.8015187
0
LINE
8
DEFAULT_255_2_778
10
14.07052
20
120.8015187
11
13.91152
21
120.7665187
0
LINE
8
DEFAULT_255_2_778
10
13.91152
20
120.7665187
11
13.73692
21
120.7718187
0
LINE
8
DEFAULT_255_2_778
10
13.73692
20
120.7718187
11
13.59692
21
120.8113187
0
LINE
8
DEFAULT_255_2_778
10
13.59692
20
120.8113187
11
13.47502
21
120.8835187
0
LINE
8
DEFAULT_255_2_778
10
13.47502
20
120.8835187
11
13.38002
21
120.9777187
0
LINE
8
DEFAULT_255_2_778
10
13.38002
20
120.9777187
11
13.32792
21
121.0560187
0
LINE
8
DEFAULT_255_2_778
10
13.32792
20
121.0560187
11
13.29562
21
121.1251187
0
LINE
8
DEFAULT_255_2_778
10
13.29562
20
121.1251187
11
13.27652
21
121.1809187
0
LINE
8
DEFAULT_255_2_778
10
13.27652
20
121.1809187
11
13.26172
21
121.2415187
0
LINE
8
DEFAULT_255_2_778
10
13.26172
20
121.2415187
11
13.25462
21
121.2825187
0
LINE
8
DEFAULT_255_2_778
10
13.25462
20
121.2825187
11
13.24982
21
121.3235187
0
LINE
8
DEFAULT_255_2_778
10
13.24982
20
121.3235187
11
13.49612
21
121.3235187
0
LINE
8
DEFAULT_255_2_778
10
13.49612
20
121.3235187
11
13.50122
21
121.2902187
0
LINE
8
DEFAULT_255_2_778
10
13.50122
20
121.2902187
11
13.51602
21
121.2343187
0
LINE
8
DEFAULT_255_2_778
10
13.51602
20
121.2343187
11
13.54982
21
121.1587187
0
LINE
8
DEFAULT_255_2_778
10
13.54982
20
121.1587187
11
13.62152
21
121.0679187
0
LINE
8
DEFAULT_255_2_778
10
13.62152
20
121.0679187
11
13.73852
21
121.0036187
0
LINE
8
DEFAULT_255_2_778
10
13.73852
20
121.0036187
11
13.93192
21
121.0002187
0
LINE
8
DEFAULT_255_2_778
10
13.93192
20
121.0002187
11
14.04962
21
121.0608187
0
LINE
8
DEFAULT_255_2_778
10
14.04962
20
121.0608187
11
14.11952
21
121.1444187
0
LINE
8
DEFAULT_255_2_778
10
14.11952
20
121.1444187
11
14.15922
21
121.2264187
0
LINE
8
DEFAULT_255_2_778
10
14.15922
20
121.2264187
11
14.17932
21
121.2936187
0
LINE
8
DEFAULT_255_2_778
10
14.17932
20
121.2936187
11
14.18722
21
121.3349187
0
LINE
8
DEFAULT_255_2_778
10
14.18722
20
121.3349187
11
14.19252
21
121.3761187
0
LINE
8
DEFAULT_255_2_778
10
14.19252
20
121.3761187
11
14.19172
21
121.5476187
0
LINE
8
DEFAULT_255_2_778
10
14.19172
20
121.5476187
11
14.18462
21
121.5963187
0
LINE
8
DEFAULT_255_2_778
10
14.18462
20
121.5963187
11
14.17192
21
121.6503187
0
LINE
8
DEFAULT_255_2_778
10
14.17192
20
121.6503187
11
14.14332
21
121.7251187
0
LINE
8
DEFAULT_255_2_778
10
14.14332
20
121.7251187
11
14.08242
21
121.8180187
0
LINE
8
DEFAULT_255_2_778
10
14.08242
20
121.8180187
11
13.97982
21
121.8937187
0
LINE
8
DEFAULT_255_2_778
10
13.97982
20
121.8937187
11
13.81152
21
121.9183187
0
LINE
8
DEFAULT_255_2_778
10
13.81152
20
121.9183187
11
13.67792
21
121.8751187
0
LINE
8
DEFAULT_255_2_778
10
13.67792
20
121.8751187
11
13.59642
21
121.8021187
0
LINE
8
DEFAULT_255_2_778
10
13.59642
20
121.8021187
11
13.55672
21
121.7336187
0
LINE
8
DEFAULT_255_2_778
10
13.55672
20
121.7336187
11
13.54192
21
121.6884187
0
LINE
8
DEFAULT_255_2_778
10
13.54192
20
121.6884187
11
13.53452
21
121.6521187
0
LINE
8
DEFAULT_255_2_778
10
13.53452
20
121.6521187
11
13.53162
21
121.6278187
0
LINE
8
DEFAULT_255_2_778
10
13.53162
20
121.6278187
11
13.29052
21
121.6278187
0
LINE
8
DEFAULT_255_2_778
10
13.29052
20
121.6278187
11
13.30592
21
122.7972187
0
LINE
8
DEFAULT_255_2_778
10
22.0715198
20
122.2694156
11
21.8382198
21
122.2694156
0
LINE
8
DEFAULT_255_2_778
10
21.8382198
20
122.2694156
11
21.8400198
21
122.3295156
0
LINE
8
DEFAULT_255_2_778
10
21.8400198
20
122.3295156
11
21.8435198
21
122.3657156
0
LINE
8
DEFAULT_255_2_778
10
21.8435198
20
122.3657156
11
21.8511198
21
122.4139156
0
LINE
8
DEFAULT_255_2_778
10
21.8511198
20
122.4139156
11
21.8734198
21
122.4962156
0
LINE
8
DEFAULT_255_2_778
10
21.8734198
20
122.4962156
11
21.9260198
21
122.6044156
0
LINE
8
DEFAULT_255_2_778
10
21.9260198
20
122.6044156
11
22.0117198
21
122.7039156
0
LINE
8
DEFAULT_255_2_778
10
22.0117198
20
122.7039156
11
22.0948198
21
122.7642156
0
LINE
8
DEFAULT_255_2_778
10
22.0948198
20
122.7642156
11
22.2022198
21
122.8107156
0
LINE
8
DEFAULT_255_2_778
10
22.2022198
20
122.8107156
11
22.3512198
21
122.8372156
0
LINE
8
DEFAULT_255_2_778
10
22.3512198
20
122.8372156
11
22.5298198
21
122.8293156
0
LINE
8
DEFAULT_255_2_778
10
22.5298198
20
122.8293156
11
22.6650198
21
122.7914156
0
LINE
8
DEFAULT_255_2_778
10
22.6650198
20
122.7914156
11
22.7624198
21
122.7380156
0
LINE
8
DEFAULT_255_2_778
10
22.7624198
20
122.7380156
11
22.8423198
21
122.6687156
0
LINE
8
DEFAULT_255_2_778
10
22.8423198
20
122.6687156
11
22.8925198
21
122.6036156
0
LINE
8
DEFAULT_255_2_778
10
22.8925198
20
122.6036156
11
22.9219198
21
122.5483156
0
LINE
8
DEFAULT_255_2_778
10
22.9219198
20
122.5483156
11
22.9439198
21
122.4895156
0
LINE
8
DEFAULT_255_2_778
10
22.9439198
20
122.4895156
11
22.9550198
21
122.4469156
0
LINE
8
DEFAULT_255_2_778
10
22.9550198
20
122.4469156
11
22.9595198
21
122.4242156
0
LINE
8
DEFAULT_255_2_778
10
22.9595198
20
122.4242156
11
22.9629198
21
122.4012156
0
LINE
8
DEFAULT_255_2_778
10
22.9629198
20
122.4012156
11
22.9621198
21
122.2244156
0
LINE
8
DEFAULT_255_2_778
10
22.9621198
20
122.2244156
11
22.9579198
21
122.1964156
0
LINE
8
DEFAULT_255_2_778
10
22.9579198
20
122.1964156
11
22.9463198
21
122.1408156
0
LINE
8
DEFAULT_255_2_778
10
22.9463198
20
122.1408156
11
22.9309198
21
122.0860156
0
LINE
8
DEFAULT_255_2_778
10
22.9309198
20
122.0860156
11
22.9021198
21
122.0054156
0
LINE
8
DEFAULT_255_2_778
10
22.9021198
20
122.0054156
11
22.8671198
21
121.9270156
0
LINE
8
DEFAULT_255_2_778
10
22.8671198
20
121.9270156
11
22.8092198
21
121.8201156
0
LINE
8
DEFAULT_255_2_778
10
22.8092198
20
121.8201156
11
22.7431198
21
121.7188156
0
LINE
8
DEFAULT_255_2_778
10
22.7431198
20
121.7188156
11
22.6179198
21
121.5603156
0
LINE
8
DEFAULT_255_2_778
10
22.6179198
20
121.5603156
11
22.4412198
21
121.3756156
0
LINE
8
DEFAULT_255_2_778
10
22.4412198
20
121.3756156
11
22.0575198
21
121.0275156
0
LINE
8
DEFAULT_255_2_778
10
22.0575198
20
121.0275156
11
23.0053198
21
121.0275156
0
LINE
8
DEFAULT_255_2_778
10
23.0053198
20
121.0275156
11
23.0053198
21
120.8092156
0
LINE
8
DEFAULT_255_2_778
10
23.0053198
20
120.8092156
11
21.7641198
21
120.8092156
0
LINE
8
DEFAULT_255_2_778
10
21.7641198
20
120.8092156
11
21.7641198
21
121.0486156
0
LINE
8
DEFAULT_255_2_778
10
21.7641198
20
121.0486156
11
22.0197198
21
121.2764156
0
LINE
8
DEFAULT_255_2_778
10
22.0197198
20
121.2764156
11
22.2538198
21
121.5116156
0
LINE
8
DEFAULT_255_2_778
10
22.2538198
20
121.5116156
11
22.4393198
21
121.7228156
0
LINE
8
DEFAULT_255_2_778
10
22.4393198
20
121.7228156
11
22.5933198
21
121.9307156
0
LINE
8
DEFAULT_255_2_778
10
22.5933198
20
121.9307156
11
22.6534198
21
122.0318156
0
LINE
8
DEFAULT_255_2_778
10
22.6534198
20
122.0318156
11
22.6983198
21
122.1297156
0
LINE
8
DEFAULT_255_2_778
10
22.6983198
20
122.1297156
11
22.7166198
21
122.1845156
0
LINE
8
DEFAULT_255_2_778
10
22.7166198
20
122.1845156
11
22.7259198
21
122.2218156
0
LINE
8
DEFAULT_255_2_778
10
22.7259198
20
122.2218156
11
22.7319198
21
122.2594156
0
LINE
8
DEFAULT_255_2_778
10
22.7319198
20
122.2594156
11
22.7304198
21
122.3628156
0
LINE
8
DEFAULT_255_2_778
10
22.7304198
20
122.3628156
11
22.7187198
21
122.4141156
0
LINE
8
DEFAULT_255_2_778
10
22.7187198
20
122.4141156
11
22.6917198
21
122.4768156
0
LINE
8
DEFAULT_255_2_778
10
22.6917198
20
122.4768156
11
22.6227198
21
122.5554156
0
LINE
8
DEFAULT_255_2_778
10
22.6227198
20
122.5554156
11
22.4938198
21
122.6144156
0
LINE
8
DEFAULT_255_2_778
10
22.4938198
20
122.6144156
11
22.2824198
21
122.6049156
0
LINE
8
DEFAULT_255_2_778
10
22.2824198
20
122.6049156
11
22.1626198
21
122.5284156
0
LINE
8
DEFAULT_255_2_778
10
22.1626198
20
122.5284156
11
22.1118198
21
122.4575156
0
LINE
8
DEFAULT_255_2_778
10
22.1118198
20
122.4575156
11
22.0869198
21
122.3935156
0
LINE
8
DEFAULT_255_2_778
10
22.0869198
20
122.3935156
11
22.0790198
21
122.3586156
0
LINE
8
DEFAULT_255_2_778
10
22.0790198
20
122.3586156
11
22.0750198
21
122.3332156
0
LINE
8
DEFAULT_255_2_778
10
22.0750198
20
122.3332156
11
22.0726198
21
122.3075156
0
LINE
8
DEFAULT_255_2_778
10
22.0726198
20
122.3075156
11
22.0713198
21
122.2691156
0
LINE
8
DEFAULT_255_2_778
10
20.4334198
20
122.2694156
11
20.2001198
21
122.2694156
0
LINE
8
DEFAULT_255_2_778
10
20.2001198
20
122.2694156
11
20.2019198
21
122.3295156
0
LINE
8
DEFAULT_255_2_778
10
20.2019198
20
122.3295156
11
20.2054198
21
122.3657156
0
LINE
8
DEFAULT_255_2_778
10
20.2054198
20
122.3657156
11
20.2130198
21
122.4139156
0
LINE
8
DEFAULT_255_2_778
10
20.2130198
20
122.4139156
11
20.2353198
21
122.4962156
0
LINE
8
DEFAULT_255_2_778
10
20.2353198
20
122.4962156
11
20.2879198
21
122.6044156
0
LINE
8
DEFAULT_255_2_778
10
20.2879198
20
122.6044156
11
20.3736198
21
122.7039156
0
LINE
8
DEFAULT_255_2_778
10
20.3736198
20
122.7039156
11
20.4567198
21
122.7642156
0
LINE
8
DEFAULT_255_2_778
10
20.4567198
20
122.7642156
11
20.5641198
21
122.8107156
0
LINE
8
DEFAULT_255_2_778
10
20.5641198
20
122.8107156
11
20.7131198
21
122.8372156
0
LINE
8
DEFAULT_255_2_778
10
20.7131198
20
122.8372156
11
20.8917198
21
122.8293156
0
LINE
8
DEFAULT_255_2_778
10
20.8917198
20
122.8293156
11
21.0269198
21
122.7914156
0
LINE
8
DEFAULT_255_2_778
10
21.0269198
20
122.7914156
11
21.1243198
21
122.7380156
0
LINE
8
DEFAULT_255_2_778
10
21.1243198
20
122.7380156
11
21.2042198
21
122.6687156
0
LINE
8
DEFAULT_255_2_778
10
21.2042198
20
122.6687156
11
21.2544198
21
122.6036156
0
LINE
8
DEFAULT_255_2_778
10
21.2544198
20
122.6036156
11
21.2838198
21
122.5483156
0
LINE
8
DEFAULT_255_2_778
10
21.2838198
20
122.5483156
11
21.3058198
21
122.4895156
0
LINE
8
DEFAULT_255_2_778
10
21.3058198
20
122.4895156
11
21.3169198
21
122.4469156
0
LINE
8
DEFAULT_255_2_778
10
21.3169198
20
122.4469156
11
21.3214198
21
122.4242156
0
LINE
8
DEFAULT_255_2_778
10
21.3214198
20
122.4242156
11
21.3248198
21
122.4012156
0
LINE
8
DEFAULT_255_2_778
10
21.3248198
20
122.4012156
11
21.3240198
21
122.2244156
0
LINE
8
DEFAULT_255_2_778
10
21.3240198
20
122.2244156
11
21.3198198
21
122.1964156
0
LINE
8
DEFAULT_255_2_778
10
21.3198198
20
122.1964156
11
21.3082198
21
122.1408156
0
LINE
8
DEFAULT_255_2_778
10
21.3082198
20
122.1408156
11
21.2928198
21
122.0860156
0
LINE
8
DEFAULT_255_2_778
10
21.2928198
20
122.0860156
11
21.2640198
21
122.0054156
0
LINE
8
DEFAULT_255_2_778
10
21.2640198
20
122.0054156
11
21.2290198
21
121.9270156
0
LINE
8
DEFAULT_255_2_778
10
21.2290198
20
121.9270156
11
21.1711198
21
121.8201156
0
LINE
8
DEFAULT_255_2_778
10
21.1711198
20
121.8201156
11
21.1050198
21
121.7188156
0
LINE
8
DEFAULT_255_2_778
10
21.1050198
20
121.7188156
11
20.9798198
21
121.5603156
0
LINE
8
DEFAULT_255_2_778
10
20.9798198
20
121.5603156
11
20.8031198
21
121.3756156
0
LINE
8
DEFAULT_255_2_778
10
20.8031198
20
121.3756156
11
20.4194198
21
121.0275156
0
LINE
8
DEFAULT_255_2_778
10
20.4194198
20
121.0275156
11
21.3672198
21
121.0275156
0
LINE
8
DEFAULT_255_2_778
10
21.3672198
20
121.0275156
11
21.3672198
21
120.8092156
0
LINE
8
DEFAULT_255_2_778
10
21.3672198
20
120.8092156
11
20.1260198
21
120.8092156
0
LINE
8
DEFAULT_255_2_778
10
20.1260198
20
120.8092156
11
20.1260198
21
121.0486156
0
LINE
8
DEFAULT_255_2_778
10
20.1260198
20
121.0486156
11
20.3816198
21
121.2764156
0
LINE
8
DEFAULT_255_2_778
10
20.3816198
20
121.2764156
11
20.6157198
21
121.5116156
0
LINE
8
DEFAULT_255_2_778
10
20.6157198
20
121.5116156
11
20.8012198
21
121.7228156
0
LINE
8
DEFAULT_255_2_778
10
20.8012198
20
121.7228156
11
20.9552198
21
121.9307156
0
LINE
8
DEFAULT_255_2_778
10
20.9552198
20
121.9307156
11
21.0153198
21
122.0318156
0
LINE
8
DEFAULT_255_2_778
10
21.0153198
20
122.0318156
11
21.0602198
21
122.1297156
0
LINE
8
DEFAULT_255_2_778
10
21.0602198
20
122.1297156
11
21.0785198
21
122.1845156
0
LINE
8
DEFAULT_255_2_778
10
21.0785198
20
122.1845156
11
21.0878198
21
122.2218156
0
LINE
8
DEFAULT_255_2_778
10
21.0878198
20
122.2218156
11
21.0938198
21
122.2594156
0
LINE
8
DEFAULT_255_2_778
10
21.0938198
20
122.2594156
11
21.0923198
21
122.3628156
0
LINE
8
DEFAULT_255_2_778
10
21.0923198
20
122.3628156
11
21.0806198
21
122.4141156
0
LINE
8
DEFAULT_255_2_778
10
21.0806198
20
122.4141156
11
21.0536198
21
122.4768156
0
LINE
8
DEFAULT_255_2_778
10
21.0536198
20
122.4768156
11
20.9846198
21
122.5554156
0
LINE
8
DEFAULT_255_2_778
10
20.9846198
20
122.5554156
11
20.8557198
21
122.6144156
0
LINE
8
DEFAULT_255_2_778
10
20.8557198
20
122.6144156
11
20.6443198
21
122.6049156
0
LINE
8
DEFAULT_255_2_778
10
20.6443198
20
122.6049156
11
20.5245198
21
122.5284156
0
LINE
8
DEFAULT_255_2_778
10
20.5245198
20
122.5284156
11
20.4737198
21
122.4575156
0
LINE
8
DEFAULT_255_2_778
10
20.4737198
20
122.4575156
11
20.4488198
21
122.3935156
0
LINE
8
DEFAULT_255_2_778
10
20.4488198
20
122.3935156
11
20.4409198
21
122.3586156
0
LINE
8
DEFAULT_255_2_778
10
20.4409198
20
122.3586156
11
20.4369198
21
122.3332156
0
LINE
8
DEFAULT_255_2_778
10
20.4369198
20
122.3332156
11
20.4345198
21
122.3075156
0
LINE
8
DEFAULT_255_2_778
10
20.4345198
20
122.3075156
11
20.4332198
21
122.2691156
0
LINE
8
DEFAULT_255_2_778
10
26.2763055
20
122.809399
11
26.5467055
21
122.809399
0
LINE
8
DEFAULT_255_2_778
10
26.5467055
20
122.809399
11
27.2854055
21
120.809399
0
LINE
8
DEFAULT_255_2_778
10
27.2854055
20
120.809399
11
27.0174055
21
120.809399
0
LINE
8
DEFAULT_255_2_778
10
27.0174055
20
120.809399
11
26.8361055
21
121.330899
0
LINE
8
DEFAULT_255_2_778
10
26.8361055
20
121.330899
11
25.9892055
21
121.330899
0
LINE
8
DEFAULT_255_2_778
10
25.9892055
20
121.330899
11
25.8106055
21
120.809399
0
LINE
8
DEFAULT_255_2_778
10
25.8106055
20
120.809399
11
25.5376055
21
120.809399
0
LINE
8
DEFAULT_255_2_778
10
25.5376055
20
120.809399
11
26.2763055
21
122.809399
0
LINE
8
DEFAULT_255_2_778
10
26.0683055
20
121.557899
11
26.7583055
21
121.557899
0
LINE
8
DEFAULT_255_2_778
10
26.7583055
20
121.557899
11
26.4125055
21
122.551399
0
LINE
8
DEFAULT_255_2_778
10
26.4125055
20
122.551399
11
26.0683055
21
121.557899
0
LINE
8
DEFAULT_255_2_778
10
7.9113055
20
122.809399
11
8.6264055
21
122.802499
0
LINE
8
DEFAULT_255_2_778
10
8.6264055
20
122.802499
11
8.8265055
21
122.763899
0
LINE
8
DEFAULT_255_2_778
10
8.8265055
20
122.763899
11
8.9598055
21
122.709399
0
LINE
8
DEFAULT_255_2_778
10
8.9598055
20
122.709399
11
9.0686055
21
122.636599
0
LINE
8
DEFAULT_255_2_778
10
9.0686055
20
122.636599
11
9.1609055
21
122.546699
0
LINE
8
DEFAULT_255_2_778
10
9.1609055
20
122.546699
11
9.2236055
21
122.464399
0
LINE
8
DEFAULT_255_2_778
10
9.2236055
20
122.464399
11
9.2757055
21
122.375199
0
LINE
8
DEFAULT_255_2_778
10
9.2757055
20
122.375199
11
9.3009055
21
122.320699
0
LINE
8
DEFAULT_255_2_778
10
9.3009055
20
122.320699
11
9.3249055
21
122.256699
0
LINE
8
DEFAULT_255_2_778
10
9.3249055
20
122.256699
11
9.3443055
21
122.191299
0
LINE
8
DEFAULT_255_2_778
10
9.3443055
20
122.191299
11
9.3593055
21
122.124699
0
LINE
8
DEFAULT_255_2_778
10
9.3593055
20
122.124699
11
9.3654055
21
122.091099
0
LINE
8
DEFAULT_255_2_778
10
9.3654055
20
122.091099
11
9.3707055
21
122.057199
0
LINE
8
DEFAULT_255_2_778
10
9.3707055
20
122.057199
11
9.3752055
21
122.023099
0
LINE
8
DEFAULT_255_2_778
10
9.3752055
20
122.023099
11
9.3739055
21
121.537499
0
LINE
8
DEFAULT_255_2_778
10
9.3739055
20
121.537499
11
9.3691055
21
121.503399
0
LINE
8
DEFAULT_255_2_778
10
9.3691055
20
121.503399
11
9.3633055
21
121.469599
0
LINE
8
DEFAULT_255_2_778
10
9.3633055
20
121.469599
11
9.3488055
21
121.402599
0
LINE
8
DEFAULT_255_2_778
10
9.3488055
20
121.402599
11
9.3300055
21
121.336999
0
LINE
8
DEFAULT_255_2_778
10
9.3300055
20
121.336999
11
9.3062055
21
121.272699
0
LINE
8
DEFAULT_255_2_778
10
9.3062055
20
121.272699
11
9.2689055
21
121.195399
0
LINE
8
DEFAULT_255_2_778
10
9.2689055
20
121.195399
11
9.2133055
21
121.108399
0
LINE
8
DEFAULT_255_2_778
10
9.2133055
20
121.108399
11
9.1466055
21
121.029299
0
LINE
8
DEFAULT_255_2_778
10
9.1466055
20
121.029299
11
9.0492055
21
120.945399
0
LINE
8
DEFAULT_255_2_778
10
9.0492055
20
120.945399
11
8.9553055
21
120.890599
0
LINE
8
DEFAULT_255_2_778
10
8.9553055
20
120.890599
11
8.8191055
21
120.842199
0
LINE
8
DEFAULT_255_2_778
10
8.8191055
20
120.842199
11
8.5878055
21
120.810699
0
LINE
8
DEFAULT_255_2_778
10
8.5878055
20
120.810699
11
7.9113055
21
120.809699
0
LINE
8
DEFAULT_255_2_778
10
7.9113055
20
120.809699
11
7.9113055
21
122.809399
0
LINE
8
DEFAULT_255_2_778
10
8.5312055
20
121.036199
11
8.7085055
21
121.053899
0
LINE
8
DEFAULT_255_2_778
10
8.7085055
20
121.053899
11
8.8431055
21
121.100999
0
LINE
8
DEFAULT_255_2_778
10
8.8431055
20
121.100999
11
8.9379055
21
121.164999
0
LINE
8
DEFAULT_255_2_778
10
8.9379055
20
121.164999
11
9.0014055
21
121.233499
0
LINE
8
DEFAULT_255_2_778
10
9.0014055
20
121.233499
11
9.0440055
21
121.300999
0
LINE
8
DEFAULT_255_2_778
10
9.0440055
20
121.300999
11
9.0770055
21
121.375899
0
LINE
8
DEFAULT_255_2_778
10
9.0770055
20
121.375899
11
9.0924055
21
121.421699
0
LINE
8
DEFAULT_255_2_778
10
9.0924055
20
121.421699
11
9.1069055
21
121.475399
0
LINE
8
DEFAULT_255_2_778
10
9.1069055
20
121.475399
11
9.1183055
21
121.529899
0
LINE
8
DEFAULT_255_2_778
10
9.1183055
20
121.529899
11
9.1270055
21
121.584899
0
LINE
8
DEFAULT_255_2_778
10
9.1270055
20
121.584899
11
9.1318055
21
121.623499
0
LINE
8
DEFAULT_255_2_778
10
9.1318055
20
121.623499
11
9.1313055
21
122.008199
0
LINE
8
DEFAULT_255_2_778
10
9.1313055
20
122.008199
11
9.1231055
21
122.061999
0
LINE
8
DEFAULT_255_2_778
10
9.1231055
20
122.061999
11
9.1120055
21
122.114899
0
LINE
8
DEFAULT_255_2_778
10
9.1120055
20
122.114899
11
9.0974055
21
122.166999
0
LINE
8
DEFAULT_255_2_778
10
9.0974055
20
122.166999
11
9.0789055
21
122.217799
0
LINE
8
DEFAULT_255_2_778
10
9.0789055
20
122.217799
11
9.0405055
21
122.296399
0
LINE
8
DEFAULT_255_2_778
10
9.0405055
20
122.296399
11
8.9831055
21
122.379499
0
LINE
8
DEFAULT_255_2_778
10
8.9831055
20
122.379499
11
8.8974055
21
122.463599
0
LINE
8
DEFAULT_255_2_778
10
8.8974055
20
122.463599
11
8.7923055
21
122.526299
0
LINE
8
DEFAULT_255_2_778
10
8.7923055
20
122.526299
11
8.6085055
21
122.574699
0
LINE
8
DEFAULT_255_2_778
10
8.6085055
20
122.574699
11
8.4817055
21
122.582399
0
LINE
8
DEFAULT_255_2_778
10
8.4817055
20
122.582399
11
8.1576055
21
122.582399
0
LINE
8
DEFAULT_255_2_778
10
8.1576055
20
122.582399
11
8.1576055
21
121.035899
0
LINE
8
DEFAULT_255_2_778
10
8.1576055
20
121.035899
11
8.5312055
21
121.036199
0
LINE
8
DEFAULT_255_2_778
10
7.5459055
20
82.907899
11
7.3644055
21
82.907899
0
LINE
8
DEFAULT_255_2_778
10
7.3644055
20
82.907899
11
7.1593055
21
82.709899
0
LINE
8
DEFAULT_255_2_778
10
7.1593055
20
82.709899
11
6.9813055
21
82.600399
0
LINE
8
DEFAULT_255_2_778
10
6.9813055
20
82.600399
11
6.9813055
21
82.350899
0
LINE
8
DEFAULT_255_2_778
10
6.9813055
20
82.350899
11
7.2652055
21
82.533999
0
LINE
8
DEFAULT_255_2_778
10
7.2652055
20
82.533999
11
7.3316055
21
82.598799
0
LINE
8
DEFAULT_255_2_778
10
7.3316055
20
82.598799
11
7.3316055
21
80.919199
0
LINE
8
DEFAULT_255_2_778
10
7.3316055
20
80.919199
11
7.5459055
21
80.919199
0
LINE
8
DEFAULT_255_2_778
10
7.5459055
20
80.919199
11
7.5459055
21
82.907899
0
LINE
8
DEFAULT_255_2_778
10
7.5779055
20
92.651399
11
7.4250055
21
92.592099
0
LINE
8
DEFAULT_255_2_778
10
7.4250055
20
92.592099
11
7.3347055
21
92.522299
0
LINE
8
DEFAULT_255_2_778
10
7.3347055
20
92.522299
11
7.2789055
21
92.466199
0
LINE
8
DEFAULT_255_2_778
10
7.2789055
20
92.466199
11
7.2945055
21
93.109699
0
LINE
8
DEFAULT_255_2_778
10
7.2945055
20
93.109699
11
8.2018055
21
93.109699
0
LINE
8
DEFAULT_255_2_778
10
8.2018055
20
93.109699
11
8.2018055
21
93.327899
0
LINE
8
DEFAULT_255_2_778
10
8.2018055
20
93.327899
11
7.0437055
21
93.327899
0
LINE
8
DEFAULT_255_2_778
10
7.0437055
20
93.327899
11
7.0268055
21
92.158499
0
LINE
8
DEFAULT_255_2_778
10
7.0268055
20
92.158499
11
7.2948055
21
92.158499
0
LINE
8
DEFAULT_255_2_778
10
7.2948055
20
92.158499
11
7.2980055
21
92.183099
0
LINE
8
DEFAULT_255_2_778
10
7.2980055
20
92.183099
11
7.3062055
21
92.219299
0
LINE
8
DEFAULT_255_2_778
10
7.3062055
20
92.219299
11
7.3279055
21
92.275199
0
LINE
8
DEFAULT_255_2_778
10
7.3279055
20
92.275199
11
7.3747055
21
92.342099
0
LINE
8
DEFAULT_255_2_778
10
7.3747055
20
92.342099
11
7.4776055
21
92.416699
0
LINE
8
DEFAULT_255_2_778
10
7.4776055
20
92.416699
11
7.6287055
21
92.450599
0
LINE
8
DEFAULT_255_2_778
10
7.6287055
20
92.450599
11
7.7957055
21
92.423599
0
LINE
8
DEFAULT_255_2_778
10
7.7957055
20
92.423599
11
7.8975055
21
92.357999
0
LINE
8
DEFAULT_255_2_778
10
7.8975055
20
92.357999
11
7.9676055
21
92.267999
0
LINE
8
DEFAULT_255_2_778
10
7.9676055
20
92.267999
11
8.0015055
21
92.194699
0
LINE
8
DEFAULT_255_2_778
10
8.0015055
20
92.194699
11
8.0174055
21
92.140999
0
LINE
8
DEFAULT_255_2_778
10
8.0174055
20
92.140999
11
8.0261055
21
92.095999
0
LINE
8
DEFAULT_255_2_778
10
8.0261055
20
92.095999
11
8.0261055
21
91.882299
0
LINE
8
DEFAULT_255_2_778
10
8.0261055
20
91.882299
11
8.0176055
21
91.838099
0
LINE
8
DEFAULT_255_2_778
10
8.0176055
20
91.838099
11
8.0020055
21
91.783599
0
LINE
8
DEFAULT_255_2_778
10
8.0020055
20
91.783599
11
7.9690055
21
91.709199
0
LINE
8
DEFAULT_255_2_778
10
7.9690055
20
91.709199
11
7.8959055
21
91.613399
0
LINE
8
DEFAULT_255_2_778
10
7.8959055
20
91.613399
11
7.7732055
21
91.540099
0
LINE
8
DEFAULT_255_2_778
10
7.7732055
20
91.540099
11
7.5485055
21
91.528999
0
LINE
8
DEFAULT_255_2_778
10
7.5485055
20
91.528999
11
7.4191055
21
91.580899
0
LINE
8
DEFAULT_255_2_778
10
7.4191055
20
91.580899
11
7.3289055
21
91.668999
0
LINE
8
DEFAULT_255_2_778
10
7.3289055
20
91.668999
11
7.2824055
21
91.752099
0
LINE
8
DEFAULT_255_2_778
10
7.2824055
20
91.752099
11
7.2638055
21
91.808199
0
LINE
8
DEFAULT_255_2_778
10
7.2638055
20
91.808199
11
7.2570055
21
91.842599
0
LINE
8
DEFAULT_255_2_778
10
7.2570055
20
91.842599
11
7.2554055
21
91.853899
0
LINE
8
DEFAULT_255_2_778
10
7.2554055
20
91.853899
11
6.9818055
21
91.853899
0
LINE
8
DEFAULT_255_2_778
10
6.9818055
20
91.853899
11
6.9871055
21
91.812699
0
LINE
8
DEFAULT_255_2_778
10
6.9871055
20
91.812699
11
6.9950055
21
91.771699
0
LINE
8
DEFAULT_255_2_778
10
6.9950055
20
91.771699
11
7.0117055
21
91.711099
0
LINE
8
DEFAULT_255_2_778
10
7.0117055
20
91.711099
11
7.0411055
21
91.637299
0
LINE
8
DEFAULT_255_2_778
10
7.0411055
20
91.637299
11
7.0792055
21
91.569299
0
LINE
8
DEFAULT_255_2_778
10
7.0792055
20
91.569299
11
7.1397055
21
91.493099
0
LINE
8
DEFAULT_255_2_778
10
7.1397055
20
91.493099
11
7.2318055
21
91.413399
0
LINE
8
DEFAULT_255_2_778
10
7.2318055
20
91.413399
11
7.3464055
21
91.349599
0
LINE
8
DEFAULT_255_2_778
10
7.3464055
20
91.349599
11
7.4985055
21
91.305699
0
LINE
8
DEFAULT_255_2_778
10
7.4985055
20
91.305699
11
7.7163055
21
91.296699
0
LINE
8
DEFAULT_255_2_778
10
7.7163055
20
91.296699
11
7.8787055
21
91.326899
0
LINE
8
DEFAULT_255_2_778
10
7.8787055
20
91.326899
11
8.0160055
21
91.388799
0
LINE
8
DEFAULT_255_2_778
10
8.0160055
20
91.388799
11
8.1203055
21
91.471599
0
LINE
8
DEFAULT_255_2_778
10
8.1203055
20
91.471599
11
8.1864055
21
91.551499
0
LINE
8
DEFAULT_255_2_778
10
8.1864055
20
91.551499
11
8.2296055
21
91.624299
0
LINE
8
DEFAULT_255_2_778
10
8.2296055
20
91.624299
11
8.2563055
21
91.685099
0
LINE
8
DEFAULT_255_2_778
10
8.2563055
20
91.685099
11
8.2769055
21
91.748399
0
LINE
8
DEFAULT_255_2_778
10
8.2769055
20
91.748399
11
8.2872055
21
91.791499
0
LINE
8
DEFAULT_255_2_778
10
8.2872055
20
91.791499
11
8.2960055
21
91.839899
0
LINE
8
DEFAULT_255_2_778
10
8.2960055
20
91.839899
11
8.2968055
21
92.134699
0
LINE
8
DEFAULT_255_2_778
10
8.2968055
20
92.134699
11
8.2870055
21
92.191599
0
LINE
8
DEFAULT_255_2_778
10
8.2870055
20
92.191599
11
8.2719055
21
92.252099
0
LINE
8
DEFAULT_255_2_778
10
8.2719055
20
92.252099
11
8.2521055
21
92.311099
0
LINE
8
DEFAULT_255_2_778
10
8.2521055
20
92.311099
11
8.2140055
21
92.392599
0
LINE
8
DEFAULT_255_2_778
10
8.2140055
20
92.392599
11
8.1454055
21
92.489999
0
LINE
8
DEFAULT_255_2_778
10
8.1454055
20
92.489999
11
8.0475055
21
92.576499
0
LINE
8
DEFAULT_255_2_778
10
8.0475055
20
92.576499
11
7.8996055
21
92.643699
0
LINE
8
DEFAULT_255_2_778
10
7.8996055
20
92.643699
11
7.6856055
21
92.665199
0
LINE
8
DEFAULT_255_2_778
10
7.6856055
20
92.665199
11
7.5779055
21
92.651399
0
LINE
8
DEFAULT_255_2_778
10
7.6872055
20
98.502899
11
7.4604055
21
98.502899
0
LINE
8
DEFAULT_255_2_778
10
7.4604055
20
98.502899
11
7.2035055
21
98.304799
0
LINE
8
DEFAULT_255_2_778
10
7.2035055
20
98.304799
11
6.9813055
21
98.195499
0
LINE
8
DEFAULT_255_2_778
10
6.9813055
20
98.195499
11
6.9813055
21
97.945999
0
LINE
8
DEFAULT_255_2_778
10
6.9813055
20
97.945999
11
7.3361055
21
98.129099
0
LINE
8
DEFAULT_255_2_778
10
7.3361055
20
98.129099
11
7.4191055
21
98.193899
0
LINE
8
DEFAULT_255_2_778
10
7.4191055
20
98.193899
11
7.4191055
21
96.514299
0
LINE
8
DEFAULT_255_2_778
10
7.4191055
20
96.514299
11
7.6872055
21
96.514299
0
LINE
8
DEFAULT_255_2_778
10
7.6872055
20
96.514299
11
7.6872055
21
98.502899
0
LINE
8
DEFAULT_255_2_778
10
8.7659055
20
82.730299
11
8.9506055
21
82.709699
0
LINE
8
DEFAULT_255_2_778
10
8.9506055
20
82.709699
11
9.0604055
21
82.630599
0
LINE
8
DEFAULT_255_2_778
10
9.0604055
20
82.630599
11
9.1067055
21
82.556199
0
LINE
8
DEFAULT_255_2_778
10
9.1067055
20
82.556199
11
9.1252055
21
82.498499
0
LINE
8
DEFAULT_255_2_778
10
9.1252055
20
82.498499
11
9.1315055
21
82.464899
0
LINE
8
DEFAULT_255_2_778
10
9.1315055
20
82.464899
11
9.1305055
21
82.332099
0
LINE
8
DEFAULT_255_2_778
10
9.1305055
20
82.332099
11
9.1175055
21
82.280799
0
LINE
8
DEFAULT_255_2_778
10
9.1175055
20
82.280799
11
9.0723055
21
82.196099
0
LINE
8
DEFAULT_255_2_778
10
9.0723055
20
82.196099
11
8.9413055
21
82.090799
0
LINE
8
DEFAULT_255_2_778
10
8.9413055
20
82.090799
11
8.7730055
21
82.053799
0
LINE
8
DEFAULT_255_2_778
10
8.7730055
20
82.053799
11
8.7016055
21
82.053799
0
LINE
8
DEFAULT_255_2_778
10
8.7016055
20
82.053799
11
8.7016055
21
81.829899
0
LINE
8
DEFAULT_255_2_778
10
8.7016055
20
81.829899
11
8.9442055
21
81.806899
0
LINE
8
DEFAULT_255_2_778
10
8.9442055
20
81.806899
11
9.0799055
21
81.727799
0
LINE
8
DEFAULT_255_2_778
10
9.0799055
20
81.727799
11
9.1329055
21
81.657999
0
LINE
8
DEFAULT_255_2_778
10
9.1329055
20
81.657999
11
9.1546055
21
81.603999
0
LINE
8
DEFAULT_255_2_778
10
9.1546055
20
81.603999
11
9.1625055
21
81.569299
0
LINE
8
DEFAULT_255_2_778
10
9.1625055
20
81.569299
11
9.1601055
21
81.395499
0
LINE
8
DEFAULT_255_2_778
10
9.1601055
20
81.395499
11
9.1453055
21
81.335999
0
LINE
8
DEFAULT_255_2_778
10
9.1453055
20
81.335999
11
9.1180055
21
81.272499
0
LINE
8
DEFAULT_255_2_778
10
9.1180055
20
81.272499
11
9.0503055
21
81.186199
0
LINE
8
DEFAULT_255_2_778
10
9.0503055
20
81.186199
11
8.9347055
21
81.118699
0
LINE
8
DEFAULT_255_2_778
10
8.9347055
20
81.118699
11
8.7040055
21
81.122399
0
LINE
8
DEFAULT_255_2_778
10
8.7040055
20
81.122399
11
8.5833055
21
81.210799
0
LINE
8
DEFAULT_255_2_778
10
8.5833055
20
81.210799
11
8.5116055
21
81.322999
0
LINE
8
DEFAULT_255_2_778
10
8.5116055
20
81.322999
11
8.4788055
21
81.413799
0
LINE
8
DEFAULT_255_2_778
10
8.4788055
20
81.413799
11
8.4664055
21
81.465599
0
LINE
8
DEFAULT_255_2_778
10
8.4664055
20
81.465599
11
8.2476055
21
81.465599
0
LINE
8
DEFAULT_255_2_778
10
8.2476055
20
81.465599
11
8.2547055
21
81.416899
0
LINE
8
DEFAULT_255_2_778
10
8.2547055
20
81.416899
11
8.2642055
21
81.368499
0
LINE
8
DEFAULT_255_2_778
10
8.2642055
20
81.368499
11
8.2764055
21
81.320599
0
LINE
8
DEFAULT_255_2_778
10
8.2764055
20
81.320599
11
8.3037055
21
81.241199
0
LINE
8
DEFAULT_255_2_778
10
8.3037055
20
81.241199
11
8.3468055
21
81.152899
0
LINE
8
DEFAULT_255_2_778
10
8.3468055
20
81.152899
11
8.4116055
21
81.061599
0
LINE
8
DEFAULT_255_2_778
10
8.4116055
20
81.061599
11
8.5034055
21
80.975099
0
LINE
8
DEFAULT_255_2_778
10
8.5034055
20
80.975099
11
8.6246055
21
80.907899
0
LINE
8
DEFAULT_255_2_778
10
8.6246055
20
80.907899
11
8.7963055
21
80.874799
0
LINE
8
DEFAULT_255_2_778
10
8.7963055
20
80.874799
11
8.9844055
21
80.894599
0
LINE
8
DEFAULT_255_2_778
10
8.9844055
20
80.894599
11
9.1299055
21
80.955799
0
LINE
8
DEFAULT_255_2_778
10
9.1299055
20
80.955799
11
9.2244055
21
81.031199
0
LINE
8
DEFAULT_255_2_778
10
9.2244055
20
81.031199
11
9.2890055
21
81.112099
0
LINE
8
DEFAULT_255_2_778
10
9.2890055
20
81.112099
11
9.3231055
21
81.174299
0
LINE
8
DEFAULT_255_2_778
10
9.3231055
20
81.174299
11
9.3493055
21
81.242299
0
LINE
8
DEFAULT_255_2_778
10
9.3493055
20
81.242299
11
9.3636055
21
81.294999
0
LINE
8
DEFAULT_255_2_778
10
9.3636055
20
81.294999
11
9.3723055
21
81.340199
0
LINE
8
DEFAULT_255_2_778
10
9.3723055
20
81.340199
11
9.3699055
21
81.618499
0
LINE
8
DEFAULT_255_2_778
10
9.3699055
20
81.618499
11
9.3533055
21
81.680999
0
LINE
8
DEFAULT_255_2_778
10
9.3533055
20
81.680999
11
9.2982055
21
81.789199
0
LINE
8
DEFAULT_255_2_778
10
9.2982055
20
81.789199
11
9.1564055
21
81.915399
0
LINE
8
DEFAULT_255_2_778
10
9.1564055
20
81.915399
11
9.0855055
21
81.942899
0
LINE
8
DEFAULT_255_2_778
10
9.0855055
20
81.942899
11
9.1905055
21
82.019099
0
LINE
8
DEFAULT_255_2_778
10
9.1905055
20
82.019099
11
9.2567055
21
82.096599
0
LINE
8
DEFAULT_255_2_778
10
9.2567055
20
82.096599
11
9.2990055
21
82.171799
0
LINE
8
DEFAULT_255_2_778
10
9.2990055
20
82.171799
11
9.3234055
21
82.237099
0
LINE
8
DEFAULT_255_2_778
10
9.3234055
20
82.237099
11
9.3363055
21
82.289499
0
LINE
8
DEFAULT_255_2_778
10
9.3363055
20
82.289499
11
9.3424055
21
82.327099
0
LINE
8
DEFAULT_255_2_778
10
9.3424055
20
82.327099
11
9.3416055
21
82.522399
0
LINE
8
DEFAULT_255_2_778
10
9.3416055
20
82.522399
11
9.3345055
21
82.561799
0
LINE
8
DEFAULT_255_2_778
10
9.3345055
20
82.561799
11
9.3210055
21
82.612599
0
LINE
8
DEFAULT_255_2_778
10
9.3210055
20
82.612599
11
9.2974055
21
82.672899
0
LINE
8
DEFAULT_255_2_778
10
9.2974055
20
82.672899
11
9.2569055
21
82.742199
0
LINE
8
DEFAULT_255_2_778
10
9.2569055
20
82.742199
11
9.1818055
21
82.824499
0
LINE
8
DEFAULT_255_2_778
10
9.1818055
20
82.824499
11
9.0776055
21
82.893799
0
LINE
8
DEFAULT_255_2_778
10
9.0776055
20
82.893799
11
8.9376055
21
82.939299
0
LINE
8
DEFAULT_255_2_778
10
8.9376055
20
82.939299
11
8.7386055
21
82.944899
0
LINE
8
DEFAULT_255_2_778
10
8.7386055
20
82.944899
11
8.5706055
21
82.898599
0
LINE
8
DEFAULT_255_2_778
10
8.5706055
20
82.898599
11
8.4105055
21
82.774499
0
LINE
8
DEFAULT_255_2_778
10
8.4105055
20
82.774499
11
8.3481055
21
82.676899
0
LINE
8
DEFAULT_255_2_778
10
8.3481055
20
82.676899
11
8.3164055
21
82.590099
0
LINE
8
DEFAULT_255_2_778
10
8.3164055
20
82.590099
11
8.3031055
21
82.528999
0
LINE
8
DEFAULT_255_2_778
10
8.3031055
20
82.528999
11
8.2978055
21
82.490099
0
LINE
8
DEFAULT_255_2_778
10
8.2978055
20
82.490099
11
8.2954055
21
82.464099
0
LINE
8
DEFAULT_255_2_778
10
8.2954055
20
82.464099
11
8.2931055
21
82.399599
0
LINE
8
DEFAULT_255_2_778
10
8.2931055
20
82.399599
11
8.5005055
21
82.399599
0
LINE
8
DEFAULT_255_2_778
10
8.5005055
20
82.399599
11
8.5024055
21
82.443999
0
LINE
8
DEFAULT_255_2_778
10
8.5024055
20
82.443999
11
8.5069055
21
82.477399
0
LINE
8
DEFAULT_255_2_778
10
8.5069055
20
82.477399
11
8.5196055
21
82.528399
0
LINE
8
DEFAULT_255_2_778
10
8.5196055
20
82.528399
11
8.5489055
21
82.591699
0
LINE
8
DEFAULT_255_2_778
10
8.5489055
20
82.591699
11
8.6283055
21
82.676599
0
LINE
8
DEFAULT_255_2_778
10
8.6283055
20
82.676599
11
8.7656055
21
82.730299
0
LINE
8
DEFAULT_255_2_778
10
7.4144055
20
108.615299
11
7.6067055
21
108.548399
0
LINE
8
DEFAULT_255_2_778
10
7.6067055
20
108.548399
11
7.6718055
21
108.442499
0
LINE
8
DEFAULT_255_2_778
10
7.6718055
20
108.442499
11
7.6888055
21
108.376899
0
LINE
8
DEFAULT_255_2_778
10
7.6888055
20
108.376899
11
7.6941055
21
108.334299
0
LINE
8
DEFAULT_255_2_778
10
7.6941055
20
108.334299
11
7.6956055
21
108.308599
0
LINE
8
DEFAULT_255_2_778
10
7.6956055
20
108.308599
11
7.8623055
21
108.308599
0
LINE
8
DEFAULT_255_2_778
10
7.8623055
20
108.308599
11
7.8605055
21
108.379299
0
LINE
8
DEFAULT_255_2_778
10
7.8605055
20
108.379299
11
7.8576055
21
108.409199
0
LINE
8
DEFAULT_255_2_778
10
7.8576055
20
108.409199
11
7.8509055
21
108.455199
0
LINE
8
DEFAULT_255_2_778
10
7.8509055
20
108.455199
11
7.8375055
21
108.517399
0
LINE
8
DEFAULT_255_2_778
10
7.8375055
20
108.517399
11
7.8126055
21
108.593899
0
LINE
8
DEFAULT_255_2_778
10
7.8126055
20
108.593899
11
7.7705055
21
108.678799
0
LINE
8
DEFAULT_255_2_778
10
7.7705055
20
108.678799
11
7.7068055
21
108.757899
0
LINE
8
DEFAULT_255_2_778
10
7.7068055
20
108.757899
11
7.6112055
21
108.818499
0
LINE
8
DEFAULT_255_2_778
10
7.6112055
20
108.818499
11
7.4456055
21
108.848899
0
LINE
8
DEFAULT_255_2_778
10
7.4456055
20
108.848899
11
7.2874055
21
108.822199
0
LINE
8
DEFAULT_255_2_778
10
7.2874055
20
108.822199
11
7.1781055
21
108.759999
0
LINE
8
DEFAULT_255_2_778
10
7.1781055
20
108.759999
11
7.1009055
21
108.677499
0
LINE
8
DEFAULT_255_2_778
10
7.1009055
20
108.677499
11
7.0577055
21
108.604199
0
LINE
8
DEFAULT_255_2_778
10
7.0577055
20
108.604199
11
7.0321055
21
108.539099
0
LINE
8
DEFAULT_255_2_778
10
7.0321055
20
108.539099
11
7.0141055
21
108.471399
0
LINE
8
DEFAULT_255_2_778
10
7.0141055
20
108.471399
11
7.0069055
21
108.434099
0
LINE
8
DEFAULT_255_2_778
10
7.0069055
20
108.434099
11
7.0014055
21
108.393799
0
LINE
8
DEFAULT_255_2_778
10
7.0014055
20
108.393799
11
7.0024055
21
108.148299
0
LINE
8
DEFAULT_255_2_778
10
7.0024055
20
108.148299
11
7.0112055
21
108.096499
0
LINE
8
DEFAULT_255_2_778
10
7.0112055
20
108.096499
11
7.0302055
21
108.025799
0
LINE
8
DEFAULT_255_2_778
10
7.0302055
20
108.025799
11
7.0725055
21
107.933999
0
LINE
8
DEFAULT_255_2_778
10
7.0725055
20
107.933999
11
7.1649055
21
107.832699
0
LINE
8
DEFAULT_255_2_778
10
7.1649055
20
107.832699
11
7.2993055
21
107.757299
0
LINE
8
DEFAULT_255_2_778
10
7.2993055
20
107.757299
11
7.6221055
21
107.615999
0
LINE
8
DEFAULT_255_2_778
10
7.6221055
20
107.615999
11
7.6877055
21
107.543699
0
LINE
8
DEFAULT_255_2_778
10
7.6877055
20
107.543699
11
7.7126055
21
107.489999
0
LINE
8
DEFAULT_255_2_778
10
7.7126055
20
107.489999
11
7.7213055
21
107.456699
0
LINE
8
DEFAULT_255_2_778
10
7.7213055
20
107.456699
11
7.7195055
21
107.237599
0
LINE
8
DEFAULT_255_2_778
10
7.7195055
20
107.237599
11
7.7062055
21
107.188899
0
LINE
8
DEFAULT_255_2_778
10
7.7062055
20
107.188899
11
7.6708055
21
107.114099
0
LINE
8
DEFAULT_255_2_778
10
7.6708055
20
107.114099
11
7.6075055
21
107.043899
0
LINE
8
DEFAULT_255_2_778
10
7.6075055
20
107.043899
11
7.4475055
21
106.996299
0
LINE
8
DEFAULT_255_2_778
10
7.4475055
20
106.996299
11
7.2636055
21
107.052099
0
LINE
8
DEFAULT_255_2_778
10
7.2636055
20
107.052099
11
7.1823055
21
107.170899
0
LINE
8
DEFAULT_255_2_778
10
7.1823055
20
107.170899
11
7.1556055
21
107.263799
0
LINE
8
DEFAULT_255_2_778
10
7.1556055
20
107.263799
11
7.1480055
21
107.317799
0
LINE
8
DEFAULT_255_2_778
10
7.1480055
20
107.317799
11
7.1461055
21
107.388999
0
LINE
8
DEFAULT_255_2_778
10
7.1461055
20
107.388999
11
6.9810055
21
107.388999
0
LINE
8
DEFAULT_255_2_778
10
6.9810055
20
107.388999
11
6.9836055
21
107.336599
0
LINE
8
DEFAULT_255_2_778
10
6.9836055
20
107.336599
11
6.9868055
21
107.299499
0
LINE
8
DEFAULT_255_2_778
10
6.9868055
20
107.299499
11
6.9945055
21
107.241799
0
LINE
8
DEFAULT_255_2_778
10
6.9945055
20
107.241799
11
7.0056055
21
107.182599
0
LINE
8
DEFAULT_255_2_778
10
7.0056055
20
107.182599
11
7.0204055
21
107.122799
0
LINE
8
DEFAULT_255_2_778
10
7.0204055
20
107.122799
11
7.0527055
21
107.030999
0
LINE
8
DEFAULT_255_2_778
10
7.0527055
20
107.030999
11
7.1014055
21
106.940199
0
LINE
8
DEFAULT_255_2_778
10
7.1014055
20
106.940199
11
7.1662055
21
106.864599
0
LINE
8
DEFAULT_255_2_778
10
7.1662055
20
106.864599
11
7.2726055
21
106.799999
0
LINE
8
DEFAULT_255_2_778
10
7.2726055
20
106.799999
11
7.4379055
21
106.769599
0
LINE
8
DEFAULT_255_2_778
10
7.4379055
20
106.769599
11
7.5895055
21
106.794699
0
LINE
8
DEFAULT_255_2_778
10
7.5895055
20
106.794699
11
7.6925055
21
106.851299
0
LINE
8
DEFAULT_255_2_778
10
7.6925055
20
106.851299
11
7.7671055
21
106.926999
0
LINE
8
DEFAULT_255_2_778
10
7.7671055
20
106.926999
11
7.8192055
21
107.011099
0
LINE
8
DEFAULT_255_2_778
10
7.8192055
20
107.011099
11
7.8465055
21
107.075999
0
LINE
8
DEFAULT_255_2_778
10
7.8465055
20
107.075999
11
7.8674055
21
107.147699
0
LINE
8
DEFAULT_255_2_778
10
7.8674055
20
107.147699
11
7.8785055
21
107.202699
0
LINE
8
DEFAULT_255_2_778
10
7.8785055
20
107.202699
11
7.8856055
21
107.251399
0
LINE
8
DEFAULT_255_2_778
10
7.8856055
20
107.251399
11
7.8832055
21
107.541899
0
LINE
8
DEFAULT_255_2_778
10
7.8832055
20
107.541899
11
7.8708055
21
107.603299
0
LINE
8
DEFAULT_255_2_778
10
7.8708055
20
107.603299
11
7.8404055
21
107.691099
0
LINE
8
DEFAULT_255_2_778
10
7.8404055
20
107.691099
11
7.7763055
21
107.791899
0
LINE
8
DEFAULT_255_2_778
10
7.7763055
20
107.791899
11
7.6345055
21
107.898799
0
LINE
8
DEFAULT_255_2_778
10
7.6345055
20
107.898799
11
7.2601055
21
108.063399
0
LINE
8
DEFAULT_255_2_778
10
7.2601055
20
108.063399
11
7.1943055
21
108.142199
0
LINE
8
DEFAULT_255_2_778
10
7.1943055
20
108.142199
11
7.1744055
21
108.191699
0
LINE
8
DEFAULT_255_2_778
10
7.1744055
20
108.191699
11
7.1659055
21
108.231399
0
LINE
8
DEFAULT_255_2_778
10
7.1659055
20
108.231399
11
7.1675055
21
108.376099
0
LINE
8
DEFAULT_255_2_778
10
7.1675055
20
108.376099
11
7.1797055
21
108.429599
0
LINE
8
DEFAULT_255_2_778
10
7.1797055
20
108.429599
11
7.2077055
21
108.493599
0
LINE
8
DEFAULT_255_2_778
10
7.2077055
20
108.493599
11
7.2779055
21
108.568999
0
LINE
8
DEFAULT_255_2_778
10
7.2779055
20
108.568999
11
7.4144055
21
108.615799
0
LINE
8
DEFAULT_255_2_778
10
8.1430055
20
108.809199
11
8.8820055
21
108.809199
0
LINE
8
DEFAULT_255_2_778
10
8.8820055
20
108.809199
11
8.8820055
21
108.582499
0
LINE
8
DEFAULT_255_2_778
10
8.8820055
20
108.582499
11
8.3071055
21
108.582499
0
LINE
8
DEFAULT_255_2_778
10
8.3071055
20
108.582499
11
8.3071055
21
107.951699
0
LINE
8
DEFAULT_255_2_778
10
8.3071055
20
107.951699
11
8.8521055
21
107.951699
0
LINE
8
DEFAULT_255_2_778
10
8.8521055
20
107.951699
11
8.8521055
21
107.724999
0
LINE
8
DEFAULT_255_2_778
10
8.8521055
20
107.724999
11
8.3071055
21
107.724999
0
LINE
8
DEFAULT_255_2_778
10
8.3071055
20
107.724999
11
8.3071055
21
106.809299
0
LINE
8
DEFAULT_255_2_778
10
8.3071055
20
106.809299
11
8.1430055
21
106.809299
0
LINE
8
DEFAULT_255_2_778
10
8.1430055
20
106.809299
11
8.1430055
21
108.809199
0
LINE
8
DEFAULT_255_2_778
10
7.7041055
20
87.088799
11
7.5028055
21
87.105499
0
LINE
8
DEFAULT_255_2_778
10
7.5028055
20
87.105499
11
7.3882055
21
87.164999
0
LINE
8
DEFAULT_255_2_778
10
7.3882055
20
87.164999
11
7.3178055
21
87.239299
0
LINE
8
DEFAULT_255_2_778
10
7.3178055
20
87.239299
11
7.2797055
21
87.307299
0
LINE
8
DEFAULT_255_2_778
10
7.2797055
20
87.307299
11
7.2585055
21
87.370599
0
LINE
8
DEFAULT_255_2_778
10
7.2585055
20
87.370599
11
7.2501055
21
87.412399
0
LINE
8
DEFAULT_255_2_778
10
7.2501055
20
87.412399
11
7.2501055
21
87.591799
0
LINE
8
DEFAULT_255_2_778
10
7.2501055
20
87.591799
11
7.2588055
21
87.635399
0
LINE
8
DEFAULT_255_2_778
10
7.2588055
20
87.635399
11
7.2755055
21
87.687799
0
LINE
8
DEFAULT_255_2_778
10
7.2755055
20
87.687799
11
7.3165055
21
87.765099
0
LINE
8
DEFAULT_255_2_778
10
7.3165055
20
87.765099
11
7.3972055
21
87.847599
0
LINE
8
DEFAULT_255_2_778
10
7.3972055
20
87.847599
11
7.5250055
21
87.906599
0
LINE
8
DEFAULT_255_2_778
10
7.5250055
20
87.906599
11
7.7337055
21
87.917699
0
LINE
8
DEFAULT_255_2_778
10
7.7337055
20
87.917699
11
7.8917055
21
87.866399
0
LINE
8
DEFAULT_255_2_778
10
7.8917055
20
87.866399
11
7.9875055
21
87.783299
0
LINE
8
DEFAULT_255_2_778
10
7.9875055
20
87.783299
11
8.0314055
21
87.712699
0
LINE
8
DEFAULT_255_2_778
10
8.0314055
20
87.712699
11
8.0552055
21
87.648399
0
LINE
8
DEFAULT_255_2_778
10
8.0552055
20
87.648399
11
8.0650055
21
87.606599
0
LINE
8
DEFAULT_255_2_778
10
8.0650055
20
87.606599
11
8.0698055
21
87.576199
0
LINE
8
DEFAULT_255_2_778
10
8.0698055
20
87.576199
11
8.0692055
21
87.424599
0
LINE
8
DEFAULT_255_2_778
10
8.0692055
20
87.424599
11
8.0642055
21
87.394899
0
LINE
8
DEFAULT_255_2_778
10
8.0642055
20
87.394899
11
8.0510055
21
87.345399
0
LINE
8
DEFAULT_255_2_778
10
8.0510055
20
87.345399
11
8.0216055
21
87.279299
0
LINE
8
DEFAULT_255_2_778
10
8.0216055
20
87.279299
11
7.9557055
21
87.196499
0
LINE
8
DEFAULT_255_2_778
10
7.9557055
20
87.196499
11
7.8433055
21
87.123199
0
LINE
8
DEFAULT_255_2_778
10
7.8433055
20
87.123199
11
7.7041055
21
87.088799
0
LINE
8
DEFAULT_255_2_778
10
7.6745055
20
86.860699
11
7.8298055
21
86.892999
0
LINE
8
DEFAULT_255_2_778
10
7.8298055
20
86.892999
11
7.9528055
21
86.960699
0
LINE
8
DEFAULT_255_2_778
10
7.9528055
20
86.960699
11
8.0613055
21
87.063099
0
LINE
8
DEFAULT_255_2_778
10
8.0613055
20
87.063099
11
8.1237055
21
87.149699
0
LINE
8
DEFAULT_255_2_778
10
8.1237055
20
87.149699
11
8.1219055
21
87.105999
0
LINE
8
DEFAULT_255_2_778
10
8.1219055
20
87.105999
11
8.1198055
21
87.062299
0
LINE
8
DEFAULT_255_2_778
10
8.1198055
20
87.062299
11
8.1174055
21
87.018699
0
LINE
8
DEFAULT_255_2_778
10
8.1174055
20
87.018699
11
8.1145055
21
86.974999
0
LINE
8
DEFAULT_255_2_778
10
8.1145055
20
86.974999
11
8.1108055
21
86.931399
0
LINE
8
DEFAULT_255_2_778
10
8.1108055
20
86.931399
11
8.1063055
21
86.887699
0
LINE
8
DEFAULT_255_2_778
10
8.1063055
20
86.887699
11
8.0983055
21
86.827399
0
LINE
8
DEFAULT_255_2_778
10
8.0983055
20
86.827399
11
8.0883055
21
86.767299
0
LINE
8
DEFAULT_255_2_778
10
8.0883055
20
86.767299
11
8.0758055
21
86.707799
0
LINE
8
DEFAULT_255_2_778
10
8.0758055
20
86.707799
11
8.0576055
21
86.637899
0
LINE
8
DEFAULT_255_2_778
10
8.0576055
20
86.637899
11
8.0372055
21
86.578699
0
LINE
8
DEFAULT_255_2_778
10
8.0372055
20
86.578699
11
7.9975055
21
86.496099
0
LINE
8
DEFAULT_255_2_778
10
7.9975055
20
86.496099
11
7.9364055
21
86.415399
0
LINE
8
DEFAULT_255_2_778
10
7.9364055
20
86.415399
11
7.8338055
21
86.341399
0
LINE
8
DEFAULT_255_2_778
10
7.8338055
20
86.341399
11
7.6978055
21
86.300599
0
LINE
8
DEFAULT_255_2_778
10
7.6978055
20
86.300599
11
7.4919055
21
86.305899
0
LINE
8
DEFAULT_255_2_778
10
7.4919055
20
86.305899
11
7.3792055
21
86.353799
0
LINE
8
DEFAULT_255_2_778
10
7.3792055
20
86.353799
11
7.3070055
21
86.421999
0
LINE
8
DEFAULT_255_2_778
10
7.3070055
20
86.421999
11
7.2691055
21
86.484999
0
LINE
8
DEFAULT_255_2_778
10
7.2691055
20
86.484999
11
7.2527055
21
86.531099
0
LINE
8
DEFAULT_255_2_778
10
7.2527055
20
86.531099
11
7.2474055
21
86.554899
0
LINE
8
DEFAULT_255_2_778
10
7.2474055
20
86.554899
11
7.2443055
21
86.579199
0
LINE
8
DEFAULT_255_2_778
10
7.2443055
20
86.579199
11
7.2435055
21
86.603799
0
LINE
8
DEFAULT_255_2_778
10
7.2435055
20
86.603799
11
6.9813055
21
86.603799
0
LINE
8
DEFAULT_255_2_778
10
6.9813055
20
86.603799
11
6.9839055
21
86.544299
0
LINE
8
DEFAULT_255_2_778
10
6.9839055
20
86.544299
11
6.9866055
21
86.524699
0
LINE
8
DEFAULT_255_2_778
10
6.9866055
20
86.524699
11
6.9942055
21
86.486099
0
LINE
8
DEFAULT_255_2_778
10
6.9942055
20
86.486099
11
7.0051055
21
86.448199
0
LINE
8
DEFAULT_255_2_778
10
7.0051055
20
86.448199
11
7.0268055
21
86.393699
0
LINE
8
DEFAULT_255_2_778
10
7.0268055
20
86.393699
11
7.0651055
21
86.325199
0
LINE
8
DEFAULT_255_2_778
10
7.0651055
20
86.325199
11
7.1270055
21
86.247699
0
LINE
8
DEFAULT_255_2_778
10
7.1270055
20
86.247699
11
7.2178055
21
86.171199
0
LINE
8
DEFAULT_255_2_778
10
7.2178055
20
86.171199
11
7.3292055
21
86.114099
0
LINE
8
DEFAULT_255_2_778
10
7.3292055
20
86.114099
11
7.4901055
21
86.078099
0
LINE
8
DEFAULT_255_2_778
10
7.4901055
20
86.078099
11
7.7308055
21
86.082099
0
LINE
8
DEFAULT_255_2_778
10
7.7308055
20
86.082099
11
7.9152055
21
86.127599
0
LINE
8
DEFAULT_255_2_778
10
7.9152055
20
86.127599
11
8.0190055
21
86.179399
0
LINE
8
DEFAULT_255_2_778
10
8.0190055
20
86.179399
11
8.1087055
21
86.251099
0
LINE
8
DEFAULT_255_2_778
10
8.1087055
20
86.251099
11
8.1843055
21
86.339799
0
LINE
8
DEFAULT_255_2_778
10
8.1843055
20
86.339799
11
8.2462055
21
86.440799
0
LINE
8
DEFAULT_255_2_778
10
8.2462055
20
86.440799
11
8.2862055
21
86.527099
0
LINE
8
DEFAULT_255_2_778
10
8.2862055
20
86.527099
11
8.3071055
21
86.582899
0
LINE
8
DEFAULT_255_2_778
10
8.3071055
20
86.582899
11
8.3280055
21
86.651199
0
LINE
8
DEFAULT_255_2_778
10
8.3280055
20
86.651199
11
8.3447055
21
86.720199
0
LINE
8
DEFAULT_255_2_778
10
8.3447055
20
86.720199
11
8.3576055
21
86.789799
0
LINE
8
DEFAULT_255_2_778
10
8.3576055
20
86.789799
11
8.3627055
21
86.824699
0
LINE
8
DEFAULT_255_2_778
10
8.3627055
20
86.824699
11
8.3669055
21
86.859899
0
LINE
8
DEFAULT_255_2_778
10
8.3669055
20
86.859899
11
8.3706055
21
86.895099
0
LINE
8
DEFAULT_255_2_778
10
8.3706055
20
86.895099
11
8.3703055
21
87.385899
0
LINE
8
DEFAULT_255_2_778
10
8.3703055
20
87.385899
11
8.3669055
21
87.417899
0
LINE
8
DEFAULT_255_2_778
10
8.3669055
20
87.417899
11
8.3582055
21
87.481999
0
LINE
8
DEFAULT_255_2_778
10
8.3582055
20
87.481999
11
8.3465055
21
87.545499
0
LINE
8
DEFAULT_255_2_778
10
8.3465055
20
87.545499
11
8.3317055
21
87.608399
0
LINE
8
DEFAULT_255_2_778
10
8.3317055
20
87.608399
11
8.3132055
21
87.670899
0
LINE
8
DEFAULT_255_2_778
10
8.3132055
20
87.670899
11
8.2780055
21
87.763199
0
LINE
8
DEFAULT_255_2_778
10
8.2780055
20
87.763199
11
8.2272055
21
87.861099
0
LINE
8
DEFAULT_255_2_778
10
8.2272055
20
87.861099
11
8.1637055
21
87.949799
0
LINE
8
DEFAULT_255_2_778
10
8.1637055
20
87.949799
11
8.0867055
21
88.024399
0
LINE
8
DEFAULT_255_2_778
10
8.0867055
20
88.024399
11
7.9774055
21
88.089499
0
LINE
8
DEFAULT_255_2_778
10
7.9774055
20
88.089499
11
7.8115055
21
88.137599
0
LINE
8
DEFAULT_255_2_778
10
7.8115055
20
88.137599
11
7.6075055
21
88.146899
0
LINE
8
DEFAULT_255_2_778
10
7.6075055
20
88.146899
11
7.4012055
21
88.107399
0
LINE
8
DEFAULT_255_2_778
10
7.4012055
20
88.107399
11
7.2638055
21
88.044199
0
LINE
8
DEFAULT_255_2_778
10
7.2638055
20
88.044199
11
7.1636055
21
87.966999
0
LINE
8
DEFAULT_255_2_778
10
7.1636055
20
87.966999
11
7.0929055
21
87.885999
0
LINE
8
DEFAULT_255_2_778
10
7.0929055
20
87.885999
11
7.0482055
21
87.811599
0
LINE
8
DEFAULT_255_2_778
10
7.0482055
20
87.811599
11
7.0223055
21
87.751299
0
LINE
8
DEFAULT_255_2_778
10
7.0223055
20
87.751299
11
7.0030055
21
87.688599
0
LINE
8
DEFAULT_255_2_778
10
7.0030055
20
87.688599
11
6.9929055
21
87.641199
0
LINE
8
DEFAULT_255_2_778
10
6.9929055
20
87.641199
11
6.9892055
21
87.617399
0
LINE
8
DEFAULT_255_2_778
10
6.9892055
20
87.617399
11
6.9895055
21
87.376699
0
LINE
8
DEFAULT_255_2_778
10
6.9895055
20
87.376699
11
6.9969055
21
87.335399
0
LINE
8
DEFAULT_255_2_778
10
6.9969055
20
87.335399
11
7.0114055
21
87.278999
0
LINE
8
DEFAULT_255_2_778
10
7.0114055
20
87.278999
11
7.0376055
21
87.209199
0
LINE
8
DEFAULT_255_2_778
10
7.0376055
20
87.209199
11
7.0823055
21
87.128199
0
LINE
8
DEFAULT_255_2_778
10
7.0823055
20
87.128199
11
7.1522055
21
87.042999
0
LINE
8
DEFAULT_255_2_778
10
7.1522055
20
87.042999
11
7.2662055
21
86.952799
0
LINE
8
DEFAULT_255_2_778
10
7.2662055
20
86.952799
11
7.4374055
21
86.882199
0
LINE
8
DEFAULT_255_2_778
10
7.4374055
20
86.882199
11
7.6745055
21
86.860699
0
LINE
8
DEFAULT_255_2_778
10
23.9813055
20
53.159399
11
23.8802055
21
53.074499
0
LINE
8
DEFAULT_255_2_778
10
23.8802055
20
53.074499
11
23.7492055
21
53.003599
0
LINE
8
DEFAULT_255_2_778
10
23.7492055
20
53.003599
11
23.5852055
21
52.961799
0
LINE
8
DEFAULT_255_2_778
10
23.5852055
20
52.961799
11
23.4082055
21
52.961799
0
LINE
8
DEFAULT_255_2_778
10
23.4082055
20
52.961799
11
23.2582055
21
52.998599
0
LINE
8
DEFAULT_255_2_778
10
23.2582055
20
52.998599
11
23.1216055
21
53.069999
0
LINE
8
DEFAULT_255_2_778
10
23.1216055
20
53.069999
11
23.0026055
21
53.172399
0
LINE
8
DEFAULT_255_2_778
10
23.0026055
20
53.172399
11
22.9325055
21
53.259399
0
LINE
8
DEFAULT_255_2_778
10
22.9325055
20
53.259399
11
22.8888055
21
53.334599
0
LINE
8
DEFAULT_255_2_778
10
22.8888055
20
53.334599
11
22.8631055
21
53.393799
0
LINE
8
DEFAULT_255_2_778
10
22.8631055
20
53.393799
11
22.8436055
21
53.455999
0
LINE
8
DEFAULT_255_2_778
10
22.8436055
20
53.455999
11
22.8340055
21
53.499399
0
LINE
8
DEFAULT_255_2_778
10
22.8340055
20
53.499399
11
22.8274055
21
53.543299
0
LINE
8
DEFAULT_255_2_778
10
22.8274055
20
53.543299
11
22.8274055
21
53.722999
0
LINE
8
DEFAULT_255_2_778
10
22.8274055
20
53.722999
11
22.8346055
21
53.767699
0
LINE
8
DEFAULT_255_2_778
10
22.8346055
20
53.767699
11
22.8444055
21
53.811099
0
LINE
8
DEFAULT_255_2_778
10
22.8444055
20
53.811099
11
22.8642055
21
53.873299
0
LINE
8
DEFAULT_255_2_778
10
22.8642055
20
53.873299
11
22.8904055
21
53.933099
0
LINE
8
DEFAULT_255_2_778
10
22.8904055
20
53.933099
11
22.9356055
21
54.009799
0
LINE
8
DEFAULT_255_2_778
10
22.9356055
20
54.009799
11
23.0063055
21
54.097099
0
LINE
8
DEFAULT_255_2_778
10
23.0063055
20
54.097099
11
23.2055055
21
54.244699
0
LINE
8
DEFAULT_255_2_778
10
23.2055055
20
54.244699
11
23.4817055
21
54.309599
0
LINE
8
DEFAULT_255_2_778
10
23.4817055
20
54.309599
11
23.3235055
21
54.327299
0
LINE
8
DEFAULT_255_2_778
10
23.3235055
20
54.327299
11
23.1788055
21
54.379199
0
LINE
8
DEFAULT_255_2_778
10
23.1788055
20
54.379199
11
23.0658055
21
54.451099
0
LINE
8
DEFAULT_255_2_778
10
23.0658055
20
54.451099
11
22.9674055
21
54.544499
0
LINE
8
DEFAULT_255_2_778
10
22.9674055
20
54.544499
11
22.8999055
21
54.634999
0
LINE
8
DEFAULT_255_2_778
10
22.8999055
20
54.634999
11
22.8586055
21
54.712799
0
LINE
8
DEFAULT_255_2_778
10
22.8586055
20
54.712799
11
22.8351055
21
54.774199
0
LINE
8
DEFAULT_255_2_778
10
22.8351055
20
54.774199
11
22.8229055
21
54.816199
0
LINE
8
DEFAULT_255_2_778
10
22.8229055
20
54.816199
11
22.8131055
21
54.860699
0
LINE
8
DEFAULT_255_2_778
10
22.8131055
20
54.860699
11
22.8065055
21
54.905699
0
LINE
8
DEFAULT_255_2_778
10
22.8065055
20
54.905699
11
22.8076055
21
55.085899
0
LINE
8
DEFAULT_255_2_778
10
22.8076055
20
55.085899
11
22.8147055
21
55.129999
0
LINE
8
DEFAULT_255_2_778
10
22.8147055
20
55.129999
11
22.8248055
21
55.173399
0
LINE
8
DEFAULT_255_2_778
10
22.8248055
20
55.173399
11
22.8449055
21
55.235099
0
LINE
8
DEFAULT_255_2_778
10
22.8449055
20
55.235099
11
22.8814055
21
55.313699
0
LINE
8
DEFAULT_255_2_778
10
22.8814055
20
55.313699
11
22.9296055
21
55.388799
0
LINE
8
DEFAULT_255_2_778
10
22.9296055
20
55.388799
11
23.0200055
21
55.489299
0
LINE
8
DEFAULT_255_2_778
10
23.0200055
20
55.489299
11
23.1275055
21
55.572199
0
LINE
8
DEFAULT_255_2_778
10
23.1275055
20
55.572199
11
23.2666055
21
55.637199
0
LINE
8
DEFAULT_255_2_778
10
23.2666055
20
55.637199
11
23.4436055
21
55.669499
0
LINE
8
DEFAULT_255_2_778
10
23.4436055
20
55.669499
11
23.7413055
21
55.623799
0
LINE
8
DEFAULT_255_2_778
10
23.7413055
20
55.623799
11
23.9469055
21
55.494099
0
LINE
8
DEFAULT_255_2_778
10
23.9469055
20
55.494099
11
23.9821055
21
55.459199
0
LINE
8
DEFAULT_255_2_778
10
24.4813055
20
52.959399
11
24.7337055
21
53.037499
0
LINE
8
DEFAULT_255_2_778
10
24.7337055
20
53.037499
11
24.8457055
21
53.152799
0
LINE
8
DEFAULT_255_2_778
10
24.8457055
20
53.152799
11
24.8758055
21
53.199899
0
LINE
8
DEFAULT_255_2_778
10
24.8758055
20
53.199899
11
25.4399055
21
54.147599
0
LINE
8
DEFAULT_255_2_778
10
25.4399055
20
54.147599
11
25.5992055
21
54.271199
0
LINE
8
DEFAULT_255_2_778
10
25.5992055
20
54.271199
11
25.7815055
21
54.309599
0
LINE
8
DEFAULT_255_2_778
10
24.4813563
20
54.3092844
11
24.7258563
21
54.2375844
0
LINE
8
DEFAULT_255_2_778
10
24.7258563
20
54.2375844
11
24.8478563
21
54.1129844
0
LINE
8
DEFAULT_255_2_778
10
24.8478563
20
54.1129844
11
25.4367563
21
53.1252844
0
LINE
8
DEFAULT_255_2_778
10
25.4367563
20
53.1252844
11
25.5902563
21
53.0024844
0
LINE
8
DEFAULT_255_2_778
10
25.5902563
20
53.0024844
11
25.7815563
21
52.9590844
0
LINE
8
DEFAULT_255_2_778
10
23.4812563
20
54.3092844
11
23.7312563
21
54.3092844
0
LINE
8
DEFAULT_255_2_778
10
22.8311846
20
56.8093597
11
25.7312846
21
56.8093597
0
LINE
8
DEFAULT_255_2_778
10
25.7312846
20
56.8093597
11
27.1811846
21
54.3093597
0
LINE
8
DEFAULT_255_2_778
10
27.1811846
20
54.3093597
11
25.7312846
21
51.8092597
0
LINE
8
DEFAULT_255_2_778
10
25.7312846
20
51.8092597
11
22.8311846
21
51.8092597
0
LINE
8
DEFAULT_255_2_778
10
22.8311846
20
51.8092597
11
21.3812846
21
54.3093597
0
LINE
8
DEFAULT_255_2_778
10
21.3812846
20
54.3093597
11
22.8311846
21
56.8093597
0
LINE
8
DEFAULT_255_2_778
10
15.7450846
20
7.7992597
11
15.9639846
21
7.7992597
0
LINE
8
DEFAULT_255_2_778
10
15.9639846
20
7.7992597
11
15.9615846
21
7.8643597
0
LINE
8
DEFAULT_255_2_778
10
15.9615846
20
7.8643597
11
15.9594846
21
7.8860597
0
LINE
8
DEFAULT_255_2_778
10
15.9594846
20
7.8860597
11
15.9525846
21
7.9294597
0
LINE
8
DEFAULT_255_2_778
10
15.9525846
20
7.9294597
11
15.9424846
21
7.9722597
0
LINE
8
DEFAULT_255_2_778
10
15.9424846
20
7.9722597
11
15.9236846
21
8.0283597
0
LINE
8
DEFAULT_255_2_778
10
15.9236846
20
8.0283597
11
15.8988846
21
8.0815597
0
LINE
8
DEFAULT_255_2_778
10
15.8988846
20
8.0815597
11
15.8556846
21
8.1463597
0
LINE
8
DEFAULT_255_2_778
10
15.8556846
20
8.1463597
11
15.7874846
21
8.2154597
0
LINE
8
DEFAULT_255_2_778
10
15.7874846
20
8.2154597
11
15.6969846
21
8.2757597
0
LINE
8
DEFAULT_255_2_778
10
15.6969846
20
8.2757597
11
15.5686846
21
8.3255597
0
LINE
8
DEFAULT_255_2_778
10
15.5686846
20
8.3255597
11
15.3971846
21
8.3490597
0
LINE
8
DEFAULT_255_2_778
10
15.3971846
20
8.3490597
11
15.2077846
21
8.3331597
0
LINE
8
DEFAULT_255_2_778
10
15.2077846
20
8.3331597
11
15.0579846
21
8.2826597
0
LINE
8
DEFAULT_255_2_778
10
15.0579846
20
8.2826597
11
14.9463846
21
8.2133597
0
LINE
8
DEFAULT_255_2_778
10
14.9463846
20
8.2133597
11
14.8624846
21
8.1344597
0
LINE
8
DEFAULT_255_2_778
10
14.8624846
20
8.1344597
11
14.7920846
21
8.0432597
0
LINE
8
DEFAULT_255_2_778
10
14.7920846
20
8.0432597
11
14.7394846
21
7.9524597
0
LINE
8
DEFAULT_255_2_778
10
14.7394846
20
7.9524597
11
14.6968846
21
7.8566597
0
LINE
8
DEFAULT_255_2_778
10
14.6968846
20
7.8566597
11
14.6671846
21
7.7696597
0
LINE
8
DEFAULT_255_2_778
10
14.6671846
20
7.7696597
11
14.6499846
21
7.7061597
0
LINE
8
DEFAULT_255_2_778
10
14.6499846
20
7.7061597
11
14.6359846
21
7.6418597
0
LINE
8
DEFAULT_255_2_778
10
14.6359846
20
7.6418597
11
14.6248846
21
7.5770597
0
LINE
8
DEFAULT_255_2_778
10
14.6248846
20
7.5770597
11
14.6195846
21
7.5399597
0
LINE
8
DEFAULT_255_2_778
10
14.6195846
20
7.5399597
11
14.6150846
21
7.5029597
0
LINE
8
DEFAULT_255_2_778
10
14.6150846
20
7.5029597
11
14.6113846
21
7.4656597
0
LINE
8
DEFAULT_255_2_778
10
14.6113846
20
7.4656597
11
14.6084846
21
7.4283597
0
LINE
8
DEFAULT_255_2_778
10
14.6084846
20
7.4283597
11
14.6084846
21
7.1340597
0
LINE
8
DEFAULT_255_2_778
10
14.6084846
20
7.1340597
11
14.6113846
21
7.0981597
0
LINE
8
DEFAULT_255_2_778
10
14.6113846
20
7.0981597
11
14.6150846
21
7.0621597
0
LINE
8
DEFAULT_255_2_778
10
14.6150846
20
7.0621597
11
14.6192846
21
7.0261597
0
LINE
8
DEFAULT_255_2_778
10
14.6192846
20
7.0261597
11
14.6296846
21
6.9592597
0
LINE
8
DEFAULT_255_2_778
10
14.6296846
20
6.9592597
11
14.6420846
21
6.8972597
0
LINE
8
DEFAULT_255_2_778
10
14.6420846
20
6.8972597
11
14.6573846
21
6.8361597
0
LINE
8
DEFAULT_255_2_778
10
14.6573846
20
6.8361597
11
14.6761846
21
6.7761597
0
LINE
8
DEFAULT_255_2_778
10
14.6761846
20
6.7761597
11
14.7055846
21
6.7001597
0
LINE
8
DEFAULT_255_2_778
10
14.7055846
20
6.7001597
11
14.7502846
21
6.6107597
0
LINE
8
DEFAULT_255_2_778
10
14.7502846
20
6.6107597
11
14.8166846
21
6.5128597
0
LINE
8
DEFAULT_255_2_778
10
14.8166846
20
6.5128597
11
14.9066846
21
6.4197597
0
LINE
8
DEFAULT_255_2_778
10
14.9066846
20
6.4197597
11
15.0119846
21
6.3482597
0
LINE
8
DEFAULT_255_2_778
10
15.0119846
20
6.3482597
11
15.1288846
21
6.3003597
0
LINE
8
DEFAULT_255_2_778
10
15.1288846
20
6.3003597
11
15.3299846
21
6.2702597
0
LINE
8
DEFAULT_255_2_778
10
15.3299846
20
6.2702597
11
15.6194846
21
6.2871597
0
LINE
8
DEFAULT_255_2_778
10
15.6194846
20
6.2871597
11
15.8644846
21
6.3456597
0
LINE
8
DEFAULT_255_2_778
10
15.8644846
20
6.3456597
11
15.9633846
21
6.3869597
0
LINE
8
DEFAULT_255_2_778
10
15.9633846
20
6.3869597
11
15.9633846
21
7.3989597
0
LINE
8
DEFAULT_255_2_778
10
15.9633846
20
7.3989597
11
15.3868846
21
7.3989597
0
LINE
8
DEFAULT_255_2_778
10
15.3868846
20
7.3989597
11
15.3868846
21
7.1608597
0
LINE
8
DEFAULT_255_2_778
10
15.3868846
20
7.1608597
11
15.7450846
21
7.1608597
0
LINE
8
DEFAULT_255_2_778
10
15.7450846
20
7.1608597
11
15.7450846
21
6.5554597
0
LINE
8
DEFAULT_255_2_778
10
15.7450846
20
6.5554597
11
15.5680846
21
6.5107597
0
LINE
8
DEFAULT_255_2_778
10
15.5680846
20
6.5107597
11
15.3275846
21
6.4977597
0
LINE
8
DEFAULT_255_2_778
10
15.3275846
20
6.4977597
11
15.1799846
21
6.5284597
0
LINE
8
DEFAULT_255_2_778
10
15.1799846
20
6.5284597
11
15.0690846
21
6.5906597
0
LINE
8
DEFAULT_255_2_778
10
15.0690846
20
6.5906597
11
15.0087846
21
6.6475597
0
LINE
8
DEFAULT_255_2_778
10
15.0087846
20
6.6475597
11
14.9569846
21
6.7168597
0
LINE
8
DEFAULT_255_2_778
10
14.9569846
20
6.7168597
11
14.9225846
21
6.7784597
0
LINE
8
DEFAULT_255_2_778
10
14.9225846
20
6.7784597
11
14.8934846
21
6.8459597
0
LINE
8
DEFAULT_255_2_778
10
14.8934846
20
6.8459597
11
14.8775846
21
6.8922597
0
LINE
8
DEFAULT_255_2_778
10
14.8775846
20
6.8922597
11
14.8600846
21
6.9557597
0
LINE
8
DEFAULT_255_2_778
10
14.8600846
20
6.9557597
11
14.8465846
21
7.0203597
0
LINE
8
DEFAULT_255_2_778
10
14.8465846
20
7.0203597
11
14.8412846
21
7.0528597
0
LINE
8
DEFAULT_255_2_778
10
14.8412846
20
7.0528597
11
14.8367846
21
7.0854597
0
LINE
8
DEFAULT_255_2_778
10
14.8367846
20
7.0854597
11
14.8322846
21
7.1235597
0
LINE
8
DEFAULT_255_2_778
10
14.8322846
20
7.1235597
11
14.8288846
21
7.1616597
0
LINE
8
DEFAULT_255_2_778
10
14.8288846
20
7.1616597
11
14.8291846
21
7.4637597
0
LINE
8
DEFAULT_255_2_778
10
14.8291846
20
7.4637597
11
14.8328846
21
7.5008597
0
LINE
8
DEFAULT_255_2_778
10
14.8328846
20
7.5008597
11
14.8373846
21
7.5378597
0
LINE
8
DEFAULT_255_2_778
10
14.8373846
20
7.5378597
11
14.8476846
21
7.6018597
0
LINE
8
DEFAULT_255_2_778
10
14.8476846
20
7.6018597
11
14.8616846
21
7.6651597
0
LINE
8
DEFAULT_255_2_778
10
14.8616846
20
7.6651597
11
14.8796846
21
7.7272597
0
LINE
8
DEFAULT_255_2_778
10
14.8796846
20
7.7272597
11
14.9055846
21
7.7960597
0
LINE
8
DEFAULT_255_2_778
10
14.9055846
20
7.7960597
11
14.9378846
21
7.8619597
0
LINE
8
DEFAULT_255_2_778
10
14.9378846
20
7.8619597
11
14.9865846
21
7.9360597
0
LINE
8
DEFAULT_255_2_778
10
14.9865846
20
7.9360597
11
15.0439846
21
7.9990597
0
LINE
8
DEFAULT_255_2_778
10
15.0439846
20
7.9990597
11
15.1347846
21
8.0627597
0
LINE
8
DEFAULT_255_2_778
10
15.1347846
20
8.0627597
11
15.3831846
21
8.1170597
0
LINE
8
DEFAULT_255_2_778
10
15.3831846
20
8.1170597
11
15.5784846
21
8.0670597
0
LINE
8
DEFAULT_255_2_778
10
15.5784846
20
8.0670597
11
15.6818846
21
7.9791597
0
LINE
8
DEFAULT_255_2_778
10
15.6818846
20
7.9791597
11
15.7223846
21
7.9058597
0
LINE
8
DEFAULT_255_2_778
10
15.7223846
20
7.9058597
11
15.7368846
21
7.8582597
0
LINE
8
DEFAULT_255_2_778
10
15.7368846
20
7.8582597
11
15.7421846
21
7.8283597
0
LINE
8
DEFAULT_255_2_778
10
15.7421846
20
7.8283597
11
15.7443846
21
7.8082597
0
LINE
8
DEFAULT_255_2_778
10
15.7443846
20
7.8082597
11
15.7448846
21
7.7981597
0
LINE
8
DEFAULT_255_2_778
10
8.5947846
20
8.2979597
11
8.7762846
21
8.2979597
0
LINE
8
DEFAULT_255_2_778
10
8.7762846
20
8.2979597
11
8.7762846
21
6.3093597
0
LINE
8
DEFAULT_255_2_778
10
8.7762846
20
6.3093597
11
8.5619846
21
6.3093597
0
LINE
8
DEFAULT_255_2_778
10
8.5619846
20
6.3093597
11
8.5619846
21
7.9889597
0
LINE
8
DEFAULT_255_2_778
10
8.5619846
20
7.9889597
11
8.3666846
21
7.8265597
0
LINE
8
DEFAULT_255_2_778
10
8.3666846
20
7.8265597
11
8.2113846
21
7.7407597
0
LINE
8
DEFAULT_255_2_778
10
8.2113846
20
7.7407597
11
8.2113846
21
7.9902597
0
LINE
8
DEFAULT_255_2_778
10
8.2113846
20
7.9902597
11
8.4653846
21
8.1625597
0
LINE
8
DEFAULT_255_2_778
10
8.4653846
20
8.1625597
11
8.5947846
21
8.2977597
0
LINE
8
DEFAULT_255_2_778
10
11.2368846
20
7.7693597
11
11.0294846
21
7.7693597
0
LINE
8
DEFAULT_255_2_778
10
11.0294846
20
7.7693597
11
11.0315846
21
7.8341597
0
LINE
8
DEFAULT_255_2_778
10
11.0315846
20
7.8341597
11
11.0352846
21
7.8730597
0
LINE
8
DEFAULT_255_2_778
10
11.0352846
20
7.8730597
11
11.0431846
21
7.9246597
0
LINE
8
DEFAULT_255_2_778
10
11.0431846
20
7.9246597
11
11.0619846
21
7.9998597
0
LINE
8
DEFAULT_255_2_778
10
11.0619846
20
7.9998597
11
11.1085846
21
8.1056597
0
LINE
8
DEFAULT_255_2_778
10
11.1085846
20
8.1056597
11
11.1836846
21
8.2035597
0
LINE
8
DEFAULT_255_2_778
10
11.1836846
20
8.2035597
11
11.2574846
21
8.2638597
0
LINE
8
DEFAULT_255_2_778
10
11.2574846
20
8.2638597
11
11.3530846
21
8.3106597
0
LINE
8
DEFAULT_255_2_778
10
11.3530846
20
8.3106597
11
11.4858846
21
8.3374597
0
LINE
8
DEFAULT_255_2_778
10
11.4858846
20
8.3374597
11
11.6448846
21
8.3294597
0
LINE
8
DEFAULT_255_2_778
10
11.6448846
20
8.3294597
11
11.7652846
21
8.2916597
0
LINE
8
DEFAULT_255_2_778
10
11.7652846
20
8.2916597
11
11.8520846
21
8.2382597
0
LINE
8
DEFAULT_255_2_778
10
11.8520846
20
8.2382597
11
11.9229846
21
8.1686597
0
LINE
8
DEFAULT_255_2_778
10
11.9229846
20
8.1686597
11
11.9671846
21
8.1037597
0
LINE
8
DEFAULT_255_2_778
10
11.9671846
20
8.1037597
11
11.9935846
21
8.0482597
0
LINE
8
DEFAULT_255_2_778
10
11.9935846
20
8.0482597
11
12.0128846
21
7.9897597
0
LINE
8
DEFAULT_255_2_778
10
12.0128846
20
7.9897597
11
12.0234846
21
7.9434597
0
LINE
8
DEFAULT_255_2_778
10
12.0234846
20
7.9434597
11
12.0208846
21
7.6696597
0
LINE
8
DEFAULT_255_2_778
10
12.0208846
20
7.6696597
11
12.0089846
21
7.6145597
0
LINE
8
DEFAULT_255_2_778
10
12.0089846
20
7.6145597
11
11.9938846
21
7.5600597
0
LINE
8
DEFAULT_255_2_778
10
11.9938846
20
7.5600597
11
11.9660846
21
7.4799597
0
LINE
8
DEFAULT_255_2_778
10
11.9660846
20
7.4799597
11
11.9284846
21
7.3917597
0
LINE
8
DEFAULT_255_2_778
10
11.9284846
20
7.3917597
11
11.8747846
21
7.2878597
0
LINE
8
DEFAULT_255_2_778
10
11.8747846
20
7.2878597
11
11.7922846
21
7.1557597
0
LINE
8
DEFAULT_255_2_778
10
11.7922846
20
7.1557597
11
11.6744846
21
7.0002597
0
LINE
8
DEFAULT_255_2_778
10
11.6744846
20
7.0002597
11
11.5159846
21
6.8213597
0
LINE
8
DEFAULT_255_2_778
10
11.5159846
20
6.8213597
11
11.2246846
21
6.5276597
0
LINE
8
DEFAULT_255_2_778
10
11.2246846
20
6.5276597
11
12.0671846
21
6.5276597
0
LINE
8
DEFAULT_255_2_778
10
12.0671846
20
6.5276597
11
12.0671846
21
6.3093597
0
LINE
8
DEFAULT_255_2_778
10
12.0671846
20
6.3093597
11
10.9638846
21
6.3093597
0
LINE
8
DEFAULT_255_2_778
10
10.9638846
20
6.3093597
11
10.9638846
21
6.5488597
0
LINE
8
DEFAULT_255_2_778
10
10.9638846
20
6.5488597
11
11.1910846
21
6.7766597
0
LINE
8
DEFAULT_255_2_778
10
11.1910846
20
6.7766597
11
11.3993846
21
7.0121597
0
LINE
8
DEFAULT_255_2_778
10
11.3993846
20
7.0121597
11
11.5644846
21
7.2235597
0
LINE
8
DEFAULT_255_2_778
10
11.5644846
20
7.2235597
11
11.7012846
21
7.4314597
0
LINE
8
DEFAULT_255_2_778
10
11.7012846
20
7.4314597
11
11.7546846
21
7.5328597
0
LINE
8
DEFAULT_255_2_778
10
11.7546846
20
7.5328597
11
11.7943846
21
7.6301597
0
LINE
8
DEFAULT_255_2_778
10
11.7943846
20
7.6301597
11
11.8107846
21
7.6849597
0
LINE
8
DEFAULT_255_2_778
10
11.8107846
20
7.6849597
11
11.8189846
21
7.7222597
0
LINE
8
DEFAULT_255_2_778
10
11.8189846
20
7.7222597
11
11.8244846
21
7.7598597
0
LINE
8
DEFAULT_255_2_778
10
11.8244846
20
7.7598597
11
11.8231846
21
7.8630597
0
LINE
8
DEFAULT_255_2_778
10
11.8231846
20
7.8630597
11
11.8128846
21
7.9140597
0
LINE
8
DEFAULT_255_2_778
10
11.8128846
20
7.9140597
11
11.7887846
21
7.9770597
0
LINE
8
DEFAULT_255_2_778
10
11.7887846
20
7.9770597
11
11.7273846
21
8.0553597
0
LINE
8
DEFAULT_255_2_778
10
11.7273846
20
8.0553597
11
11.6128846
21
8.1143597
0
LINE
8
DEFAULT_255_2_778
10
11.6128846
20
8.1143597
11
11.4247846
21
8.1045597
0
LINE
8
DEFAULT_255_2_778
10
11.4247846
20
8.1045597
11
11.3183846
21
8.0283597
0
LINE
8
DEFAULT_255_2_778
10
11.3183846
20
8.0283597
11
11.2733846
21
7.9574597
0
LINE
8
DEFAULT_255_2_778
10
11.2733846
20
7.9574597
11
11.2540846
21
7.9042597
0
LINE
8
DEFAULT_255_2_778
10
11.2540846
20
7.9042597
11
11.2440846
21
7.8585597
0
LINE
8
DEFAULT_255_2_778
10
11.2440846
20
7.8585597
11
11.2405846
21
7.8331597
0
LINE
8
DEFAULT_255_2_778
10
11.2405846
20
7.8331597
11
11.2384846
21
7.8074597
0
LINE
8
DEFAULT_255_2_778
10
11.2384846
20
7.8074597
11
11.2373846
21
7.7693597
0
LINE
8
DEFAULT_255_2_778
10
12.3343846
20
7.1555597
11
12.8854846
21
7.1555597
0
LINE
8
DEFAULT_255_2_778
10
12.8854846
20
7.1555597
11
12.8854846
21
6.9668597
0
LINE
8
DEFAULT_255_2_778
10
12.8854846
20
6.9668597
11
12.3343846
21
6.9668597
0
LINE
8
DEFAULT_255_2_778
10
12.3343846
20
6.9668597
11
12.3343846
21
7.1555597
0
LINE
8
DEFAULT_255_2_778
10
20.8571846
20
7.1555597
11
21.4082846
21
7.1555597
0
LINE
8
DEFAULT_255_2_778
10
21.4082846
20
7.1555597
11
21.4082846
21
6.9668597
0
LINE
8
DEFAULT_255_2_778
10
21.4082846
20
6.9668597
11
20.8571846
21
6.9668597
0
LINE
8
DEFAULT_255_2_778
10
20.8571846
20
6.9668597
11
20.8571846
21
7.1555597
0
LINE
8
DEFAULT_255_2_778
10
10.0469281
20
6.4908823
11
9.8797281
21
6.5411823
0
LINE
8
DEFAULT_255_2_778
10
9.8797281
20
6.5411823
11
9.7771281
21
6.6480823
0
LINE
8
DEFAULT_255_2_778
10
9.7771281
20
6.6480823
11
9.7252281
21
6.7522823
0
LINE
8
DEFAULT_255_2_778
10
9.7252281
20
6.7522823
11
9.6990281
21
6.8422823
0
LINE
8
DEFAULT_255_2_778
10
9.6990281
20
6.8422823
11
9.6961281
21
6.8552823
0
LINE
8
DEFAULT_255_2_778
10
9.6961281
20
6.8552823
11
9.4773281
21
6.8552823
0
LINE
8
DEFAULT_255_2_778
10
9.4773281
20
6.8552823
11
9.4844281
21
6.8065823
0
LINE
8
DEFAULT_255_2_778
10
9.4844281
20
6.8065823
11
9.4940281
21
6.7580823
0
LINE
8
DEFAULT_255_2_778
10
9.4940281
20
6.7580823
11
9.5061281
21
6.7102823
0
LINE
8
DEFAULT_255_2_778
10
9.5061281
20
6.7102823
11
9.5334281
21
6.6308823
0
LINE
8
DEFAULT_255_2_778
10
9.5334281
20
6.6308823
11
9.5765281
21
6.5424823
0
LINE
8
DEFAULT_255_2_778
10
9.5765281
20
6.5424823
11
9.6413281
21
6.4511823
0
LINE
8
DEFAULT_255_2_778
10
9.6413281
20
6.4511823
11
9.7332281
21
6.3646823
0
LINE
8
DEFAULT_255_2_778
10
9.7332281
20
6.3646823
11
9.8543281
21
6.2974823
0
LINE
8
DEFAULT_255_2_778
10
9.8543281
20
6.2974823
11
10.0260281
21
6.2643823
0
LINE
8
DEFAULT_255_2_778
10
10.0260281
20
6.2643823
11
10.2142281
21
6.2842823
0
LINE
8
DEFAULT_255_2_778
10
10.2142281
20
6.2842823
11
10.3597281
21
6.3453823
0
LINE
8
DEFAULT_255_2_778
10
10.3597281
20
6.3453823
11
10.4541281
21
6.4207823
0
LINE
8
DEFAULT_255_2_778
10
10.4541281
20
6.4207823
11
10.5187281
21
6.5017823
0
LINE
8
DEFAULT_255_2_778
10
10.5187281
20
6.5017823
11
10.5528281
21
6.5638823
0
LINE
8
DEFAULT_255_2_778
10
10.5528281
20
6.5638823
11
10.5790281
21
6.6318823
0
LINE
8
DEFAULT_255_2_778
10
10.5790281
20
6.6318823
11
10.5933281
21
6.6845823
0
LINE
8
DEFAULT_255_2_778
10
10.5933281
20
6.6845823
11
10.6020281
21
6.7297823
0
LINE
8
DEFAULT_255_2_778
10
10.6020281
20
6.7297823
11
10.6002281
21
7.0052823
0
LINE
8
DEFAULT_255_2_778
10
10.6002281
20
7.0052823
11
10.5825281
21
7.0716823
0
LINE
8
DEFAULT_255_2_778
10
10.5825281
20
7.0716823
11
10.5256281
21
7.1819823
0
LINE
8
DEFAULT_255_2_778
10
10.5256281
20
7.1819823
11
10.3859281
21
7.3052823
0
LINE
8
DEFAULT_255_2_778
10
10.3859281
20
7.3052823
11
10.3150281
21
7.3327823
0
LINE
8
DEFAULT_255_2_778
10
10.3150281
20
7.3327823
11
10.4200281
21
7.4089823
0
LINE
8
DEFAULT_255_2_778
10
10.4200281
20
7.4089823
11
10.4862281
21
7.4865823
0
LINE
8
DEFAULT_255_2_778
10
10.4862281
20
7.4865823
11
10.5285281
21
7.5616823
0
LINE
8
DEFAULT_255_2_778
10
10.5285281
20
7.5616823
11
10.5528281
21
7.6270823
0
LINE
8
DEFAULT_255_2_778
10
10.5528281
20
7.6270823
11
10.5658281
21
7.6794823
0
LINE
8
DEFAULT_255_2_778
10
10.5658281
20
7.6794823
11
10.5719281
21
7.7169823
0
LINE
8
DEFAULT_255_2_778
10
10.5719281
20
7.7169823
11
10.5711281
21
7.9122823
0
LINE
8
DEFAULT_255_2_778
10
10.5711281
20
7.9122823
11
10.5639281
21
7.9516823
0
LINE
8
DEFAULT_255_2_778
10
10.5639281
20
7.9516823
11
10.5504281
21
8.0024823
0
LINE
8
DEFAULT_255_2_778
10
10.5504281
20
8.0024823
11
10.5269281
21
8.0627823
0
LINE
8
DEFAULT_255_2_778
10
10.5269281
20
8.0627823
11
10.4864281
21
8.1320823
0
LINE
8
DEFAULT_255_2_778
10
10.4864281
20
8.1320823
11
10.4113281
21
8.2143823
0
LINE
8
DEFAULT_255_2_778
10
10.4113281
20
8.2143823
11
10.3070281
21
8.2836823
0
LINE
8
DEFAULT_255_2_778
10
10.3070281
20
8.2836823
11
10.1671281
21
8.3291823
0
LINE
8
DEFAULT_255_2_778
10
10.1671281
20
8.3291823
11
9.9681281
21
8.3347823
0
LINE
8
DEFAULT_255_2_778
10
9.9681281
20
8.3347823
11
9.8001281
21
8.2884823
0
LINE
8
DEFAULT_255_2_778
10
9.8001281
20
8.2884823
11
9.6400281
21
8.1643823
0
LINE
8
DEFAULT_255_2_778
10
9.6400281
20
8.1643823
11
9.5741281
21
8.0590823
0
LINE
8
DEFAULT_255_2_778
10
9.5741281
20
8.0590823
11
9.5427281
21
7.9677823
0
LINE
8
DEFAULT_255_2_778
10
9.5427281
20
7.9677823
11
9.5305281
21
7.9058823
0
LINE
8
DEFAULT_255_2_778
10
9.5305281
20
7.9058823
11
9.5257281
21
7.8669823
0
LINE
8
DEFAULT_255_2_778
10
9.5257281
20
7.8669823
11
9.5231281
21
7.8280823
0
LINE
8
DEFAULT_255_2_778
10
9.5231281
20
7.8280823
11
9.5223281
21
7.7894823
0
LINE
8
DEFAULT_255_2_778
10
9.5223281
20
7.7894823
11
9.7297281
21
7.7894823
0
LINE
8
DEFAULT_255_2_778
10
9.7297281
20
7.7894823
11
9.7316281
21
7.8339823
0
LINE
8
DEFAULT_255_2_778
10
9.7316281
20
7.8339823
11
9.7361281
21
7.8672823
0
LINE
8
DEFAULT_255_2_778
10
9.7361281
20
7.8672823
11
9.7488281
21
7.9182823
0
LINE
8
DEFAULT_255_2_778
10
9.7488281
20
7.9182823
11
9.7781281
21
7.9815823
0
LINE
8
DEFAULT_255_2_778
10
9.7781281
20
7.9815823
11
9.8575281
21
8.0664823
0
LINE
8
DEFAULT_255_2_778
10
9.8575281
20
8.0664823
11
10.0054281
21
8.1214823
0
LINE
8
DEFAULT_255_2_778
10
10.0054281
20
8.1214823
11
10.1888281
21
8.0958823
0
LINE
8
DEFAULT_255_2_778
10
10.1888281
20
8.0958823
11
10.2957281
21
8.0132823
0
LINE
8
DEFAULT_255_2_778
10
10.2957281
20
8.0132823
11
10.3359281
21
7.9463823
0
LINE
8
DEFAULT_255_2_778
10
10.3359281
20
7.9463823
11
10.3544281
21
7.8886823
0
LINE
8
DEFAULT_255_2_778
10
10.3544281
20
7.8886823
11
10.3607281
21
7.8550823
0
LINE
8
DEFAULT_255_2_778
10
10.3607281
20
7.8550823
11
10.3597281
21
7.7222823
0
LINE
8
DEFAULT_255_2_778
10
10.3597281
20
7.7222823
11
10.3467281
21
7.6709823
0
LINE
8
DEFAULT_255_2_778
10
10.3467281
20
7.6709823
11
10.3015281
21
7.5862823
0
LINE
8
DEFAULT_255_2_778
10
10.3015281
20
7.5862823
11
10.1705281
21
7.4809823
0
LINE
8
DEFAULT_255_2_778
10
10.1705281
20
7.4809823
11
10.0022281
21
7.4439823
0
LINE
8
DEFAULT_255_2_778
10
10.0022281
20
7.4439823
11
9.9308281
21
7.4439823
0
LINE
8
DEFAULT_255_2_778
10
9.9308281
20
7.4439823
11
9.9308281
21
7.2200823
0
LINE
8
DEFAULT_255_2_778
10
9.9308281
20
7.2200823
11
10.1734281
21
7.1970823
0
LINE
8
DEFAULT_255_2_778
10
10.1734281
20
7.1970823
11
10.3091281
21
7.1179823
0
LINE
8
DEFAULT_255_2_778
10
10.3091281
20
7.1179823
11
10.3621281
21
7.0480823
0
LINE
8
DEFAULT_255_2_778
10
10.3621281
20
7.0480823
11
10.3838281
21
6.9941823
0
LINE
8
DEFAULT_255_2_778
10
10.3838281
20
6.9941823
11
10.3917281
21
6.9594823
0
LINE
8
DEFAULT_255_2_778
10
10.3917281
20
6.9594823
11
10.3893281
21
6.7856823
0
LINE
8
DEFAULT_255_2_778
10
10.3893281
20
6.7856823
11
10.3745281
21
6.7260823
0
LINE
8
DEFAULT_255_2_778
10
10.3745281
20
6.7260823
11
10.3472281
21
6.6626823
0
LINE
8
DEFAULT_255_2_778
10
10.3472281
20
6.6626823
11
10.2795281
21
6.5763823
0
LINE
8
DEFAULT_255_2_778
10
10.2795281
20
6.5763823
11
10.1639281
21
6.5088823
0
LINE
8
DEFAULT_255_2_778
10
10.1639281
20
6.5088823
11
10.0459281
21
6.4914823
0
LINE
8
DEFAULT_255_2_778
10
13.1860813
20
8.3093927
11
14.2734813
21
8.3093927
0
LINE
8
DEFAULT_255_2_778
10
14.2734813
20
8.3093927
11
14.2734813
21
8.0640927
0
LINE
8
DEFAULT_255_2_778
10
14.2734813
20
8.0640927
11
13.6599813
21
6.3093927
0
LINE
8
DEFAULT_255_2_778
10
13.6599813
20
6.3093927
11
13.4024813
21
6.3093927
0
LINE
8
DEFAULT_255_2_778
10
13.4024813
20
6.3093927
11
14.0477813
21
8.0855927
0
LINE
8
DEFAULT_255_2_778
10
14.0477813
20
8.0855927
11
13.1860813
21
8.0855927
0
LINE
8
DEFAULT_255_2_778
10
13.1860813
20
8.0855927
11
13.1860813
21
8.3093927
0
LINE
8
DEFAULT_255_2_778
10
18.5697281
20
6.4908823
11
18.4025281
21
6.5411823
0
LINE
8
DEFAULT_255_2_778
10
18.4025281
20
6.5411823
11
18.2999281
21
6.6480823
0
LINE
8
DEFAULT_255_2_778
10
18.2999281
20
6.6480823
11
18.2480281
21
6.7522823
0
LINE
8
DEFAULT_255_2_778
10
18.2480281
20
6.7522823
11
18.2218281
21
6.8422823
0
LINE
8
DEFAULT_255_2_778
10
18.2218281
20
6.8422823
11
18.2189281
21
6.8552823
0
LINE
8
DEFAULT_255_2_778
10
18.2189281
20
6.8552823
11
18.0001281
21
6.8552823
0
LINE
8
DEFAULT_255_2_778
10
18.0001281
20
6.8552823
11
18.0072281
21
6.8065823
0
LINE
8
DEFAULT_255_2_778
10
18.0072281
20
6.8065823
11
18.0168281
21
6.7580823
0
LINE
8
DEFAULT_255_2_778
10
18.0168281
20
6.7580823
11
18.0289281
21
6.7102823
0
LINE
8
DEFAULT_255_2_778
10
18.0289281
20
6.7102823
11
18.0562281
21
6.6308823
0
LINE
8
DEFAULT_255_2_778
10
18.0562281
20
6.6308823
11
18.0993281
21
6.5424823
0
LINE
8
DEFAULT_255_2_778
10
18.0993281
20
6.5424823
11
18.1641281
21
6.4511823
0
LINE
8
DEFAULT_255_2_778
10
18.1641281
20
6.4511823
11
18.2560281
21
6.3646823
0
LINE
8
DEFAULT_255_2_778
10
18.2560281
20
6.3646823
11
18.3771281
21
6.2974823
0
LINE
8
DEFAULT_255_2_778
10
18.3771281
20
6.2974823
11
18.5488281
21
6.2643823
0
LINE
8
DEFAULT_255_2_778
10
18.5488281
20
6.2643823
11
18.7370281
21
6.2842823
0
LINE
8
DEFAULT_255_2_778
10
18.7370281
20
6.2842823
11
18.8825281
21
6.3453823
0
LINE
8
DEFAULT_255_2_778
10
18.8825281
20
6.3453823
11
18.9769281
21
6.4207823
0
LINE
8
DEFAULT_255_2_778
10
18.9769281
20
6.4207823
11
19.0415281
21
6.5017823
0
LINE
8
DEFAULT_255_2_778
10
19.0415281
20
6.5017823
11
19.0756281
21
6.5638823
0
LINE
8
DEFAULT_255_2_778
10
19.0756281
20
6.5638823
11
19.1018281
21
6.6318823
0
LINE
8
DEFAULT_255_2_778
10
19.1018281
20
6.6318823
11
19.1161281
21
6.6845823
0
LINE
8
DEFAULT_255_2_778
10
19.1161281
20
6.6845823
11
19.1248281
21
6.7297823
0
LINE
8
DEFAULT_255_2_778
10
19.1248281
20
6.7297823
11
19.1230281
21
7.0052823
0
LINE
8
DEFAULT_255_2_778
10
19.1230281
20
7.0052823
11
19.1053281
21
7.0716823
0
LINE
8
DEFAULT_255_2_778
10
19.1053281
20
7.0716823
11
19.0484281
21
7.1819823
0
LINE
8
DEFAULT_255_2_778
10
19.0484281
20
7.1819823
11
18.9087281
21
7.3052823
0
LINE
8
DEFAULT_255_2_778
10
18.9087281
20
7.3052823
11
18.8378281
21
7.3327823
0
LINE
8
DEFAULT_255_2_778
10
18.8378281
20
7.3327823
11
18.9428281
21
7.4089823
0
LINE
8
DEFAULT_255_2_778
10
18.9428281
20
7.4089823
11
19.0090281
21
7.4865823
0
LINE
8
DEFAULT_255_2_778
10
19.0090281
20
7.4865823
11
19.0513281
21
7.5616823
0
LINE
8
DEFAULT_255_2_778
10
19.0513281
20
7.5616823
11
19.0756281
21
7.6270823
0
LINE
8
DEFAULT_255_2_778
10
19.0756281
20
7.6270823
11
19.0886281
21
7.6794823
0
LINE
8
DEFAULT_255_2_778
10
19.0886281
20
7.6794823
11
19.0947281
21
7.7169823
0
LINE
8
DEFAULT_255_2_778
10
19.0947281
20
7.7169823
11
19.0939281
21
7.9122823
0
LINE
8
DEFAULT_255_2_778
10
19.0939281
20
7.9122823
11
19.0867281
21
7.9516823
0
LINE
8
DEFAULT_255_2_778
10
19.0867281
20
7.9516823
11
19.0732281
21
8.0024823
0
LINE
8
DEFAULT_255_2_778
10
19.0732281
20
8.0024823
11
19.0497281
21
8.0627823
0
LINE
8
DEFAULT_255_2_778
10
19.0497281
20
8.0627823
11
19.0092281
21
8.1320823
0
LINE
8
DEFAULT_255_2_778
10
19.0092281
20
8.1320823
11
18.9341281
21
8.2143823
0
LINE
8
DEFAULT_255_2_778
10
18.9341281
20
8.2143823
11
18.8298281
21
8.2836823
0
LINE
8
DEFAULT_255_2_778
10
18.8298281
20
8.2836823
11
18.6899281
21
8.3291823
0
LINE
8
DEFAULT_255_2_778
10
18.6899281
20
8.3291823
11
18.4909281
21
8.3347823
0
LINE
8
DEFAULT_255_2_778
10
18.4909281
20
8.3347823
11
18.3229281
21
8.2884823
0
LINE
8
DEFAULT_255_2_778
10
18.3229281
20
8.2884823
11
18.1628281
21
8.1643823
0
LINE
8
DEFAULT_255_2_778
10
18.1628281
20
8.1643823
11
18.0969281
21
8.0590823
0
LINE
8
DEFAULT_255_2_778
10
18.0969281
20
8.0590823
11
18.0655281
21
7.9677823
0
LINE
8
DEFAULT_255_2_778
10
18.0655281
20
7.9677823
11
18.0533281
21
7.9058823
0
LINE
8
DEFAULT_255_2_778
10
18.0533281
20
7.9058823
11
18.0485281
21
7.8669823
0
LINE
8
DEFAULT_255_2_778
10
18.0485281
20
7.8669823
11
18.0459281
21
7.8280823
0
LINE
8
DEFAULT_255_2_778
10
18.0459281
20
7.8280823
11
18.0451281
21
7.7894823
0
LINE
8
DEFAULT_255_2_778
10
18.0451281
20
7.7894823
11
18.2525281
21
7.7894823
0
LINE
8
DEFAULT_255_2_778
10
18.2525281
20
7.7894823
11
18.2544281
21
7.8339823
0
LINE
8
DEFAULT_255_2_778
10
18.2544281
20
7.8339823
11
18.2589281
21
7.8672823
0
LINE
8
DEFAULT_255_2_778
10
18.2589281
20
7.8672823
11
18.2716281
21
7.9182823
0
LINE
8
DEFAULT_255_2_778
10
18.2716281
20
7.9182823
11
18.3009281
21
7.9815823
0
LINE
8
DEFAULT_255_2_778
10
18.3009281
20
7.9815823
11
18.3803281
21
8.0664823
0
LINE
8
DEFAULT_255_2_778
10
18.3803281
20
8.0664823
11
18.5282281
21
8.1214823
0
LINE
8
DEFAULT_255_2_778
10
18.5282281
20
8.1214823
11
18.7116281
21
8.0958823
0
LINE
8
DEFAULT_255_2_778
10
18.7116281
20
8.0958823
11
18.8185281
21
8.0132823
0
LINE
8
DEFAULT_255_2_778
10
18.8185281
20
8.0132823
11
18.8587281
21
7.9463823
0
LINE
8
DEFAULT_255_2_778
10
18.8587281
20
7.9463823
11
18.8772281
21
7.8886823
0
LINE
8
DEFAULT_255_2_778
10
18.8772281
20
7.8886823
11
18.8835281
21
7.8550823
0
LINE
8
DEFAULT_255_2_778
10
18.8835281
20
7.8550823
11
18.8825281
21
7.7222823
0
LINE
8
DEFAULT_255_2_778
10
18.8825281
20
7.7222823
11
18.8695281
21
7.6709823
0
LINE
8
DEFAULT_255_2_778
10
18.8695281
20
7.6709823
11
18.8243281
21
7.5862823
0
LINE
8
DEFAULT_255_2_778
10
18.8243281
20
7.5862823
11
18.6933281
21
7.4809823
0
LINE
8
DEFAULT_255_2_778
10
18.6933281
20
7.4809823
11
18.5250281
21
7.4439823
0
LINE
8
DEFAULT_255_2_778
10
18.5250281
20
7.4439823
11
18.4536281
21
7.4439823
0
LINE
8
DEFAULT_255_2_778
10
18.4536281
20
7.4439823
11
18.4536281
21
7.2200823
0
LINE
8
DEFAULT_255_2_778
10
18.4536281
20
7.2200823
11
18.6962281
21
7.1970823
0
LINE
8
DEFAULT_255_2_778
10
18.6962281
20
7.1970823
11
18.8319281
21
7.1179823
0
LINE
8
DEFAULT_255_2_778
10
18.8319281
20
7.1179823
11
18.8849281
21
7.0480823
0
LINE
8
DEFAULT_255_2_778
10
18.8849281
20
7.0480823
11
18.9066281
21
6.9941823
0
LINE
8
DEFAULT_255_2_778
10
18.9066281
20
6.9941823
11
18.9145281
21
6.9594823
0
LINE
8
DEFAULT_255_2_778
10
18.9145281
20
6.9594823
11
18.9121281
21
6.7856823
0
LINE
8
DEFAULT_255_2_778
10
18.9121281
20
6.7856823
11
18.8973281
21
6.7260823
0
LINE
8
DEFAULT_255_2_778
10
18.8973281
20
6.7260823
11
18.8700281
21
6.6626823
0
LINE
8
DEFAULT_255_2_778
10
18.8700281
20
6.6626823
11
18.8023281
21
6.5763823
0
LINE
8
DEFAULT_255_2_778
10
18.8023281
20
6.5763823
11
18.6867281
21
6.5088823
0
LINE
8
DEFAULT_255_2_778
10
18.6867281
20
6.5088823
11
18.5687281
21
6.4914823
0
LINE
8
DEFAULT_255_2_778
10
26.3966563
20
7.9958052
11
26.3551563
21
7.9003052
0
LINE
8
DEFAULT_255_2_778
10
26.3551563
20
7.9003052
11
26.3321563
21
7.8350052
0
LINE
8
DEFAULT_255_2_778
10
26.3321563
20
7.8350052
11
26.3114563
21
7.7641052
0
LINE
8
DEFAULT_255_2_778
10
26.3114563
20
7.7641052
11
26.2937563
21
7.6876052
0
LINE
8
DEFAULT_255_2_778
10
26.2937563
20
7.6876052
11
26.2863563
21
7.6490052
0
LINE
8
DEFAULT_255_2_778
10
26.2863563
20
7.6490052
11
26.2799563
21
7.6103052
0
LINE
8
DEFAULT_255_2_778
10
26.2799563
20
7.6103052
11
26.2744563
21
7.5715052
0
LINE
8
DEFAULT_255_2_778
10
26.2744563
20
7.5715052
11
26.2694563
21
7.5286052
0
LINE
8
DEFAULT_255_2_778
10
26.2694563
20
7.5286052
11
26.2654563
21
7.4857052
0
LINE
8
DEFAULT_255_2_778
10
26.2654563
20
7.4857052
11
26.2625563
21
7.4426052
0
LINE
8
DEFAULT_255_2_778
10
26.2625563
20
7.4426052
11
26.2625563
21
7.1817052
0
LINE
8
DEFAULT_255_2_778
10
26.2625563
20
7.1817052
11
26.2654563
21
7.1381052
0
LINE
8
DEFAULT_255_2_778
10
26.2654563
20
7.1381052
11
26.2694563
21
7.0944052
0
LINE
8
DEFAULT_255_2_778
10
26.2694563
20
7.0944052
11
26.2744563
21
7.0507052
0
LINE
8
DEFAULT_255_2_778
10
26.2744563
20
7.0507052
11
26.2797563
21
7.0113052
0
LINE
8
DEFAULT_255_2_778
10
26.2797563
20
7.0113052
11
26.2860563
21
6.9719052
0
LINE
8
DEFAULT_255_2_778
10
26.2860563
20
6.9719052
11
26.3014563
21
6.8936052
0
LINE
8
DEFAULT_255_2_778
10
26.3014563
20
6.8936052
11
26.3209563
21
6.8163052
0
LINE
8
DEFAULT_255_2_778
10
26.3209563
20
6.8163052
11
26.3426563
21
6.7462052
0
LINE
8
DEFAULT_255_2_778
10
26.3426563
20
6.7462052
11
26.3683563
21
6.6774052
0
LINE
8
DEFAULT_255_2_778
10
26.3683563
20
6.6774052
11
26.4098563
21
6.5872052
0
LINE
8
DEFAULT_255_2_778
10
26.4098563
20
6.5872052
11
26.4620563
21
6.4986052
0
LINE
8
DEFAULT_255_2_778
10
26.4620563
20
6.4986052
11
26.5260563
21
6.4182052
0
LINE
8
DEFAULT_255_2_778
10
26.5260563
20
6.4182052
11
26.6088563
21
6.3459052
0
LINE
8
DEFAULT_255_2_778
10
26.6088563
20
6.3459052
11
26.7030563
21
6.2954052
0
LINE
8
DEFAULT_255_2_778
10
26.7030563
20
6.2954052
11
26.8364563
21
6.2660052
0
LINE
8
DEFAULT_255_2_778
10
26.8364563
20
6.2660052
11
26.9734563
21
6.2740052
0
LINE
8
DEFAULT_255_2_778
10
26.9734563
20
6.2740052
11
27.0864563
21
6.3123052
0
LINE
8
DEFAULT_255_2_778
10
27.0864563
20
6.3123052
11
27.1777563
21
6.3729052
0
LINE
8
DEFAULT_255_2_778
10
27.1777563
20
6.3729052
11
27.2428563
21
6.4374052
0
LINE
8
DEFAULT_255_2_778
10
27.2428563
20
6.4374052
11
27.3033563
21
6.5203052
0
LINE
8
DEFAULT_255_2_778
10
27.3033563
20
6.5203052
11
27.3528563
21
6.6105052
0
LINE
8
DEFAULT_255_2_778
10
27.3528563
20
6.6105052
11
27.3827563
21
6.6779052
0
LINE
8
DEFAULT_255_2_778
10
27.3827563
20
6.6779052
11
27.4084563
21
6.7470052
0
LINE
8
DEFAULT_255_2_778
10
27.4084563
20
6.7470052
11
27.4301563
21
6.8174052
0
LINE
8
DEFAULT_255_2_778
10
27.4301563
20
6.8174052
11
27.4494563
21
6.8946052
0
LINE
8
DEFAULT_255_2_778
10
27.4494563
20
6.8946052
11
27.4647563
21
6.9730052
0
LINE
8
DEFAULT_255_2_778
10
27.4647563
20
6.9730052
11
27.4711563
21
7.0124052
0
LINE
8
DEFAULT_255_2_778
10
27.4711563
20
7.0124052
11
27.4764563
21
7.0518052
0
LINE
8
DEFAULT_255_2_778
10
27.4764563
20
7.0518052
11
27.4814563
21
7.0952052
0
LINE
8
DEFAULT_255_2_778
10
27.4814563
20
7.0952052
11
27.4854563
21
7.1389052
0
LINE
8
DEFAULT_255_2_778
10
27.4854563
20
7.1389052
11
27.4883563
21
7.1825052
0
LINE
8
DEFAULT_255_2_778
10
27.4883563
20
7.1825052
11
27.4883563
21
7.4431052
0
LINE
8
DEFAULT_255_2_778
10
27.4883563
20
7.4431052
11
27.4854563
21
7.4862052
0
LINE
8
DEFAULT_255_2_778
10
27.4854563
20
7.4862052
11
27.4814563
21
7.5291052
0
LINE
8
DEFAULT_255_2_778
10
27.4814563
20
7.5291052
11
27.4764563
21
7.5720052
0
LINE
8
DEFAULT_255_2_778
10
27.4764563
20
7.5720052
11
27.4708563
21
7.6109052
0
LINE
8
DEFAULT_255_2_778
10
27.4708563
20
7.6109052
11
27.4645563
21
7.6495052
0
LINE
8
DEFAULT_255_2_778
10
27.4645563
20
7.6495052
11
27.4489563
21
7.7265052
0
LINE
8
DEFAULT_255_2_778
10
27.4489563
20
7.7265052
11
27.4290563
21
7.8024052
0
LINE
8
DEFAULT_255_2_778
10
27.4290563
20
7.8024052
11
27.4068563
21
7.8715052
0
LINE
8
DEFAULT_255_2_778
10
27.4068563
20
7.8715052
11
27.3806563
21
7.9392052
0
LINE
8
DEFAULT_255_2_778
10
27.3806563
20
7.9392052
11
27.3266563
21
8.0495052
0
LINE
8
DEFAULT_255_2_778
10
27.3266563
20
8.0495052
11
27.2721563
21
8.1337052
0
LINE
8
DEFAULT_255_2_778
10
27.2721563
20
8.1337052
11
27.2081563
21
8.2062052
0
LINE
8
DEFAULT_255_2_778
10
27.2081563
20
8.2062052
11
27.1226563
21
8.2726052
0
LINE
8
DEFAULT_255_2_778
10
27.1226563
20
8.2726052
11
27.0247563
21
8.3173052
0
LINE
8
DEFAULT_255_2_778
10
27.0247563
20
8.3173052
11
26.8969563
21
8.3390052
0
LINE
8
DEFAULT_255_2_778
10
26.8969563
20
8.3390052
11
26.7678563
21
8.3282052
0
LINE
8
DEFAULT_255_2_778
10
26.7678563
20
8.3282052
11
26.6662563
21
8.2932052
0
LINE
8
DEFAULT_255_2_778
10
26.6662563
20
8.2932052
11
26.5755563
21
8.2348052
0
LINE
8
DEFAULT_255_2_778
10
26.5755563
20
8.2348052
11
26.5104563
21
8.1723052
0
LINE
8
DEFAULT_255_2_778
10
26.5104563
20
8.1723052
11
26.4498563
21
8.0924052
0
LINE
8
DEFAULT_255_2_778
10
26.4498563
20
8.0924052
11
26.3966563
21
7.9958052
0
LINE
8
DEFAULT_255_2_778
10
27.2041563
20
7.8233052
11
27.2237563
21
7.7656052
0
LINE
8
DEFAULT_255_2_778
10
27.2237563
20
7.7656052
11
27.2398563
21
7.7069052
0
LINE
8
DEFAULT_255_2_778
10
27.2398563
20
7.7069052
11
27.2539563
21
7.6429052
0
LINE
8
DEFAULT_255_2_778
10
27.2539563
20
7.6429052
11
27.2655563
21
7.5736052
0
LINE
8
DEFAULT_255_2_778
10
27.2655563
20
7.5736052
11
27.2700563
21
7.5386052
0
LINE
8
DEFAULT_255_2_778
10
27.2700563
20
7.5386052
11
27.2737563
21
7.5037052
0
LINE
8
DEFAULT_255_2_778
10
27.2737563
20
7.5037052
11
27.2771563
21
7.4651052
0
LINE
8
DEFAULT_255_2_778
10
27.2771563
20
7.4651052
11
27.2771563
21
7.1523052
0
LINE
8
DEFAULT_255_2_778
10
27.2771563
20
7.1523052
11
27.2737563
21
7.1132052
0
LINE
8
DEFAULT_255_2_778
10
27.2737563
20
7.1132052
11
27.2700563
21
7.0777052
0
LINE
8
DEFAULT_255_2_778
10
27.2700563
20
7.0777052
11
27.2655563
21
7.0423052
0
LINE
8
DEFAULT_255_2_778
10
27.2655563
20
7.0423052
11
27.2602563
21
7.0071052
0
LINE
8
DEFAULT_255_2_778
10
27.2602563
20
7.0071052
11
27.2470563
21
6.9370052
0
LINE
8
DEFAULT_255_2_778
10
27.2470563
20
6.9370052
11
27.2274563
21
6.8584052
0
LINE
8
DEFAULT_255_2_778
10
27.2274563
20
6.8584052
11
27.1951563
21
6.7623052
0
LINE
8
DEFAULT_255_2_778
10
27.1951563
20
6.7623052
11
27.1615563
21
6.6886052
0
LINE
8
DEFAULT_255_2_778
10
27.1615563
20
6.6886052
11
27.1091563
21
6.6084052
0
LINE
8
DEFAULT_255_2_778
10
27.1091563
20
6.6084052
11
27.0462563
21
6.5467052
0
LINE
8
DEFAULT_255_2_778
10
27.0462563
20
6.5467052
11
26.9581563
21
6.5026052
0
LINE
8
DEFAULT_255_2_778
10
26.9581563
20
6.5026052
11
26.8340563
21
6.4938052
0
LINE
8
DEFAULT_255_2_778
10
26.8340563
20
6.4938052
11
26.7422563
21
6.5232052
0
LINE
8
DEFAULT_255_2_778
10
26.7422563
20
6.5232052
11
26.6617563
21
6.5861052
0
LINE
8
DEFAULT_255_2_778
10
26.6617563
20
6.5861052
11
26.6101563
21
6.6536052
0
LINE
8
DEFAULT_255_2_778
10
26.6101563
20
6.6536052
11
26.5720563
21
6.7250052
0
LINE
8
DEFAULT_255_2_778
10
26.5720563
20
6.7250052
11
26.5400563
21
6.8068052
0
LINE
8
DEFAULT_255_2_778
10
26.5400563
20
6.8068052
11
26.5167563
21
6.8846052
0
LINE
8
DEFAULT_255_2_778
10
26.5167563
20
6.8846052
11
26.5043563
21
6.9372052
0
LINE
8
DEFAULT_255_2_778
10
26.5043563
20
6.9372052
11
26.4911563
21
7.0074052
0
LINE
8
DEFAULT_255_2_778
10
26.4911563
20
7.0074052
11
26.4858563
21
7.0425052
0
LINE
8
DEFAULT_255_2_778
10
26.4858563
20
7.0425052
11
26.4813563
21
7.0780052
0
LINE
8
DEFAULT_255_2_778
10
26.4813563
20
7.0780052
11
26.4776563
21
7.1135052
0
LINE
8
DEFAULT_255_2_778
10
26.4776563
20
7.1135052
11
26.4741563
21
7.1526052
0
LINE
8
DEFAULT_255_2_778
10
26.4741563
20
7.1526052
11
26.4741563
21
7.4654052
0
LINE
8
DEFAULT_255_2_778
10
26.4741563
20
7.4654052
11
26.4776563
21
7.5040052
0
LINE
8
DEFAULT_255_2_778
10
26.4776563
20
7.5040052
11
26.4813563
21
7.5389052
0
LINE
8
DEFAULT_255_2_778
10
26.4813563
20
7.5389052
11
26.4858563
21
7.5738052
0
LINE
8
DEFAULT_255_2_778
10
26.4858563
20
7.5738052
11
26.4974563
21
7.6432052
0
LINE
8
DEFAULT_255_2_778
10
26.4974563
20
7.6432052
11
26.5107563
21
7.7035052
0
LINE
8
DEFAULT_255_2_778
10
26.5107563
20
7.7035052
11
26.5323563
21
7.7802052
0
LINE
8
DEFAULT_255_2_778
10
26.5323563
20
7.7802052
11
26.5649563
21
7.8672052
0
LINE
8
DEFAULT_255_2_778
10
26.5649563
20
7.8672052
11
26.6006563
21
7.9379052
0
LINE
8
DEFAULT_255_2_778
10
26.6006563
20
7.9379052
11
26.6625563
21
8.0202052
0
LINE
8
DEFAULT_255_2_778
10
26.6625563
20
8.0202052
11
26.7427563
21
8.0813052
0
LINE
8
DEFAULT_255_2_778
10
26.7427563
20
8.0813052
11
26.8480563
21
8.1115052
0
LINE
8
DEFAULT_255_2_778
10
26.8480563
20
8.1115052
11
26.9708563
21
8.0974052
0
LINE
8
DEFAULT_255_2_778
10
26.9708563
20
8.0974052
11
27.0568563
21
8.0498052
0
LINE
8
DEFAULT_255_2_778
10
27.0568563
20
8.0498052
11
27.1171563
21
7.9874052
0
LINE
8
DEFAULT_255_2_778
10
27.1171563
20
7.9874052
11
27.1602563
21
7.9210052
0
LINE
8
DEFAULT_255_2_778
10
27.1602563
20
7.9210052
11
27.2041563
21
7.8233052
0
LINE
8
DEFAULT_255_2_778
10
24.8951563
20
8.3094052
11
25.5888563
21
8.2978052
0
LINE
8
DEFAULT_255_2_778
10
25.5888563
20
8.2978052
11
25.7759563
21
8.2369052
0
LINE
8
DEFAULT_255_2_778
10
25.7759563
20
8.2369052
11
25.8849563
21
8.1549052
0
LINE
8
DEFAULT_255_2_778
10
25.8849563
20
8.1549052
11
25.9347563
21
8.0914052
0
LINE
8
DEFAULT_255_2_778
10
25.9347563
20
8.0914052
11
25.9667563
21
8.0255052
0
LINE
8
DEFAULT_255_2_778
10
25.9667563
20
8.0255052
11
25.9836563
21
7.9686052
0
LINE
8
DEFAULT_255_2_778
10
25.9836563
20
7.9686052
11
25.9921563
21
7.9244052
0
LINE
8
DEFAULT_255_2_778
10
25.9921563
20
7.9244052
11
25.9958563
21
7.8945052
0
LINE
8
DEFAULT_255_2_778
10
25.9958563
20
7.8945052
11
25.9950563
21
7.7323052
0
LINE
8
DEFAULT_255_2_778
10
25.9950563
20
7.7323052
11
25.9900563
21
7.6984052
0
LINE
8
DEFAULT_255_2_778
10
25.9900563
20
7.6984052
11
25.9786563
21
7.6484052
0
LINE
8
DEFAULT_255_2_778
10
25.9786563
20
7.6484052
11
25.9577563
21
7.5905052
0
LINE
8
DEFAULT_255_2_778
10
25.9577563
20
7.5905052
11
25.9093563
21
7.5069052
0
LINE
8
DEFAULT_255_2_778
10
25.9093563
20
7.5069052
11
25.8238563
21
7.4198052
0
LINE
8
DEFAULT_255_2_778
10
25.8238563
20
7.4198052
11
25.7169563
21
7.3640052
0
LINE
8
DEFAULT_255_2_778
10
25.7169563
20
7.3640052
11
25.8473563
21
7.3056052
0
LINE
8
DEFAULT_255_2_778
10
25.8473563
20
7.3056052
11
25.9354563
21
7.2309052
0
LINE
8
DEFAULT_255_2_778
10
25.9354563
20
7.2309052
11
25.9892563
21
7.1561052
0
LINE
8
DEFAULT_255_2_778
10
25.9892563
20
7.1561052
11
26.0172563
21
7.0968052
0
LINE
8
DEFAULT_255_2_778
10
26.0172563
20
7.0968052
11
26.0370563
21
7.0343052
0
LINE
8
DEFAULT_255_2_778
10
26.0370563
20
7.0343052
11
26.0452563
21
6.9978052
0
LINE
8
DEFAULT_255_2_778
10
26.0452563
20
6.9978052
11
26.0519563
21
6.9563052
0
LINE
8
DEFAULT_255_2_778
10
26.0519563
20
6.9563052
11
26.0513563
21
6.7296052
0
LINE
8
DEFAULT_255_2_778
10
26.0513563
20
6.7296052
11
26.0458563
21
6.6954052
0
LINE
8
DEFAULT_255_2_778
10
26.0458563
20
6.6954052
11
26.0341563
21
6.6451052
0
LINE
8
DEFAULT_255_2_778
10
26.0341563
20
6.6451052
11
26.0177563
21
6.5965052
0
LINE
8
DEFAULT_255_2_778
10
26.0177563
20
6.5965052
11
25.9810563
21
6.5250052
0
LINE
8
DEFAULT_255_2_778
10
25.9810563
20
6.5250052
11
25.9048563
21
6.4359052
0
LINE
8
DEFAULT_255_2_778
10
25.9048563
20
6.4359052
11
25.8082563
21
6.3694052
0
LINE
8
DEFAULT_255_2_778
10
25.8082563
20
6.3694052
11
25.6378563
21
6.3184052
0
LINE
8
DEFAULT_255_2_778
10
25.6378563
20
6.3184052
11
25.4949563
21
6.3094052
0
LINE
8
DEFAULT_255_2_778
10
25.4949563
20
6.3094052
11
24.8951563
21
6.3094052
0
LINE
8
DEFAULT_255_2_778
10
24.8951563
20
6.3094052
11
24.8951563
21
8.3094052
0
LINE
8
DEFAULT_255_2_778
10
25.4756563
20
6.5361052
11
25.6928563
21
6.5763052
0
LINE
8
DEFAULT_255_2_778
10
25.6928563
20
6.5763052
11
25.7717563
21
6.6398052
0
LINE
8
DEFAULT_255_2_778
10
25.7717563
20
6.6398052
11
25.8074563
21
6.7007052
0
LINE
8
DEFAULT_255_2_778
10
25.8074563
20
6.7007052
11
25.8251563
21
6.7547052
0
LINE
8
DEFAULT_255_2_778
10
25.8251563
20
6.7547052
11
25.8328563
21
6.7925052
0
LINE
8
DEFAULT_255_2_778
10
25.8328563
20
6.7925052
11
25.8320563
21
6.9764052
0
LINE
8
DEFAULT_255_2_778
10
25.8320563
20
6.9764052
11
25.8217563
21
7.0193052
0
LINE
8
DEFAULT_255_2_778
10
25.8217563
20
7.0193052
11
25.8008563
21
7.0695052
0
LINE
8
DEFAULT_255_2_778
10
25.8008563
20
7.0695052
11
25.7378563
21
7.1460052
0
LINE
8
DEFAULT_255_2_778
10
25.7378563
20
7.1460052
11
25.6248563
21
7.2085052
0
LINE
8
DEFAULT_255_2_778
10
25.6248563
20
7.2085052
11
25.4404563
21
7.2322052
0
LINE
8
DEFAULT_255_2_778
10
25.4404563
20
7.2322052
11
25.1139563
21
7.2322052
0
LINE
8
DEFAULT_255_2_778
10
25.1139563
20
7.2322052
11
25.1139563
21
6.5364052
0
LINE
8
DEFAULT_255_2_778
10
25.1139563
20
6.5364052
11
25.4756563
21
6.5361052
0
LINE
8
DEFAULT_255_2_778
10
25.4132563
20
7.4646052
11
25.6058563
21
7.4931052
0
LINE
8
DEFAULT_255_2_778
10
25.6058563
20
7.4931052
11
25.7185563
21
7.5696052
0
LINE
8
DEFAULT_255_2_778
10
25.7185563
20
7.5696052
11
25.7569563
21
7.6310052
0
LINE
8
DEFAULT_255_2_778
10
25.7569563
20
7.6310052
11
25.7711563
21
7.6765052
0
LINE
8
DEFAULT_255_2_778
10
25.7711563
20
7.6765052
11
25.7775563
21
7.7149052
0
LINE
8
DEFAULT_255_2_778
10
25.7775563
20
7.7149052
11
25.7756563
21
7.8366052
0
LINE
8
DEFAULT_255_2_778
10
25.7756563
20
7.8366052
11
25.7672563
21
7.8765052
0
LINE
8
DEFAULT_255_2_778
10
25.7672563
20
7.8765052
11
25.7447563
21
7.9323052
0
LINE
8
DEFAULT_255_2_778
10
25.7447563
20
7.9323052
11
25.6722563
21
8.0144052
0
LINE
8
DEFAULT_255_2_778
10
25.6722563
20
8.0144052
11
25.5285563
21
8.0742052
0
LINE
8
DEFAULT_255_2_778
10
25.5285563
20
8.0742052
11
25.4129563
21
8.0826052
0
LINE
8
DEFAULT_255_2_778
10
25.4129563
20
8.0826052
11
25.1137563
21
8.0826052
0
LINE
8
DEFAULT_255_2_778
10
25.1137563
20
8.0826052
11
25.1137563
21
7.4646052
0
LINE
8
DEFAULT_255_2_778
10
25.1137563
20
7.4646052
11
25.4132563
21
7.4646052
0
LINE
8
DEFAULT_255_2_778
10
23.7111563
20
8.3094052
11
23.9516563
21
8.3094052
0
LINE
8
DEFAULT_255_2_778
10
23.9516563
20
8.3094052
11
24.6080563
21
6.3094052
0
LINE
8
DEFAULT_255_2_778
10
24.6080563
20
6.3094052
11
24.3699563
21
6.3094052
0
LINE
8
DEFAULT_255_2_778
10
24.3699563
20
6.3094052
11
24.2088563
21
6.8309052
0
LINE
8
DEFAULT_255_2_778
10
24.2088563
20
6.8309052
11
23.4558563
21
6.8309052
0
LINE
8
DEFAULT_255_2_778
10
23.4558563
20
6.8309052
11
23.2970563
21
6.3094052
0
LINE
8
DEFAULT_255_2_778
10
23.2970563
20
6.3094052
11
23.0544563
21
6.3094052
0
LINE
8
DEFAULT_255_2_778
10
23.0544563
20
6.3094052
11
23.7111563
21
8.3094052
0
LINE
8
DEFAULT_255_2_778
10
23.5262563
20
7.0579052
11
24.1397563
21
7.0579052
0
LINE
8
DEFAULT_255_2_778
10
24.1397563
20
7.0579052
11
23.8325563
21
8.0514052
0
LINE
8
DEFAULT_255_2_778
10
23.8325563
20
8.0514052
11
23.5262563
21
7.0579052
0
LINE
8
DEFAULT_255_2_778
10
21.7714927
20
7.9958052
11
21.7299927
21
7.9003052
0
LINE
8
DEFAULT_255_2_778
10
21.7299927
20
7.9003052
11
21.7069927
21
7.8350052
0
LINE
8
DEFAULT_255_2_778
10
21.7069927
20
7.8350052
11
21.6862927
21
7.7641052
0
LINE
8
DEFAULT_255_2_778
10
21.6862927
20
7.7641052
11
21.6685927
21
7.6876052
0
LINE
8
DEFAULT_255_2_778
10
21.6685927
20
7.6876052
11
21.6611927
21
7.6490052
0
LINE
8
DEFAULT_255_2_778
10
21.6611927
20
7.6490052
11
21.6548927
21
7.6103052
0
LINE
8
DEFAULT_255_2_778
10
21.6548927
20
7.6103052
11
21.6492927
21
7.5715052
0
LINE
8
DEFAULT_255_2_778
10
21.6492927
20
7.5715052
11
21.6442927
21
7.5286052
0
LINE
8
DEFAULT_255_2_778
10
21.6442927
20
7.5286052
11
21.6402927
21
7.4857052
0
LINE
8
DEFAULT_255_2_778
10
21.6402927
20
7.4857052
11
21.6373927
21
7.4426052
0
LINE
8
DEFAULT_255_2_778
10
21.6373927
20
7.4426052
11
21.6373927
21
7.1817052
0
LINE
8
DEFAULT_255_2_778
10
21.6373927
20
7.1817052
11
21.6402927
21
7.1381052
0
LINE
8
DEFAULT_255_2_778
10
21.6402927
20
7.1381052
11
21.6442927
21
7.0944052
0
LINE
8
DEFAULT_255_2_778
10
21.6442927
20
7.0944052
11
21.6492927
21
7.0507052
0
LINE
8
DEFAULT_255_2_778
10
21.6492927
20
7.0507052
11
21.6545927
21
7.0113052
0
LINE
8
DEFAULT_255_2_778
10
21.6545927
20
7.0113052
11
21.6608927
21
6.9719052
0
LINE
8
DEFAULT_255_2_778
10
21.6608927
20
6.9719052
11
21.6762927
21
6.8936052
0
LINE
8
DEFAULT_255_2_778
10
21.6762927
20
6.8936052
11
21.6958927
21
6.8163052
0
LINE
8
DEFAULT_255_2_778
10
21.6958927
20
6.8163052
11
21.7175927
21
6.7462052
0
LINE
8
DEFAULT_255_2_778
10
21.7175927
20
6.7462052
11
21.7431927
21
6.6774052
0
LINE
8
DEFAULT_255_2_778
10
21.7431927
20
6.6774052
11
21.7847927
21
6.5872052
0
LINE
8
DEFAULT_255_2_778
10
21.7847927
20
6.5872052
11
21.8368927
21
6.4986052
0
LINE
8
DEFAULT_255_2_778
10
21.8368927
20
6.4986052
11
21.9008927
21
6.4182052
0
LINE
8
DEFAULT_255_2_778
10
21.9008927
20
6.4182052
11
21.9836927
21
6.3459052
0
LINE
8
DEFAULT_255_2_778
10
21.9836927
20
6.3459052
11
22.0778927
21
6.2954052
0
LINE
8
DEFAULT_255_2_778
10
22.0778927
20
6.2954052
11
22.2112927
21
6.2660052
0
LINE
8
DEFAULT_255_2_778
10
22.2112927
20
6.2660052
11
22.3482927
21
6.2740052
0
LINE
8
DEFAULT_255_2_778
10
22.3482927
20
6.2740052
11
22.4612927
21
6.3123052
0
LINE
8
DEFAULT_255_2_778
10
22.4612927
20
6.3123052
11
22.5525927
21
6.3729052
0
LINE
8
DEFAULT_255_2_778
10
22.5525927
20
6.3729052
11
22.6176927
21
6.4374052
0
LINE
8
DEFAULT_255_2_778
10
22.6176927
20
6.4374052
11
22.6782927
21
6.5203052
0
LINE
8
DEFAULT_255_2_778
10
22.6782927
20
6.5203052
11
22.7276927
21
6.6105052
0
LINE
8
DEFAULT_255_2_778
10
22.7276927
20
6.6105052
11
22.7575927
21
6.6779052
0
LINE
8
DEFAULT_255_2_778
10
22.7575927
20
6.6779052
11
22.7832927
21
6.7470052
0
LINE
8
DEFAULT_255_2_778
10
22.7832927
20
6.7470052
11
22.8049927
21
6.8174052
0
LINE
8
DEFAULT_255_2_778
10
22.8049927
20
6.8174052
11
22.8242927
21
6.8946052
0
LINE
8
DEFAULT_255_2_778
10
22.8242927
20
6.8946052
11
22.8396927
21
6.9730052
0
LINE
8
DEFAULT_255_2_778
10
22.8396927
20
6.9730052
11
22.8459927
21
7.0124052
0
LINE
8
DEFAULT_255_2_778
10
22.8459927
20
7.0124052
11
22.8512927
21
7.0518052
0
LINE
8
DEFAULT_255_2_778
10
22.8512927
20
7.0518052
11
22.8562927
21
7.0952052
0
LINE
8
DEFAULT_255_2_778
10
22.8562927
20
7.0952052
11
22.8602927
21
7.1389052
0
LINE
8
DEFAULT_255_2_778
10
22.8602927
20
7.1389052
11
22.8631927
21
7.1825052
0
LINE
8
DEFAULT_255_2_778
10
22.8631927
20
7.1825052
11
22.8631927
21
7.4431052
0
LINE
8
DEFAULT_255_2_778
10
22.8631927
20
7.4431052
11
22.8602927
21
7.4862052
0
LINE
8
DEFAULT_255_2_778
10
22.8602927
20
7.4862052
11
22.8562927
21
7.5291052
0
LINE
8
DEFAULT_255_2_778
10
22.8562927
20
7.5291052
11
22.8512927
21
7.5720052
0
LINE
8
DEFAULT_255_2_778
10
22.8512927
20
7.5720052
11
22.8457927
21
7.6109052
0
LINE
8
DEFAULT_255_2_778
10
22.8457927
20
7.6109052
11
22.8393927
21
7.6495052
0
LINE
8
DEFAULT_255_2_778
10
22.8393927
20
7.6495052
11
22.8237927
21
7.7265052
0
LINE
8
DEFAULT_255_2_778
10
22.8237927
20
7.7265052
11
22.8038927
21
7.8024052
0
LINE
8
DEFAULT_255_2_778
10
22.8038927
20
7.8024052
11
22.7816927
21
7.8715052
0
LINE
8
DEFAULT_255_2_778
10
22.7816927
20
7.8715052
11
22.7554927
21
7.9392052
0
LINE
8
DEFAULT_255_2_778
10
22.7554927
20
7.9392052
11
22.7015927
21
8.0495052
0
LINE
8
DEFAULT_255_2_778
10
22.7015927
20
8.0495052
11
22.6469927
21
8.1337052
0
LINE
8
DEFAULT_255_2_778
10
22.6469927
20
8.1337052
11
22.5829927
21
8.2062052
0
LINE
8
DEFAULT_255_2_778
10
22.5829927
20
8.2062052
11
22.4975927
21
8.2726052
0
LINE
8
DEFAULT_255_2_778
10
22.4975927
20
8.2726052
11
22.3996927
21
8.3173052
0
LINE
8
DEFAULT_255_2_778
10
22.3996927
20
8.3173052
11
22.2718927
21
8.3390052
0
LINE
8
DEFAULT_255_2_778
10
22.2718927
20
8.3390052
11
22.1427927
21
8.3282052
0
LINE
8
DEFAULT_255_2_778
10
22.1427927
20
8.3282052
11
22.0411927
21
8.2932052
0
LINE
8
DEFAULT_255_2_778
10
22.0411927
20
8.2932052
11
21.9503927
21
8.2348052
0
LINE
8
DEFAULT_255_2_778
10
21.9503927
20
8.2348052
11
21.8852927
21
8.1723052
0
LINE
8
DEFAULT_255_2_778
10
21.8852927
20
8.1723052
11
21.8246927
21
8.0924052
0
LINE
8
DEFAULT_255_2_778
10
21.8246927
20
8.0924052
11
21.7714927
21
7.9958052
0
LINE
8
DEFAULT_255_2_778
10
21.9244927
20
6.7814052
11
21.8992927
21
6.8587052
0
LINE
8
DEFAULT_255_2_778
10
21.8992927
20
6.8587052
11
21.8797927
21
6.9372052
0
LINE
8
DEFAULT_255_2_778
10
21.8797927
20
6.9372052
11
21.8664927
21
7.0074052
0
LINE
8
DEFAULT_255_2_778
10
21.8664927
20
7.0074052
11
21.8611927
21
7.0425052
0
LINE
8
DEFAULT_255_2_778
10
21.8611927
20
7.0425052
11
21.8566927
21
7.0780052
0
LINE
8
DEFAULT_255_2_778
10
21.8566927
20
7.0780052
11
21.8529927
21
7.1135052
0
LINE
8
DEFAULT_255_2_778
10
21.8529927
20
7.1135052
11
21.8495927
21
7.1526052
0
LINE
8
DEFAULT_255_2_778
10
21.8495927
20
7.1526052
11
21.8495927
21
7.4654052
0
LINE
8
DEFAULT_255_2_778
10
21.8495927
20
7.4654052
11
21.8529927
21
7.5040052
0
LINE
8
DEFAULT_255_2_778
10
21.8529927
20
7.5040052
11
21.8566927
21
7.5389052
0
LINE
8
DEFAULT_255_2_778
10
21.8566927
20
7.5389052
11
21.8611927
21
7.5738052
0
LINE
8
DEFAULT_255_2_778
10
21.8611927
20
7.5738052
11
21.8728927
21
7.6432052
0
LINE
8
DEFAULT_255_2_778
10
21.8728927
20
7.6432052
11
21.8860927
21
7.7035052
0
LINE
8
DEFAULT_255_2_778
10
21.8860927
20
7.7035052
11
21.9077927
21
7.7802052
0
LINE
8
DEFAULT_255_2_778
10
21.9077927
20
7.7802052
11
21.9402927
21
7.8672052
0
LINE
8
DEFAULT_255_2_778
10
21.9402927
20
7.8672052
11
21.9760927
21
7.9379052
0
LINE
8
DEFAULT_255_2_778
10
21.9760927
20
7.9379052
11
22.0379927
21
8.0202052
0
LINE
8
DEFAULT_255_2_778
10
22.0379927
20
8.0202052
11
22.1180927
21
8.0813052
0
LINE
8
DEFAULT_255_2_778
10
22.1180927
20
8.0813052
11
22.2234927
21
8.1115052
0
LINE
8
DEFAULT_255_2_778
10
22.2234927
20
8.1115052
11
22.3461927
21
8.0974052
0
LINE
8
DEFAULT_255_2_778
10
22.3461927
20
8.0974052
11
22.4321927
21
8.0498052
0
LINE
8
DEFAULT_255_2_778
10
22.4321927
20
8.0498052
11
22.4924927
21
7.9874052
0
LINE
8
DEFAULT_255_2_778
10
22.4924927
20
7.9874052
11
22.5356927
21
7.9210052
0
LINE
8
DEFAULT_255_2_778
10
22.5356927
20
7.9210052
11
22.5790927
21
7.8239052
0
LINE
8
DEFAULT_255_2_778
10
22.5790927
20
7.8239052
11
22.5985927
21
7.7662052
0
LINE
8
DEFAULT_255_2_778
10
22.5985927
20
7.7662052
11
22.6147927
21
7.7074052
0
LINE
8
DEFAULT_255_2_778
10
22.6147927
20
7.7074052
11
22.6287927
21
7.6434052
0
LINE
8
DEFAULT_255_2_778
10
22.6287927
20
7.6434052
11
22.6403927
21
7.5741052
0
LINE
8
DEFAULT_255_2_778
10
22.6403927
20
7.5741052
11
22.6448927
21
7.5392052
0
LINE
8
DEFAULT_255_2_778
10
22.6448927
20
7.5392052
11
22.6485927
21
7.5042052
0
LINE
8
DEFAULT_255_2_778
10
22.6485927
20
7.5042052
11
22.6520927
21
7.4656052
0
LINE
8
DEFAULT_255_2_778
10
22.6520927
20
7.4656052
11
22.6520927
21
7.1529052
0
LINE
8
DEFAULT_255_2_778
10
22.6520927
20
7.1529052
11
22.6485927
21
7.1137052
0
LINE
8
DEFAULT_255_2_778
10
22.6485927
20
7.1137052
11
22.6448927
21
7.0783052
0
LINE
8
DEFAULT_255_2_778
10
22.6448927
20
7.0783052
11
22.6403927
21
7.0428052
0
LINE
8
DEFAULT_255_2_778
10
22.6403927
20
7.0428052
11
22.6350927
21
7.0076052
0
LINE
8
DEFAULT_255_2_778
10
22.6350927
20
7.0076052
11
22.6218927
21
6.9375052
0
LINE
8
DEFAULT_255_2_778
10
22.6218927
20
6.9375052
11
22.6022927
21
6.8589052
0
LINE
8
DEFAULT_255_2_778
10
22.6022927
20
6.8589052
11
22.5700927
21
6.7629052
0
LINE
8
DEFAULT_255_2_778
10
22.5700927
20
6.7629052
11
22.5364927
21
6.6891052
0
LINE
8
DEFAULT_255_2_778
10
22.5364927
20
6.6891052
11
22.4840927
21
6.6089052
0
LINE
8
DEFAULT_255_2_778
10
22.4840927
20
6.6089052
11
22.4210927
21
6.5472052
0
LINE
8
DEFAULT_255_2_778
10
22.4210927
20
6.5472052
11
22.3329927
21
6.5031052
0
LINE
8
DEFAULT_255_2_778
10
22.3329927
20
6.5031052
11
22.2088927
21
6.4944052
0
LINE
8
DEFAULT_255_2_778
10
22.2088927
20
6.4944052
11
22.1170927
21
6.5237052
0
LINE
8
DEFAULT_255_2_778
10
22.1170927
20
6.5237052
11
22.0366927
21
6.5867052
0
LINE
8
DEFAULT_255_2_778
10
22.0366927
20
6.5867052
11
21.9850927
21
6.6542052
0
LINE
8
DEFAULT_255_2_778
10
21.9850927
20
6.6542052
11
21.9469927
21
6.7256052
0
LINE
8
DEFAULT_255_2_778
10
21.9469927
20
6.7256052
11
21.9244927
21
6.7814052
0
LINE
8
DEFAULT_255_2_778
10
19.5441927
20
7.9958052
11
19.5026927
21
7.9003052
0
LINE
8
DEFAULT_255_2_778
10
19.5026927
20
7.9003052
11
19.4796927
21
7.8350052
0
LINE
8
DEFAULT_255_2_778
10
19.4796927
20
7.8350052
11
19.4589927
21
7.7641052
0
LINE
8
DEFAULT_255_2_778
10
19.4589927
20
7.7641052
11
19.4412927
21
7.6876052
0
LINE
8
DEFAULT_255_2_778
10
19.4412927
20
7.6876052
11
19.4338927
21
7.6490052
0
LINE
8
DEFAULT_255_2_778
10
19.4338927
20
7.6490052
11
19.4275927
21
7.6103052
0
LINE
8
DEFAULT_255_2_778
10
19.4275927
20
7.6103052
11
19.4219927
21
7.5715052
0
LINE
8
DEFAULT_255_2_778
10
19.4219927
20
7.5715052
11
19.4169927
21
7.5286052
0
LINE
8
DEFAULT_255_2_778
10
19.4169927
20
7.5286052
11
19.4129927
21
7.4857052
0
LINE
8
DEFAULT_255_2_778
10
19.4129927
20
7.4857052
11
19.4100927
21
7.4426052
0
LINE
8
DEFAULT_255_2_778
10
19.4100927
20
7.4426052
11
19.4100927
21
7.1817052
0
LINE
8
DEFAULT_255_2_778
10
19.4100927
20
7.1817052
11
19.4129927
21
7.1381052
0
LINE
8
DEFAULT_255_2_778
10
19.4129927
20
7.1381052
11
19.4169927
21
7.0944052
0
LINE
8
DEFAULT_255_2_778
10
19.4169927
20
7.0944052
11
19.4219927
21
7.0507052
0
LINE
8
DEFAULT_255_2_778
10
19.4219927
20
7.0507052
11
19.4272927
21
7.0113052
0
LINE
8
DEFAULT_255_2_778
10
19.4272927
20
7.0113052
11
19.4335927
21
6.9719052
0
LINE
8
DEFAULT_255_2_778
10
19.4335927
20
6.9719052
11
19.4489927
21
6.8936052
0
LINE
8
DEFAULT_255_2_778
10
19.4489927
20
6.8936052
11
19.4684927
21
6.8163052
0
LINE
8
DEFAULT_255_2_778
10
19.4684927
20
6.8163052
11
19.4902927
21
6.7462052
0
LINE
8
DEFAULT_255_2_778
10
19.4902927
20
6.7462052
11
19.5158927
21
6.6774052
0
LINE
8
DEFAULT_255_2_778
10
19.5158927
20
6.6774052
11
19.5573927
21
6.5872052
0
LINE
8
DEFAULT_255_2_778
10
19.5573927
20
6.5872052
11
19.6095927
21
6.4986052
0
LINE
8
DEFAULT_255_2_778
10
19.6095927
20
6.4986052
11
19.6735927
21
6.4182052
0
LINE
8
DEFAULT_255_2_778
10
19.6735927
20
6.4182052
11
19.7563927
21
6.3459052
0
LINE
8
DEFAULT_255_2_778
10
19.7563927
20
6.3459052
11
19.8505927
21
6.2954052
0
LINE
8
DEFAULT_255_2_778
10
19.8505927
20
6.2954052
11
19.9839927
21
6.2660052
0
LINE
8
DEFAULT_255_2_778
10
19.9839927
20
6.2660052
11
20.1209927
21
6.2740052
0
LINE
8
DEFAULT_255_2_778
10
20.1209927
20
6.2740052
11
20.2339927
21
6.3123052
0
LINE
8
DEFAULT_255_2_778
10
20.2339927
20
6.3123052
11
20.3252927
21
6.3729052
0
LINE
8
DEFAULT_255_2_778
10
20.3252927
20
6.3729052
11
20.3903927
21
6.4374052
0
LINE
8
DEFAULT_255_2_778
10
20.3903927
20
6.4374052
11
20.4509927
21
6.5203052
0
LINE
8
DEFAULT_255_2_778
10
20.4509927
20
6.5203052
11
20.5003927
21
6.6105052
0
LINE
8
DEFAULT_255_2_778
10
20.5003927
20
6.6105052
11
20.5302927
21
6.6779052
0
LINE
8
DEFAULT_255_2_778
10
20.5302927
20
6.6779052
11
20.5559927
21
6.7470052
0
LINE
8
DEFAULT_255_2_778
10
20.5559927
20
6.7470052
11
20.5776927
21
6.8174052
0
LINE
8
DEFAULT_255_2_778
10
20.5776927
20
6.8174052
11
20.5969927
21
6.8946052
0
LINE
8
DEFAULT_255_2_778
10
20.5969927
20
6.8946052
11
20.6122927
21
6.9730052
0
LINE
8
DEFAULT_255_2_778
10
20.6122927
20
6.9730052
11
20.6186927
21
7.0124052
0
LINE
8
DEFAULT_255_2_778
10
20.6186927
20
7.0124052
11
20.6239927
21
7.0518052
0
LINE
8
DEFAULT_255_2_778
10
20.6239927
20
7.0518052
11
20.6289927
21
7.0952052
0
LINE
8
DEFAULT_255_2_778
10
20.6289927
20
7.0952052
11
20.6329927
21
7.1389052
0
LINE
8
DEFAULT_255_2_778
10
20.6329927
20
7.1389052
11
20.6358927
21
7.1825052
0
LINE
8
DEFAULT_255_2_778
10
20.6358927
20
7.1825052
11
20.6358927
21
7.4431052
0
LINE
8
DEFAULT_255_2_778
10
20.6358927
20
7.4431052
11
20.6329927
21
7.4862052
0
LINE
8
DEFAULT_255_2_778
10
20.6329927
20
7.4862052
11
20.6289927
21
7.5291052
0
LINE
8
DEFAULT_255_2_778
10
20.6289927
20
7.5291052
11
20.6239927
21
7.5720052
0
LINE
8
DEFAULT_255_2_778
10
20.6239927
20
7.5720052
11
20.6184927
21
7.6109052
0
LINE
8
DEFAULT_255_2_778
10
20.6184927
20
7.6109052
11
20.6120927
21
7.6495052
0
LINE
8
DEFAULT_255_2_778
10
20.6120927
20
7.6495052
11
20.5964927
21
7.7265052
0
LINE
8
DEFAULT_255_2_778
10
20.5964927
20
7.7265052
11
20.5765927
21
7.8024052
0
LINE
8
DEFAULT_255_2_778
10
20.5765927
20
7.8024052
11
20.5543927
21
7.8715052
0
LINE
8
DEFAULT_255_2_778
10
20.5543927
20
7.8715052
11
20.5281927
21
7.9392052
0
LINE
8
DEFAULT_255_2_778
10
20.5281927
20
7.9392052
11
20.4742927
21
8.0495052
0
LINE
8
DEFAULT_255_2_778
10
20.4742927
20
8.0495052
11
20.4196927
21
8.1337052
0
LINE
8
DEFAULT_255_2_778
10
20.4196927
20
8.1337052
11
20.3556927
21
8.2062052
0
LINE
8
DEFAULT_255_2_778
10
20.3556927
20
8.2062052
11
20.2702927
21
8.2726052
0
LINE
8
DEFAULT_255_2_778
10
20.2702927
20
8.2726052
11
20.1723927
21
8.3173052
0
LINE
8
DEFAULT_255_2_778
10
20.1723927
20
8.3173052
11
20.0444927
21
8.3390052
0
LINE
8
DEFAULT_255_2_778
10
20.0444927
20
8.3390052
11
19.9154927
21
8.3282052
0
LINE
8
DEFAULT_255_2_778
10
19.9154927
20
8.3282052
11
19.8138927
21
8.2932052
0
LINE
8
DEFAULT_255_2_778
10
19.8138927
20
8.2932052
11
19.7230927
21
8.2348052
0
LINE
8
DEFAULT_255_2_778
10
19.7230927
20
8.2348052
11
19.6579927
21
8.1723052
0
LINE
8
DEFAULT_255_2_778
10
19.6579927
20
8.1723052
11
19.5973927
21
8.0924052
0
LINE
8
DEFAULT_255_2_778
10
19.5973927
20
8.0924052
11
19.5441927
21
7.9958052
0
LINE
8
DEFAULT_255_2_778
10
19.6971927
20
6.7814052
11
19.6719927
21
6.8587052
0
LINE
8
DEFAULT_255_2_778
10
19.6719927
20
6.8587052
11
19.6524927
21
6.9372052
0
LINE
8
DEFAULT_255_2_778
10
19.6524927
20
6.9372052
11
19.6391927
21
7.0074052
0
LINE
8
DEFAULT_255_2_778
10
19.6391927
20
7.0074052
11
19.6338927
21
7.0425052
0
LINE
8
DEFAULT_255_2_778
10
19.6338927
20
7.0425052
11
19.6293927
21
7.0780052
0
LINE
8
DEFAULT_255_2_778
10
19.6293927
20
7.0780052
11
19.6256927
21
7.1135052
0
LINE
8
DEFAULT_255_2_778
10
19.6256927
20
7.1135052
11
19.6222927
21
7.1526052
0
LINE
8
DEFAULT_255_2_778
10
19.6222927
20
7.1526052
11
19.6222927
21
7.4654052
0
LINE
8
DEFAULT_255_2_778
10
19.6222927
20
7.4654052
11
19.6256927
21
7.5040052
0
LINE
8
DEFAULT_255_2_778
10
19.6256927
20
7.5040052
11
19.6293927
21
7.5389052
0
LINE
8
DEFAULT_255_2_778
10
19.6293927
20
7.5389052
11
19.6338927
21
7.5738052
0
LINE
8
DEFAULT_255_2_778
10
19.6338927
20
7.5738052
11
19.6455927
21
7.6432052
0
LINE
8
DEFAULT_255_2_778
10
19.6455927
20
7.6432052
11
19.6587927
21
7.7035052
0
LINE
8
DEFAULT_255_2_778
10
19.6587927
20
7.7035052
11
19.6804927
21
7.7802052
0
LINE
8
DEFAULT_255_2_778
10
19.6804927
20
7.7802052
11
19.7129927
21
7.8672052
0
LINE
8
DEFAULT_255_2_778
10
19.7129927
20
7.8672052
11
19.7487927
21
7.9379052
0
LINE
8
DEFAULT_255_2_778
10
19.7487927
20
7.9379052
11
19.8106927
21
8.0202052
0
LINE
8
DEFAULT_255_2_778
10
19.8106927
20
8.0202052
11
19.8907927
21
8.0813052
0
LINE
8
DEFAULT_255_2_778
10
19.8907927
20
8.0813052
11
19.9961927
21
8.1115052
0
LINE
8
DEFAULT_255_2_778
10
19.9961927
20
8.1115052
11
20.1188927
21
8.0974052
0
LINE
8
DEFAULT_255_2_778
10
20.1188927
20
8.0974052
11
20.2048927
21
8.0498052
0
LINE
8
DEFAULT_255_2_778
10
20.2048927
20
8.0498052
11
20.2651927
21
7.9874052
0
LINE
8
DEFAULT_255_2_778
10
20.2651927
20
7.9874052
11
20.3083927
21
7.9210052
0
LINE
8
DEFAULT_255_2_778
10
20.3083927
20
7.9210052
11
20.3517927
21
7.8239052
0
LINE
8
DEFAULT_255_2_778
10
20.3517927
20
7.8239052
11
20.3712927
21
7.7662052
0
LINE
8
DEFAULT_255_2_778
10
20.3712927
20
7.7662052
11
20.3874927
21
7.7074052
0
LINE
8
DEFAULT_255_2_778
10
20.3874927
20
7.7074052
11
20.4014927
21
7.6434052
0
LINE
8
DEFAULT_255_2_778
10
20.4014927
20
7.6434052
11
20.4130927
21
7.5741052
0
LINE
8
DEFAULT_255_2_778
10
20.4130927
20
7.5741052
11
20.4175927
21
7.5392052
0
LINE
8
DEFAULT_255_2_778
10
20.4175927
20
7.5392052
11
20.4212927
21
7.5042052
0
LINE
8
DEFAULT_255_2_778
10
20.4212927
20
7.5042052
11
20.4247927
21
7.4656052
0
LINE
8
DEFAULT_255_2_778
10
20.4247927
20
7.4656052
11
20.4247927
21
7.1529052
0
LINE
8
DEFAULT_255_2_778
10
20.4247927
20
7.1529052
11
20.4212927
21
7.1137052
0
LINE
8
DEFAULT_255_2_778
10
20.4212927
20
7.1137052
11
20.4175927
21
7.0783052
0
LINE
8
DEFAULT_255_2_778
10
20.4175927
20
7.0783052
11
20.4130927
21
7.0428052
0
LINE
8
DEFAULT_255_2_778
10
20.4130927
20
7.0428052
11
20.4077927
21
7.0076052
0
LINE
8
DEFAULT_255_2_778
10
20.4077927
20
7.0076052
11
20.3945927
21
6.9375052
0
LINE
8
DEFAULT_255_2_778
10
20.3945927
20
6.9375052
11
20.3749927
21
6.8589052
0
LINE
8
DEFAULT_255_2_778
10
20.3749927
20
6.8589052
11
20.3427927
21
6.7629052
0
LINE
8
DEFAULT_255_2_778
10
20.3427927
20
6.7629052
11
20.3090927
21
6.6891052
0
LINE
8
DEFAULT_255_2_778
10
20.3090927
20
6.6891052
11
20.2567927
21
6.6089052
0
LINE
8
DEFAULT_255_2_778
10
20.2567927
20
6.6089052
11
20.1937927
21
6.5472052
0
LINE
8
DEFAULT_255_2_778
10
20.1937927
20
6.5472052
11
20.1056927
21
6.5031052
0
LINE
8
DEFAULT_255_2_778
10
20.1056927
20
6.5031052
11
19.9815927
21
6.4944052
0
LINE
8
DEFAULT_255_2_778
10
19.9815927
20
6.4944052
11
19.8897927
21
6.5237052
0
LINE
8
DEFAULT_255_2_778
10
19.8897927
20
6.5237052
11
19.8093927
21
6.5867052
0
LINE
8
DEFAULT_255_2_778
10
19.8093927
20
6.5867052
11
19.7577927
21
6.6542052
0
LINE
8
DEFAULT_255_2_778
10
19.7577927
20
6.6542052
11
19.7196927
21
6.7256052
0
LINE
8
DEFAULT_255_2_778
10
19.7196927
20
6.7256052
11
19.6971927
21
6.7814052
0
LINE
8
DEFAULT_255_2_778
10
16.3803865
20
8.3093604
11
17.0169865
21
8.3019604
0
LINE
8
DEFAULT_255_2_778
10
17.0169865
20
8.3019604
11
17.1955865
21
8.2622604
0
LINE
8
DEFAULT_255_2_778
10
17.1955865
20
8.2622604
11
17.3127865
21
8.2088604
0
LINE
8
DEFAULT_255_2_778
10
17.3127865
20
8.2088604
11
17.3961865
21
8.1490604
0
LINE
8
DEFAULT_255_2_778
10
17.3961865
20
8.1490604
11
17.4688865
21
8.0754604
0
LINE
8
DEFAULT_255_2_778
10
17.4688865
20
8.0754604
11
17.5307865
21
7.9913604
0
LINE
8
DEFAULT_255_2_778
10
17.5307865
20
7.9913604
11
17.5818865
21
7.8997604
0
LINE
8
DEFAULT_255_2_778
10
17.5818865
20
7.8997604
11
17.6164865
21
7.8179604
0
LINE
8
DEFAULT_255_2_778
10
17.6164865
20
7.8179604
11
17.6392865
21
7.7489604
0
LINE
8
DEFAULT_255_2_778
10
17.6392865
20
7.7489604
11
17.6572865
21
7.6788604
0
LINE
8
DEFAULT_255_2_778
10
17.6572865
20
7.6788604
11
17.6646865
21
7.6433604
0
LINE
8
DEFAULT_255_2_778
10
17.6646865
20
7.6433604
11
17.6710865
21
7.6076604
0
LINE
8
DEFAULT_255_2_778
10
17.6710865
20
7.6076604
11
17.6762865
21
7.5716604
0
LINE
8
DEFAULT_255_2_778
10
17.6762865
20
7.5716604
11
17.6807865
21
7.5357604
0
LINE
8
DEFAULT_255_2_778
10
17.6807865
20
7.5357604
11
17.6792865
21
7.0234604
0
LINE
8
DEFAULT_255_2_778
10
17.6792865
20
7.0234604
11
17.6741865
21
6.9872604
0
LINE
8
DEFAULT_255_2_778
10
17.6741865
20
6.9872604
11
17.6683865
21
6.9512604
0
LINE
8
DEFAULT_255_2_778
10
17.6683865
20
6.9512604
11
17.6614865
21
6.9155604
0
LINE
8
DEFAULT_255_2_778
10
17.6614865
20
6.9155604
11
17.6439865
21
6.8448604
0
LINE
8
DEFAULT_255_2_778
10
17.6439865
20
6.8448604
11
17.6215865
21
6.7752604
0
LINE
8
DEFAULT_255_2_778
10
17.6215865
20
6.7752604
11
17.5879865
21
6.6961604
0
LINE
8
DEFAULT_255_2_778
10
17.5879865
20
6.6961604
11
17.5397865
21
6.6099604
0
LINE
8
DEFAULT_255_2_778
10
17.5397865
20
6.6099604
11
17.4810865
21
6.5305604
0
LINE
8
DEFAULT_255_2_778
10
17.4810865
20
6.5305604
11
17.4122865
21
6.4612604
0
LINE
8
DEFAULT_255_2_778
10
17.4122865
20
6.4612604
11
17.3320865
21
6.4040604
0
LINE
8
DEFAULT_255_2_778
10
17.3320865
20
6.4040604
11
17.2140865
21
6.3514604
0
LINE
8
DEFAULT_255_2_778
10
17.2140865
20
6.3514604
11
17.0346865
21
6.3146604
0
LINE
8
DEFAULT_255_2_778
10
17.0346865
20
6.3146604
11
16.9306865
21
6.3096604
0
LINE
8
DEFAULT_255_2_778
10
16.9306865
20
6.3096604
11
16.3806865
21
6.3096604
0
LINE
8
DEFAULT_255_2_778
10
16.3806865
20
6.3096604
11
16.3803865
21
8.3093604
0
LINE
8
DEFAULT_255_2_778
10
16.9314865
20
6.5361604
11
17.0891865
21
6.5538604
0
LINE
8
DEFAULT_255_2_778
10
17.0891865
20
6.5538604
11
17.2093865
21
6.6011604
0
LINE
8
DEFAULT_255_2_778
10
17.2093865
20
6.6011604
11
17.2936865
21
6.6654604
0
LINE
8
DEFAULT_255_2_778
10
17.2936865
20
6.6654604
11
17.3497865
21
6.7337604
0
LINE
8
DEFAULT_255_2_778
10
17.3497865
20
6.7337604
11
17.3815865
21
6.7885604
0
LINE
8
DEFAULT_255_2_778
10
17.3815865
20
6.7885604
11
17.4085865
21
6.8514604
0
LINE
8
DEFAULT_255_2_778
10
17.4085865
20
6.8514604
11
17.4304865
21
6.9216604
0
LINE
8
DEFAULT_255_2_778
10
17.4304865
20
6.9216604
11
17.4434865
21
6.9755604
0
LINE
8
DEFAULT_255_2_778
10
17.4434865
20
6.9755604
11
17.4534865
21
7.0300604
0
LINE
8
DEFAULT_255_2_778
10
17.4534865
20
7.0300604
11
17.4611865
21
7.0848604
0
LINE
8
DEFAULT_255_2_778
10
17.4611865
20
7.0848604
11
17.4598865
21
7.5481604
0
LINE
8
DEFAULT_255_2_778
10
17.4598865
20
7.5481604
11
17.4497865
21
7.6047604
0
LINE
8
DEFAULT_255_2_778
10
17.4497865
20
7.6047604
11
17.4363865
21
7.6605604
0
LINE
8
DEFAULT_255_2_778
10
17.4363865
20
7.6605604
11
17.4188865
21
7.7156604
0
LINE
8
DEFAULT_255_2_778
10
17.4188865
20
7.7156604
11
17.3847865
21
7.7952604
0
LINE
8
DEFAULT_255_2_778
10
17.3847865
20
7.7952604
11
17.3347865
21
7.8778604
0
LINE
8
DEFAULT_255_2_778
10
17.3347865
20
7.8778604
11
17.2722865
21
7.9500604
0
LINE
8
DEFAULT_255_2_778
10
17.2722865
20
7.9500604
11
17.1963865
21
8.0077604
0
LINE
8
DEFAULT_255_2_778
10
17.1963865
20
8.0077604
11
17.0669865
21
8.0603604
0
LINE
8
DEFAULT_255_2_778
10
17.0669865
20
8.0603604
11
16.8872865
21
8.0820604
0
LINE
8
DEFAULT_255_2_778
10
16.8872865
20
8.0820604
11
16.5991865
21
8.0820604
0
LINE
8
DEFAULT_255_2_778
10
16.5991865
20
8.0820604
11
16.5991865
21
6.5355604
0
LINE
8
DEFAULT_255_2_778
10
16.5991865
20
6.5355604
11
16.9314865
21
6.5361604
0
ENDSEC
0
EOF