0
SECTION
2
HEADER
9
$MEASUREMENT
70
1
0
ENDSEC
0
SECTION
2
TABLES
0
TABLE
2
LTYPE
0
LTYPE
72
65
70
64
2
CONTINUOUS
3
______
73
0
40
0
0
ENDTAB
0
TABLE
2
LAYER
0
LAYER
2
DEFAULT_255_2_778
70
0
62
255
6
CONTINUOUS
0
LAYER
2
DEFAULT_255_1_234
70
0
62
255
6
CONTINUOUS
0
ENDTAB
0
ENDSEC
0
SECTION
2
ENTITIES
0
ARC
8
DEFAULT_255_2_778
10
3.5695693
20
51.9926534
40
0.7914215
50
129.1312896
51
180.1450914
0
ARC
8
DEFAULT_255_2_778
10
3.5698345
20
51.9931405
40
0.7912112
50
89.854026
51
129.1684493
0
ARC
8
DEFAULT_255_2_778
10
25.7988937
20
51.992827
40
0.7915249
50
39.4792447
51
90.147911
0
ARC
8
DEFAULT_255_2_778
10
25.7994935
20
51.9926737
40
0.7911595
50
359.8533901
51
39.5154338
0
ARC
8
DEFAULT_255_2_778
10
25.7991693
20
-1.9863989
40
0.7914836
50
309.4761667
51
0.1482649
0
ARC
8
DEFAULT_255_2_778
10
25.798898
20
-1.98683
40
0.7913235
50
269.8517415
51
309.511178
0
ARC
8
DEFAULT_255_2_778
10
3.569842
20
-1.9867718
40
0.7913815
50
219.1282118
51
270.1454017
0
ARC
8
DEFAULT_255_2_778
10
3.5695247
20
-1.9863893
40
0.7913769
50
179.8524075
51
219.1641908
0
LINE
8
DEFAULT_255_2_778
10
3.5718503
20
52.7843492
11
25.7968503
21
52.7843492
0
LINE
8
DEFAULT_255_2_778
10
26.5906503
20
51.9906492
11
26.5906503
21
-1.9843508
0
LINE
8
DEFAULT_255_2_778
10
25.7968503
20
-2.7781508
11
3.5718503
21
-2.7781508
0
LINE
8
DEFAULT_255_2_778
10
2.7781503
20
-1.9843508
11
2.7781503
21
51.9906492
0
LINE
8
DEFAULT_255_1_234
10
6.7071835
20
0.5189243
11
6.7336882
21
0.5189243
0
LINE
8
DEFAULT_255_1_234
10
6.7336882
20
0.5189243
11
6.7336882
21
0.392826
0
LINE
8
DEFAULT_255_1_234
10
6.7336882
20
0.392826
11
6.7063803
21
0.392826
0
LINE
8
DEFAULT_255_1_234
10
6.1594189
20
-0.2063417
11
6.1594189
21
-0.1493164
0
LINE
8
DEFAULT_255_1_234
10
6.3088093
20
-0.1685925
11
6.3088093
21
-0.2232083
0
ARC
8
DEFAULT_255_1_234
10
6.7116151
20
-0.1069545
40
0.4998079
50
90.6001036
51
104.514704
0
ARC
8
DEFAULT_255_1_234
10
6.6727667
20
0.0375131
40
0.3502176
50
104.2855254
51
133.862935
0
ARC
8
DEFAULT_255_1_234
10
6.6891424
20
0.026683
40
0.3693984
50
134.5302688
51
161.6210873
0
ARC
8
DEFAULT_255_1_234
10
6.8544613
20
-0.0316105
40
0.5446739
50
161.2849839
51
174.2076652
0
ARC
8
DEFAULT_255_1_234
10
6.995155
20
-0.0510213
40
0.6866274
50
173.7810589
51
174.9254635
0
ARC
8
DEFAULT_255_1_234
10
6.5401382
20
-0.1893161
40
0.3033419
50
95.8330959
51
138.9954921
0
ARC
8
DEFAULT_255_1_234
10
6.5624738
20
-0.3171625
40
0.4328947
50
89.8753725
51
97.0544009
0
ARC
8
DEFAULT_255_1_234
10
6.5672204
20
-0.2336252
40
0.3493769
50
71.6407809
51
90.6240094
0
ARC
8
DEFAULT_255_1_234
10
6.5822777
20
-0.1781918
40
0.2920396
50
39.6367836
51
71.019018
0
ARC
8
DEFAULT_255_1_234
10
6.518625
20
-0.2332002
40
0.3761538
50
10.658731
51
39.9043955
0
ARC
8
DEFAULT_255_1_234
10
6.3638333
20
-0.2668314
40
0.5345136
50
359.682601
51
11.132623
0
ARC
8
DEFAULT_255_1_234
10
6.3598464
20
-0.273899
40
0.5385081
50
347.2486944
51
0.4369317
0
ARC
8
DEFAULT_255_1_234
10
6.5265941
20
-0.3140193
40
0.3670249
50
318.1409698
51
347.6118597
0
ARC
8
DEFAULT_255_1_234
10
6.5590934
20
-0.3407298
40
0.3250007
50
275.6342139
51
317.8248465
0
ARC
8
DEFAULT_255_1_234
10
6.5370045
20
-0.2107781
40
0.4565864
50
269.8874292
51
276.7917694
0
ARC
8
DEFAULT_255_1_234
10
6.5315116
20
-0.3133257
40
0.3540676
50
246.9140195
51
270.7437342
0
ARC
8
DEFAULT_255_1_234
10
6.5321506
20
-0.3275616
40
0.3412781
50
218.1665114
51
245.878116
0
ARC
8
DEFAULT_255_1_234
10
6.6200967
20
-0.2539721
40
0.455911
50
191.4115814
51
218.6077802
0
ARC
8
DEFAULT_255_1_234
10
6.8139056
20
-0.2105167
40
0.6545001
50
179.6345085
51
191.7836486
0
ARC
8
DEFAULT_255_1_234
10
7.3721393
20
-0.1426303
40
1.2127388
50
171.4525249
51
180.3158839
0
ARC
8
DEFAULT_255_1_234
10
6.9326269
20
-0.0742392
40
0.7679464
50
157.9802646
51
171.6246686
0
ARC
8
DEFAULT_255_1_234
10
6.711229
20
0.0140421
40
0.5296008
50
141.4298019
51
157.854097
0
ARC
8
DEFAULT_255_1_234
10
6.647061
20
0.0594381
40
0.4511509
50
102.8715806
51
140.8564722
0
ARC
8
DEFAULT_255_1_234
10
6.7118226
20
-0.1845448
40
0.7034845
50
90.3778349
51
103.5869322
0
ARC
8
DEFAULT_255_1_234
10
6.5380002
20
-0.245027
40
0.2370698
50
89.8751008
51
126.2071704
0
ARC
8
DEFAULT_255_1_234
10
6.5425792
20
-0.2604697
40
0.2522934
50
124.9745049
51
144.895901
0
ARC
8
DEFAULT_255_1_234
10
6.5249982
20
-0.246144
40
0.2296779
50
145.2974905
51
160.2660252
0
ARC
8
DEFAULT_255_1_234
10
6.8322521
20
-0.2263929
40
0.5234525
50
179.6514266
51
190.2855912
0
ARC
8
DEFAULT_255_1_234
10
6.6628658
20
-0.2583214
40
0.3510893
50
190.0945431
51
207.5098196
0
ARC
8
DEFAULT_255_1_234
10
6.6062928
20
-0.2852377
40
0.288489
50
207.9583163
51
216.3251085
0
ARC
8
DEFAULT_255_1_234
10
6.5723036
20
-0.3131895
40
0.2445587
50
215.7661442
51
232.5456785
0
ARC
8
DEFAULT_255_1_234
10
6.5340019
20
-0.3618518
40
0.1826382
50
232.8005391
51
270.6605633
0
ARC
8
DEFAULT_255_1_234
10
6.538572
20
-0.3254388
40
0.2190529
50
269.35537
51
288.4744281
0
ARC
8
DEFAULT_255_1_234
10
6.5478617
20
-0.3603882
40
0.1829749
50
289.1833337
51
322.9683818
0
ARC
8
DEFAULT_255_1_234
10
6.4867139
20
-0.3121609
40
0.2608399
50
322.6007884
51
346.5182367
0
ARC
8
DEFAULT_255_1_234
10
6.3709735
20
-0.2826384
40
0.3802777
50
346.2582162
51
358.7741648
0
ARC
8
DEFAULT_255_1_234
10
6.2691404
20
-0.2771035
40
0.4822176
50
358.3755224
51
0.0098023
0
ARC
8
DEFAULT_255_1_234
10
6.3447591
20
-0.2743343
40
0.4066078
50
359.6214041
51
11.2839074
0
ARC
8
DEFAULT_255_1_234
10
6.4724738
20
-0.2476934
40
0.2761514
50
11.0482309
51
31.8146458
0
ARC
8
DEFAULT_255_1_234
10
6.5033781
20
-0.2309416
40
0.2410679
50
32.3035391
51
38.082671
0
ARC
8
DEFAULT_255_1_234
10
6.5454441
20
-0.1928338
40
0.1844966
50
36.825067
51
85.7415724
0
ARC
8
DEFAULT_255_1_234
10
6.5387274
20
-0.2428699
40
0.2349122
50
85.0140713
51
90.0513278
0
LINE
8
DEFAULT_255_1_234
10
7.7737983
20
0.0153343
11
7.7737983
21
-0.110764
0
LINE
8
DEFAULT_255_1_234
10
7.7737983
20
-0.110764
11
7.2669957
21
-0.110764
0
LINE
8
DEFAULT_255_1_234
10
7.2669957
20
-0.110764
11
7.2669957
21
-0.5252017
0
LINE
8
DEFAULT_255_1_234
10
7.2669957
20
-0.5252017
11
7.8557221
21
-0.5252017
0
LINE
8
DEFAULT_255_1_234
10
7.8557221
20
-0.5252017
11
7.8557221
21
-0.6513
0
LINE
8
DEFAULT_255_1_234
10
7.8557221
20
-0.6513
11
7.1127863
21
-0.6513
0
LINE
8
DEFAULT_255_1_234
10
7.1127863
20
-0.6513
11
7.1127863
21
0.5181211
0
LINE
8
DEFAULT_255_1_234
10
7.1127863
20
0.5181211
11
7.8476903
21
0.5181211
0
LINE
8
DEFAULT_255_1_234
10
7.8476903
20
0.5181211
11
7.8476903
21
0.3912196
0
LINE
8
DEFAULT_255_1_234
10
7.8476903
20
0.3912196
11
7.2669957
21
0.3912196
0
LINE
8
DEFAULT_255_1_234
10
7.2669957
20
0.3912196
11
7.2669957
21
0.0153343
0
LINE
8
DEFAULT_255_1_234
10
7.2669957
20
0.0153343
11
7.7737983
21
0.0153343
0
LINE
8
DEFAULT_255_1_234
10
8.8235465
20
0.1799849
11
8.668534
21
0.1799849
0
LINE
8
DEFAULT_255_1_234
10
7.9761981
20
-0.3123606
11
8.1312107
21
-0.3123606
0
ARC
8
DEFAULT_255_1_234
10
8.7344153
20
1.0746768
40
1.252368
50
248.9199003
51
254.1439814
0
ARC
8
DEFAULT_255_1_234
10
8.5663648
20
0.6420234
40
0.788226
50
241.633709
51
249.0064503
0
ARC
8
DEFAULT_255_1_234
10
8.4135042
20
0.3619317
40
0.4691427
50
230.498225
51
241.8087113
0
ARC
8
DEFAULT_255_1_234
10
8.3350616
20
0.2619906
40
0.3421437
50
227.4064532
51
229.9881192
0
ARC
8
DEFAULT_255_1_234
10
8.2863137
20
0.2144088
40
0.2741476
50
200.6781896
51
228.1763934
0
ARC
8
DEFAULT_255_1_234
10
8.2935447
20
0.2129077
40
0.2804109
50
179.5061581
51
199.8694617
0
ARC
8
DEFAULT_255_1_234
10
8.2926199
20
0.220321
40
0.2795204
50
132.4834203
51
181.0242172
0
ARC
8
DEFAULT_255_1_234
10
8.3521782
20
0.1640704
40
0.3612768
50
129.2532479
51
133.4242687
0
ARC
8
DEFAULT_255_1_234
10
8.3668231
20
0.1420965
40
0.3875675
50
101.98776
51
128.8742646
0
ARC
8
DEFAULT_255_1_234
10
8.4066842
20
-0.0300259
40
0.5642249
50
89.5906553
51
102.3169264
0
ARC
8
DEFAULT_255_1_234
10
8.4137334
20
0.0018148
40
0.5323783
50
77.2360837
51
90.3248275
0
ARC
8
DEFAULT_255_1_234
10
8.4344413
20
0.09854
40
0.4334697
50
63.837784
51
77.0809408
0
ARC
8
DEFAULT_255_1_234
10
8.4622175
20
0.1502911
40
0.3747796
50
45.9864267
51
64.1607727
0
ARC
8
DEFAULT_255_1_234
10
8.4883056
20
0.1800866
40
0.3352302
50
32.2747395
51
45.6547121
0
ARC
8
DEFAULT_255_1_234
10
8.4949497
20
0.181988
40
0.328603
50
359.6507365
51
32.6130309
0
ARC
8
DEFAULT_255_1_234
10
8.4006592
20
0.182466
40
0.2678863
50
359.469343
51
14.9832209
0
ARC
8
DEFAULT_255_1_234
10
8.4711654
20
0.2013539
40
0.1948938
50
14.9781179
51
48.2004265
0
ARC
8
DEFAULT_255_1_234
10
8.4547299
20
0.1806983
40
0.2212521
50
48.5927837
51
74.1241538
0
ARC
8
DEFAULT_255_1_234
10
8.4213788
20
0.0706248
40
0.3362561
50
73.7888341
51
86.6652678
0
ARC
8
DEFAULT_255_1_234
10
8.4111354
20
-0.0501119
40
0.4573953
50
86.2640471
51
90.0526343
0
ARC
8
DEFAULT_255_1_234
10
8.4083066
20
-0.0105808
40
0.4178709
50
89.6697524
51
99.2309573
0
ARC
8
DEFAULT_255_1_234
10
8.3840517
20
0.1338964
40
0.2713749
50
99.069534
51
113.7658566
0
ARC
8
DEFAULT_255_1_234
10
8.3566708
20
0.1984677
40
0.2012469
50
114.0401004
51
127.9850673
0
ARC
8
DEFAULT_255_1_234
10
8.3326272
20
0.228073
40
0.1631167
50
127.7287463
51
176.7105154
0
ARC
8
DEFAULT_255_1_234
10
8.400499
20
0.2179693
40
0.2315392
50
175.1779447
51
180.0581938
0
ARC
8
DEFAULT_255_1_234
10
8.3161836
20
0.2167428
40
0.1472271
50
179.6142195
51
228.1246017
0
ARC
8
DEFAULT_255_1_234
10
8.3603505
20
0.2576308
40
0.2072299
50
226.5779593
51
230.8800004
0
ARC
8
DEFAULT_255_1_234
10
8.4074584
20
0.3201636
40
0.2854818
50
231.4635071
51
241.9260842
0
ARC
8
DEFAULT_255_1_234
10
8.5271762
20
0.54048
40
0.53622
50
241.7178533
51
248.3259551
0
ARC
8
DEFAULT_255_1_234
10
8.6657134
20
0.8837064
40
0.9063478
50
248.2007737
51
252.4528373
0
ARC
8
DEFAULT_255_1_234
10
8.7860858
20
1.2558441
40
1.2974635
50
252.3391078
51
254.3469452
0
ARC
8
DEFAULT_255_1_234
10
8.0318561
20
-1.4418852
40
1.5037162
50
71.0197183
51
74.4087047
0
ARC
8
DEFAULT_255_1_234
10
8.2013246
20
-0.9526889
40
0.9859993
50
66.1847285
51
71.086374
0
ARC
8
DEFAULT_255_1_234
10
8.3569559
20
-0.60228
40
0.6025855
50
59.3536294
51
66.2691831
0
ARC
8
DEFAULT_255_1_234
10
8.4458211
20
-0.4519391
40
0.4279449
50
49.1020879
51
59.3293958
0
ARC
8
DEFAULT_255_1_234
10
8.5276951
20
-0.3586166
40
0.3038015
50
32.7919921
51
49.2505539
0
ARC
8
DEFAULT_255_1_234
10
8.5598041
20
-0.3357809
40
0.264448
50
31.1181161
51
32.4005348
0
ARC
8
DEFAULT_255_1_234
10
8.5509579
20
-0.3393221
40
0.2738556
50
8.1116974
51
30.7958831
0
ARC
8
DEFAULT_255_1_234
10
8.4699247
20
-0.3531247
40
0.3560327
50
359.8389159
51
8.4706516
0
ARC
8
DEFAULT_255_1_234
10
8.5325038
20
-0.3579863
40
0.2934776
50
337.4731098
51
0.7537279
0
ARC
8
DEFAULT_255_1_234
10
8.5503733
20
-0.3599613
40
0.2762607
50
307.5917067
51
336.4315538
0
ARC
8
DEFAULT_255_1_234
10
8.5043561
20
-0.3086898
40
0.3449979
50
307.6551545
51
308.4529766
0
ARC
8
DEFAULT_255_1_234
10
8.481328
20
-0.273175
40
0.3871988
50
284.3734338
51
307.1424381
0
ARC
8
DEFAULT_255_1_234
10
8.431811
20
-0.0910068
40
0.5759636
50
272.4382747
51
284.646547
0
ARC
8
DEFAULT_255_1_234
10
8.4191319
20
0.0889893
40
0.7563528
50
269.9708387
51
272.8178037
0
ARC
8
DEFAULT_255_1_234
10
8.4148358
20
-0.1148284
40
0.5525489
50
248.2707594
51
270.4055579
0
ARC
8
DEFAULT_255_1_234
10
8.40941
20
-0.1338808
40
0.5328452
50
246.1383403
51
248.0542782
0
ARC
8
DEFAULT_255_1_234
10
8.3675478
20
-0.2218157
40
0.4355005
50
233.1670131
51
246.4950969
0
ARC
8
DEFAULT_255_1_234
10
8.3121383
20
-0.2966188
40
0.3424126
50
215.3403242
51
233.0843104
0
ARC
8
DEFAULT_255_1_234
10
8.2848815
20
-0.3164451
40
0.3087104
50
179.2419209
51
215.2648451
0
ARC
8
DEFAULT_255_1_234
10
8.3616409
20
-0.3150334
40
0.2304457
50
179.335461
51
199.1045811
0
ARC
8
DEFAULT_255_1_234
10
8.3284085
20
-0.3237234
40
0.1962176
50
199.8828939
51
232.7063202
0
ARC
8
DEFAULT_255_1_234
10
8.3756353
20
-0.2643212
40
0.2720938
50
232.3738199
51
255.5136649
0
ARC
8
DEFAULT_255_1_234
10
8.409722
20
-0.1399165
40
0.4010747
50
255.2446292
51
267.5320849
0
ARC
8
DEFAULT_255_1_234
10
8.4184843
20
-0.0166298
40
0.5246356
50
267.1557994
51
270.0286766
0
ARC
8
DEFAULT_255_1_234
10
8.4212616
20
-0.061005
40
0.4802668
50
269.7000017
51
278.1660162
0
ARC
8
DEFAULT_255_1_234
10
8.446862
20
-0.2340485
40
0.3053425
50
278.0231263
51
290.625471
0
ARC
8
DEFAULT_255_1_234
10
8.4816308
20
-0.3267975
40
0.206291
50
290.6619762
51
307.0370976
0
ARC
8
DEFAULT_255_1_234
10
8.5116697
20
-0.3636496
40
0.1587906
50
306.3943566
51
355.3030547
0
ARC
8
DEFAULT_255_1_234
10
8.4604628
20
-0.3559887
40
0.2104809
50
354.3660432
51
0.0698737
0
ARC
8
DEFAULT_255_1_234
10
8.4746973
20
-0.3537383
40
0.1962563
50
359.417946
51
16.1971788
0
ARC
8
DEFAULT_255_1_234
10
8.5202284
20
-0.3412582
40
0.149053
50
16.4723299
51
52.6262157
0
ARC
8
DEFAULT_255_1_234
10
8.4381338
20
-0.4496567
40
0.2850296
50
52.7386432
51
62.4979148
0
ARC
8
DEFAULT_255_1_234
10
8.2996415
20
-0.7102717
40
0.5801521
50
62.2515216
51
68.1220564
0
ARC
8
DEFAULT_255_1_234
10
8.1276325
20
-1.1330128
40
1.0365451
50
68.0062803
51
71.8053402
0
ARC
8
DEFAULT_255_1_234
10
7.9480697
20
-1.6715242
40
1.6042013
50
71.7183119
51
73.9258742
0
LINE
8
DEFAULT_255_1_234
10
9.7399679
20
0.5181211
11
9.7399679
21
0.434591
0
LINE
8
DEFAULT_255_1_234
10
9.7399679
20
0.434591
11
9.2556541
21
-0.6513
0
LINE
8
DEFAULT_255_1_234
10
9.2556541
20
-0.6513
11
9.0998383
21
-0.6513
0
LINE
8
DEFAULT_255_1_234
10
9.0998383
20
-0.6513
11
9.5825458
21
0.3960387
0
LINE
8
DEFAULT_255_1_234
10
9.5825458
20
0.3960387
11
8.9496448
21
0.3960387
0
LINE
8
DEFAULT_255_1_234
10
8.9496448
20
0.3960387
11
8.9496448
21
0.5181211
0
LINE
8
DEFAULT_255_1_234
10
8.9496448
20
0.5181211
11
9.7399679
21
0.5181211
0
LINE
8
DEFAULT_255_1_234
10
10.3969641
20
0.5237433
11
10.3969641
21
-0.6513
0
LINE
8
DEFAULT_255_1_234
10
10.3969641
20
-0.6513
11
10.2475737
21
-0.6513
0
LINE
8
DEFAULT_255_1_234
10
10.2475737
20
-0.6513
11
10.2475737
21
0.3390133
0
LINE
8
DEFAULT_255_1_234
10
10.2475737
20
0.3390133
11
9.9479899
21
0.2289785
0
LINE
8
DEFAULT_255_1_234
10
9.9479899
20
0.2289785
11
9.9479899
21
0.3639117
0
LINE
8
DEFAULT_255_1_234
10
9.9479899
20
0.3639117
11
10.373672
21
0.5237433
0
LINE
8
DEFAULT_255_1_234
10
10.373672
20
0.5237433
11
10.3969641
21
0.5237433
0
LINE
8
DEFAULT_255_1_234
10
11.0194238
20
-0.0955037
11
10.9005541
21
-0.0649831
0
LINE
8
DEFAULT_255_1_234
10
10.9005541
20
-0.0649831
11
10.9599889
21
0.5181211
0
LINE
8
DEFAULT_255_1_234
10
10.9599889
20
0.5181211
11
11.5591566
21
0.5181211
0
LINE
8
DEFAULT_255_1_234
10
11.5591566
20
0.5181211
11
11.5591566
21
0.3807784
0
LINE
8
DEFAULT_255_1_234
10
11.5591566
20
0.3807784
11
11.0860872
21
0.3807784
0
LINE
8
DEFAULT_255_1_234
10
11.0860872
20
0.3807784
11
11.0507476
21
0.0619184
0
LINE
8
DEFAULT_255_1_234
10
10.858789
20
-0.3436844
11
10.9993444
21
-0.3436844
0
LINE
8
DEFAULT_255_1_234
10
11.0587793
20
-0.0633768
11
11.0194238
21
-0.0955037
0
ARC
8
DEFAULT_255_1_234
10
11.236226
20
-0.256077
40
0.3681349
50
93.7182161
51
120.2538958
0
ARC
8
DEFAULT_255_1_234
10
11.2456523
20
-0.3368606
40
0.449379
50
89.9660152
51
94.2496022
0
ARC
8
DEFAULT_255_1_234
10
11.2497256
20
-0.2779451
40
0.390482
50
73.8043271
51
90.5585896
0
ARC
8
DEFAULT_255_1_234
10
11.2732153
20
-0.1921398
40
0.3015334
50
41.3071453
51
73.5430202
0
ARC
8
DEFAULT_255_1_234
10
11.2315981
20
-0.2279676
40
0.3564457
50
13.5075983
51
41.2174222
0
ARC
8
DEFAULT_255_1_234
10
11.0674185
20
-0.2709514
40
0.5261351
50
1.1331335
51
13.8829381
0
ARC
8
DEFAULT_255_1_234
10
10.9262553
20
-0.2785335
40
0.6674378
50
359.9919444
51
1.544251
0
ARC
8
DEFAULT_255_1_234
10
11.053938
20
-0.282672
40
0.5397702
50
347.8572367
51
0.4293338
0
ARC
8
DEFAULT_255_1_234
10
11.2289697
20
-0.3223264
40
0.3603188
50
323.673004
51
348.1672506
0
ARC
8
DEFAULT_255_1_234
10
11.2584206
20
-0.3402832
40
0.3259678
50
316.8171152
51
323.1492751
0
ARC
8
DEFAULT_255_1_234
10
11.2645395
20
-0.343954
40
0.3189975
50
281.8396411
51
316.5457803
0
ARC
8
DEFAULT_255_1_234
10
11.2269658
20
-0.1884238
40
0.4789527
50
269.5770101
51
282.4214771
0
ARC
8
DEFAULT_255_1_234
10
11.219847
20
-0.2097875
40
0.45759
50
256.2427136
51
270.4486331
0
ARC
8
DEFAULT_255_1_234
10
11.1899372
20
-0.3297771
40
0.3339303
50
228.9023911
51
256.3314342
0
ARC
8
DEFAULT_255_1_234
10
11.1825605
20
-0.3414254
40
0.32031
50
193.753695
51
228.5271154
0
ARC
8
DEFAULT_255_1_234
10
11.3063559
20
-0.30512
40
0.4492253
50
184.924711
51
194.497588
0
ARC
8
DEFAULT_255_1_234
10
11.3256126
20
-0.3015409
40
0.3289787
50
187.3600538
51
198.6732863
0
ARC
8
DEFAULT_255_1_234
10
11.2206419
20
-0.3379326
40
0.217884
50
198.4451669
51
217.794479
0
ARC
8
DEFAULT_255_1_234
10
11.1910595
20
-0.3588915
40
0.1816698
50
218.2887171
51
228.5612368
0
ARC
8
DEFAULT_255_1_234
10
11.2008382
20
-0.3457037
40
0.1980329
50
228.9654866
51
258.1234728
0
ARC
8
DEFAULT_255_1_234
10
11.2214092
20
-0.2576167
40
0.2884748
50
257.7258293
51
270.401361
0
ARC
8
DEFAULT_255_1_234
10
11.2258978
20
-0.3021179
40
0.2439788
50
269.4204404
51
286.4209037
0
ARC
8
DEFAULT_255_1_234
10
11.2407465
20
-0.3560343
40
0.1880666
50
286.7251356
51
320.600362
0
ARC
8
DEFAULT_255_1_234
10
11.2024291
20
-0.3249405
40
0.2374121
50
320.6712579
51
344.5441685
0
ARC
8
DEFAULT_255_1_234
10
11.0867617
20
-0.2909955
40
0.3579479
50
344.2412205
51
356.7357071
0
ARC
8
DEFAULT_255_1_234
10
10.9618765
20
-0.2806556
40
0.4832297
50
356.3548756
51
0.0500261
0
ARC
8
DEFAULT_255_1_234
10
11.0955274
20
-0.277535
40
0.3495889
50
359.5576869
51
12.953486
0
ARC
8
DEFAULT_255_1_234
10
11.2010172
20
-0.2519566
40
0.2410532
50
12.6490276
51
41.6081334
0
ARC
8
DEFAULT_255_1_234
10
11.2240543
20
-0.2323679
40
0.2108218
50
41.7850273
51
85.9892764
0
ARC
8
DEFAULT_255_1_234
10
11.2117279
20
-0.3136538
40
0.2928454
50
84.6957577
51
90.0676183
0
ARC
8
DEFAULT_255_1_234
10
11.2093763
20
-0.3805284
40
0.3597255
50
89.6804936
51
99.1614436
0
ARC
8
DEFAULT_255_1_234
10
11.1888395
20
-0.2577869
40
0.235281
50
98.9830931
51
113.8908934
0
ARC
8
DEFAULT_255_1_234
10
11.1658805
20
-0.2036413
40
0.176479
50
114.1950727
51
127.3641004
0
LINE
8
DEFAULT_255_1_234
10
11.9719879
20
-0.1155831
11
11.9719879
21
0.0056962
0
LINE
8
DEFAULT_255_1_234
10
11.9719879
20
0.0056962
11
12.0836291
21
0.0056962
0
LINE
8
DEFAULT_255_1_234
10
11.8932769
20
0.2113087
11
11.7446897
21
0.2113087
0
LINE
8
DEFAULT_255_1_234
10
11.7342485
20
-0.3428812
11
11.8836388
21
-0.3428812
0
LINE
8
DEFAULT_255_1_234
10
12.0836291
20
-0.1155831
11
11.9719879
21
-0.1155831
0
ARC
8
DEFAULT_255_1_234
10
12.0807157
20
0.3449713
40
0.3392876
50
270.4919872
51
281.8951556
0
ARC
8
DEFAULT_255_1_234
10
12.1048419
20
0.2347702
40
0.2264817
50
281.6691735
51
301.2943132
0
ARC
8
DEFAULT_255_1_234
10
12.1218629
20
0.2036304
40
0.1910381
50
301.7833094
51
311.7545298
0
ARC
8
DEFAULT_255_1_234
10
12.1310205
20
0.1934748
40
0.1773635
50
311.7323931
51
354.2802411
0
ARC
8
DEFAULT_255_1_234
10
12.058383
20
0.2059722
40
0.2509385
50
353.0937916
51
0.1181479
0
ARC
8
DEFAULT_255_1_234
10
12.0122615
20
0.2107386
40
0.2970898
50
359.1805295
51
15.0453146
0
ARC
8
DEFAULT_255_1_234
10
12.1468452
20
0.2499992
40
0.1569564
50
13.9577229
51
77.6713066
0
ARC
8
DEFAULT_255_1_234
10
12.1081981
20
0.1114949
40
0.3006298
50
76.1116566
51
90.7026153
0
ARC
8
DEFAULT_255_1_234
10
12.102282
20
0.1388545
40
0.2732568
50
89.5324876
51
103.531937
0
ARC
8
DEFAULT_255_1_234
10
12.0822264
20
0.2187884
40
0.1908508
50
103.2931773
51
133.5619022
0
ARC
8
DEFAULT_255_1_234
10
12.0777752
20
0.2247375
40
0.1834746
50
133.8349307
51
173.5344437
0
ARC
8
DEFAULT_255_1_234
10
12.1500795
20
0.2119213
40
0.2568033
50
172.5096846
51
180.1366907
0
ARC
8
DEFAULT_255_1_234
10
12.0549689
20
0.2153622
40
0.3103056
50
155.3484492
51
180.7484736
0
ARC
8
DEFAULT_255_1_234
10
12.0500778
20
0.2124846
40
0.3070957
50
131.5744599
51
154.4798489
0
ARC
8
DEFAULT_255_1_234
10
12.0813926
20
0.180831
40
0.3515643
50
96.9875458
51
131.9690667
0
ARC
8
DEFAULT_255_1_234
10
12.1033405
20
0.0562636
40
0.4779224
50
89.8596053
51
97.7825159
0
ARC
8
DEFAULT_255_1_234
10
12.1081469
20
0.0300616
40
0.5041361
50
78.3655447
51
90.4131539
0
ARC
8
DEFAULT_255_1_234
10
12.1439387
20
0.1959887
40
0.3344039
50
56.6229102
51
78.638727
0
ARC
8
DEFAULT_255_1_234
10
12.165433
20
0.2335805
40
0.2912001
50
47.0253525
51
56.0854072
0
ARC
8
DEFAULT_255_1_234
10
12.167411
20
0.2375223
40
0.2869704
50
10.9208013
51
46.7778124
0
ARC
8
DEFAULT_255_1_234
10
12.0310177
20
0.2059857
40
0.426899
50
359.6364486
51
11.6087304
0
ARC
8
DEFAULT_255_1_234
10
12.2145021
20
0.2044752
40
0.243409
50
332.3549906
51
359.7179418
0
ARC
8
DEFAULT_255_1_234
10
12.1494622
20
0.2353142
40
0.3153459
50
325.2333722
51
332.8745602
0
ARC
8
DEFAULT_255_1_234
10
12.1647246
20
0.2246828
40
0.2967456
50
292.9802137
51
325.2392345
0
ARC
8
DEFAULT_255_1_234
10
12.137262
20
0.2780863
40
0.3566604
50
292.5402179
51
293.6924929
0
ARC
8
DEFAULT_255_1_234
10
12.1765216
20
-0.3673909
40
0.3307468
50
57.6435486
51
72.8625112
0
ARC
8
DEFAULT_255_1_234
10
12.2119715
20
-0.3099451
40
0.2632492
50
36.7248896
51
57.4697979
0
ARC
8
DEFAULT_255_1_234
10
12.2108348
20
-0.308678
40
0.2634081
50
8.0545065
51
36.356114
0
ARC
8
DEFAULT_255_1_234
10
12.1245533
20
-0.3241826
40
0.3510261
50
359.8320645
51
8.5869982
0
ARC
8
DEFAULT_255_1_234
10
12.087031
20
-0.3289899
40
0.3885653
50
343.9829931
51
0.5571613
0
ARC
8
DEFAULT_255_1_234
10
12.1756507
20
-0.3532562
40
0.2966924
50
311.6359546
51
343.7651759
0
ARC
8
DEFAULT_255_1_234
10
12.1378076
20
-0.3105898
40
0.3537231
50
279.7829875
51
311.6255694
0
ARC
8
DEFAULT_255_1_234
10
12.1076852
20
-0.166872
40
0.5004971
50
269.7286406
51
280.3856417
0
ARC
8
DEFAULT_255_1_234
10
12.1014925
20
-0.1710004
40
0.4963778
50
256.6828919
51
270.4412052
0
ARC
8
DEFAULT_255_1_234
10
12.0676221
20
-0.3094606
40
0.3538406
50
229.4223008
51
256.8556159
0
ARC
8
DEFAULT_255_1_234
10
12.0261613
20
-0.3561264
40
0.2914296
50
181.818294
51
229.6455059
0
ARC
8
DEFAULT_255_1_234
10
12.130157
20
-0.3430504
40
0.3959084
50
179.9755256
51
183.2323064
0
ARC
8
DEFAULT_255_1_234
10
12.1129315
20
-0.3450963
40
0.2293034
50
179.4465117
51
196.2869258
0
ARC
8
DEFAULT_255_1_234
10
12.0641723
20
-0.3584349
40
0.1787621
50
196.5661473
51
227.705904
0
ARC
8
DEFAULT_255_1_234
10
12.0805818
20
-0.3400845
40
0.2033784
50
227.7652068
51
257.8762805
0
ARC
8
DEFAULT_255_1_234
10
12.1030788
20
-0.2457844
40
0.3003081
50
257.4584385
51
270.426602
0
ARC
8
DEFAULT_255_1_234
10
12.1076355
20
-0.2168004
40
0.329292
50
269.5962073
51
280.8789248
0
ARC
8
DEFAULT_255_1_234
10
12.1305883
20
-0.3314315
40
0.2123908
50
280.6346389
51
299.8595945
0
ARC
8
DEFAULT_255_1_234
10
12.149679
20
-0.3676788
40
0.171457
50
300.3576302
51
314.5517981
0
ARC
8
DEFAULT_255_1_234
10
12.141385
20
-0.3616081
40
0.1816095
50
315.0728369
51
345.0431014
0
ARC
8
DEFAULT_255_1_234
10
12.0490665
20
-0.3347159
40
0.2777492
50
344.5986631
51
357.9269593
0
ARC
8
DEFAULT_255_1_234
10
11.9594991
20
-0.3285724
40
0.3674917
50
357.4748886
51
0.0231117
0
ARC
8
DEFAULT_255_1_234
10
12.06181
20
-0.3261321
40
0.2651907
50
359.5047933
51
13.4239635
0
ARC
8
DEFAULT_255_1_234
10
12.1484744
20
-0.3039522
40
0.1757509
50
12.9498199
51
48.7551375
0
ARC
8
DEFAULT_255_1_234
10
12.1302478
20
-0.32886
40
0.2065134
50
49.5088623
51
72.1836453
0
ARC
8
DEFAULT_255_1_234
10
12.094463
20
-0.4350709
40
0.3185836
50
71.9010081
51
84.3554254
0
ARC
8
DEFAULT_255_1_234
10
12.0783262
20
-0.5711674
40
0.4556151
50
84.0193428
51
89.333121
0
LINE
8
DEFAULT_255_1_234
10
13.0040663
20
-0.0938974
11
13.0040663
21
-0.2151766
0
LINE
8
DEFAULT_255_1_234
10
13.0040663
20
-0.2151766
11
12.6121175
21
-0.2151766
0
LINE
8
DEFAULT_255_1_234
10
12.6121175
20
-0.2151766
11
12.6121175
21
-0.0938974
0
LINE
8
DEFAULT_255_1_234
10
12.6121175
20
-0.0938974
11
13.0040663
21
-0.0938974
0
LINE
8
DEFAULT_255_1_234
10
13.7606561
20
0.5181211
11
13.7606561
21
-0.258548
0
LINE
8
DEFAULT_255_1_234
10
13.7606561
20
-0.258548
11
13.9228972
21
-0.258548
0
LINE
8
DEFAULT_255_1_234
10
13.9228972
20
-0.258548
11
13.9228972
21
-0.3798272
0
LINE
8
DEFAULT_255_1_234
10
13.9228972
20
-0.3798272
11
13.7606561
21
-0.3798272
0
LINE
8
DEFAULT_255_1_234
10
13.7606561
20
-0.3798272
11
13.7606561
21
-0.6513
0
LINE
8
DEFAULT_255_1_234
10
13.7606561
20
-0.6513
11
13.6112657
21
-0.6513
0
LINE
8
DEFAULT_255_1_234
10
13.6112657
20
-0.6513
11
13.6112657
21
-0.3798272
0
LINE
8
DEFAULT_255_1_234
10
13.6112657
20
-0.3798272
11
13.0787615
21
-0.3798272
0
LINE
8
DEFAULT_255_1_234
10
13.0787615
20
-0.3798272
11
13.0787615
21
-0.2922813
0
LINE
8
DEFAULT_255_1_234
10
13.0787615
20
-0.2922813
11
13.6024308
21
0.5181211
0
LINE
8
DEFAULT_255_1_234
10
13.6024308
20
0.5181211
11
13.7606561
21
0.5181211
0
LINE
8
DEFAULT_255_1_234
10
13.5935959
20
0.2827912
11
13.247428
21
-0.258548
0
LINE
8
DEFAULT_255_1_234
10
13.247428
20
-0.258548
11
13.6112657
21
-0.258548
0
LINE
8
DEFAULT_255_1_234
10
13.6112657
20
-0.258548
11
13.6112657
21
0.3149181
0
LINE
8
DEFAULT_255_1_234
10
13.6112657
20
0.3149181
11
13.5935959
21
0.2827912
0
LINE
8
DEFAULT_255_1_234
10
14.5011823
20
-0.6513
11
14.0955795
21
-0.6513
0
LINE
8
DEFAULT_255_1_234
10
14.0955795
20
-0.6513
11
14.0955795
21
0.5181211
0
LINE
8
DEFAULT_255_1_234
10
14.0955795
20
0.5181211
11
14.4778903
21
0.5181211
0
LINE
8
DEFAULT_255_1_234
10
14.5068045
20
-0.1043386
11
14.2497889
21
-0.1043386
0
LINE
8
DEFAULT_255_1_234
10
14.2497889
20
-0.1043386
11
14.2497889
21
-0.5252017
0
LINE
8
DEFAULT_255_1_234
10
14.2497889
20
-0.5252017
11
14.504395
21
-0.5252017
0
LINE
8
DEFAULT_255_1_234
10
14.2497889
20
0.3912196
11
14.2497889
21
0.0193501
0
LINE
8
DEFAULT_255_1_234
10
14.2497889
20
0.0193501
11
14.4827093
21
0.0193501
0
LINE
8
DEFAULT_255_1_234
10
14.4778903
20
0.3912196
11
14.2497889
21
0.3912196
0
ARC
8
DEFAULT_255_1_234
10
14.4816612
20
-0.2186099
40
0.7367406
50
82.1257326
51
90.2932599
0
ARC
8
DEFAULT_255_1_234
10
14.5205566
20
0.0532013
40
0.4621653
50
69.9044149
51
82.2857423
0
ARC
8
DEFAULT_255_1_234
10
14.5776244
20
0.2074637
40
0.2976871
50
51.1838526
51
70.0181538
0
ARC
8
DEFAULT_255_1_234
10
14.603121
20
0.244524
40
0.2528517
50
12.1017251
51
50.4214761
0
ARC
8
DEFAULT_255_1_234
10
14.4647084
20
0.2097676
40
0.3955061
50
359.5251267
51
12.8211707
0
ARC
8
DEFAULT_255_1_234
10
14.6227011
20
0.2028344
40
0.2375281
50
323.4908128
51
0.8817314
0
ARC
8
DEFAULT_255_1_234
10
14.5808698
20
0.235155
40
0.2903817
50
298.6825083
51
323.2756573
0
ARC
8
DEFAULT_255_1_234
10
14.5447061
20
0.2952649
40
0.3604842
50
293.1999386
51
299.1396394
0
ARC
8
DEFAULT_255_1_234
10
14.6120033
20
-0.3132874
40
0.2871098
50
54.0011765
51
74.9167975
0
ARC
8
DEFAULT_255_1_234
10
14.6236393
20
-0.2935668
40
0.2643248
50
36.3580696
51
53.5291921
0
ARC
8
DEFAULT_255_1_234
10
14.6109635
20
-0.3026002
40
0.2798884
50
4.8189881
51
36.3089977
0
ARC
8
DEFAULT_255_1_234
10
14.533047
20
-0.313573
40
0.358478
50
359.9370252
51
5.5204067
0
ARC
8
DEFAULT_255_1_234
10
14.5005991
20
-0.3176333
40
0.3909429
50
344.7478609
51
0.5373281
0
ARC
8
DEFAULT_255_1_234
10
14.5996963
20
-0.3443456
40
0.2883093
50
311.1786488
51
344.6886812
0
ARC
8
DEFAULT_255_1_234
10
14.570501
20
-0.3080013
40
0.3348923
50
286.0418249
51
310.8441291
0
ARC
8
DEFAULT_255_1_234
10
14.5197842
20
-0.1433193
40
0.5071869
50
274.1042341
51
286.4071509
0
ARC
8
DEFAULT_255_1_234
10
14.5021098
20
0.0450229
40
0.6963234
50
269.9236873
51
274.445647
0
ARC
8
DEFAULT_255_1_234
10
14.5067098
20
-0.1889463
40
0.3362634
50
269.6055768
51
281.3740047
0
ARC
8
DEFAULT_255_1_234
10
14.5297736
20
-0.2982647
40
0.224546
50
281.1055983
51
302.5132223
0
ARC
8
DEFAULT_255_1_234
10
14.5444636
20
-0.3246177
40
0.1944357
50
303.0368945
51
311.8811219
0
ARC
8
DEFAULT_255_1_234
10
14.5516042
20
-0.333111
40
0.1833454
50
311.9916004
51
351.7143462
0
ARC
8
DEFAULT_255_1_234
10
14.4699272
20
-0.316607
40
0.2665871
50
350.7339597
51
0.2221581
0
ARC
8
DEFAULT_255_1_234
10
14.4591718
20
-0.3109533
40
0.2773789
50
359.0456241
51
17.2296242
0
ARC
8
DEFAULT_255_1_234
10
14.5630836
20
-0.2800837
40
0.1689915
50
17.6685481
51
78.9940892
0
ARC
8
DEFAULT_255_1_234
10
14.5113999
20
-0.4655776
40
0.3612658
50
76.5635957
51
90.6980921
0
LINE
8
DEFAULT_255_1_234
10
14.5069984
20
-0.1043387
11
14.5068045
21
-0.1043386
0
ARC
8
DEFAULT_255_1_234
10
14.484966
20
0.3479036
40
0.3285612
50
269.6064736
51
281.4533503
0
ARC
8
DEFAULT_255_1_234
10
14.5072479
20
0.2427688
40
0.2210975
50
281.2041486
51
302.5148063
0
ARC
8
DEFAULT_255_1_234
10
14.5209329
20
0.2181241
40
0.1929674
50
303.021671
51
309.8369575
0
ARC
8
DEFAULT_255_1_234
10
14.5392791
20
0.1975488
40
0.1654181
50
309.5228395
51
356.9509836
0
ARC
8
DEFAULT_255_1_234
10
14.4729373
20
0.2070932
40
0.2322512
50
355.4701227
51
0.0492546
0
ARC
8
DEFAULT_255_1_234
10
14.4450465
20
0.2093094
40
0.2601498
50
359.5558597
51
11.2096359
0
ARC
8
DEFAULT_255_1_234
10
14.5407754
20
0.229123
40
0.1623975
50
10.9182341
51
31.3230275
0
ARC
8
DEFAULT_255_1_234
10
14.5693488
20
0.2450214
40
0.1297302
50
31.8852677
51
52.1412565
0
ARC
8
DEFAULT_255_1_234
10
14.5419221
20
0.206275
40
0.1771663
50
52.8285564
51
71.9850297
0
ARC
8
DEFAULT_255_1_234
10
14.5043397
20
0.0956664
40
0.2939794
50
71.6863486
51
82.8455995
0
ARC
8
DEFAULT_255_1_234
10
14.4803933
20
-0.0852851
40
0.476506
50
82.6984714
51
90.1729175
0
ARC
8
DEFAULT_255_1_234
10
14.4781568
20
0.0370623
40
0.3541573
50
89.8708275
51
90.0431131
0
LINE
8
DEFAULT_255_1_234
10
15.8770191
20
-0.6513
11
15.7653779
21
-0.3460939
0
LINE
8
DEFAULT_255_1_234
10
15.7653779
20
-0.3460939
11
15.2754419
21
-0.3460939
0
LINE
8
DEFAULT_255_1_234
10
15.2754419
20
-0.3460939
11
15.1654071
21
-0.6513
0
LINE
8
DEFAULT_255_1_234
10
15.1654071
20
-0.6513
11
15.0063787
21
-0.6513
0
LINE
8
DEFAULT_255_1_234
10
15.0063787
20
-0.6513
11
15.4529433
21
0.5181211
0
LINE
8
DEFAULT_255_1_234
10
15.4529433
20
0.5181211
11
15.5878765
21
0.5181211
0
LINE
8
DEFAULT_255_1_234
10
15.5878765
20
0.5181211
11
16.0352443
21
-0.6513
0
LINE
8
DEFAULT_255_1_234
10
16.0352443
20
-0.6513
11
15.8770191
21
-0.6513
0
LINE
8
DEFAULT_255_1_234
10
15.5204099
20
0.3277689
11
15.322026
21
-0.2191925
0
LINE
8
DEFAULT_255_1_234
10
15.322026
20
-0.2191925
11
15.719597
21
-0.2191925
0
LINE
8
DEFAULT_255_1_234
10
15.719597
20
-0.2191925
11
15.5204099
21
0.3277689
0
LINE
8
DEFAULT_255_1_234
10
16.8874118
20
0.0402327
11
16.8874118
21
-0.1525291
0
LINE
8
DEFAULT_255_1_234
10
16.149295
20
-0.1726084
11
16.149295
21
0.0257755
0
LINE
8
DEFAULT_255_1_234
10
16.7388246
20
-0.1926877
11
16.7388246
21
0.0506739
0
LINE
8
DEFAULT_255_1_234
10
16.2978822
20
0.0619184
11
16.2978822
21
-0.1758211
0
ARC
8
DEFAULT_255_1_234
10
15.6627007
20
-0.1574195
40
1.2247208
50
353.8441951
51
0.2287902
0
ARC
8
DEFAULT_255_1_234
10
16.1266511
20
-0.2092194
40
0.7578929
50
344.4934747
51
353.9765454
0
ARC
8
DEFAULT_255_1_234
10
16.4259101
20
-0.2943019
40
0.4467846
50
329.2803592
51
344.7472793
0
ARC
8
DEFAULT_255_1_234
10
16.5251926
20
-0.3487982
40
0.3336173
50
324.9352394
51
328.6160465
0
ARC
8
DEFAULT_255_1_234
10
16.5629035
20
-0.3751573
40
0.2876076
50
280.580143
51
324.9173126
0
ARC
8
DEFAULT_255_1_234
10
16.5227827
20
-0.2080901
40
0.4592847
50
269.5977311
51
281.6734359
0
ARC
8
DEFAULT_255_1_234
10
16.5155733
20
-0.2200827
40
0.4472986
50
256.6228859
51
270.51044
0
ARC
8
DEFAULT_255_1_234
10
16.4753711
20
-0.3749123
40
0.2873874
50
215.8618325
51
257.2788573
0
ARC
8
DEFAULT_255_1_234
10
16.5774742
20
-0.3064023
40
0.4102928
50
197.9693508
51
215.2623606
0
ARC
8
DEFAULT_255_1_234
10
16.8259858
20
-0.2225291
40
0.6725652
50
187.8816417
51
198.2346507
0
ARC
8
DEFAULT_255_1_234
10
17.2218066
20
-0.1653921
40
1.0724845
50
180.8976217
51
188.0055519
0
ARC
8
DEFAULT_255_1_234
10
17.5018254
20
-0.1550223
40
1.3526448
50
180.7449369
51
181.1510016
0
ARC
8
DEFAULT_255_1_234
10
17.3440983
20
0.0306042
40
1.1948131
50
173.7675579
51
180.231553
0
ARC
8
DEFAULT_255_1_234
10
16.892313
20
0.0816666
40
0.7401564
50
164.3058563
51
173.9002247
0
ARC
8
DEFAULT_255_1_234
10
16.6011199
20
0.1655656
40
0.4371288
50
148.7922025
51
164.568378
0
ARC
8
DEFAULT_255_1_234
10
16.5059651
20
0.2186929
40
0.3282386
50
144.5883898
51
148.1176286
0
ARC
8
DEFAULT_255_1_234
10
16.4716549
20
0.2426315
40
0.2864044
50
101.6440918
51
144.514236
0
ARC
8
DEFAULT_255_1_234
10
16.5141616
20
0.0737069
40
0.4604934
50
89.5284041
51
102.5819763
0
ARC
8
DEFAULT_255_1_234
10
16.5220703
20
0.0698018
40
0.464401
50
77.0437873
51
90.5081339
0
ARC
8
DEFAULT_255_1_234
10
16.5622705
20
0.2340615
40
0.2953195
50
48.2778575
51
77.4994676
0
ARC
8
DEFAULT_255_1_234
10
16.5695337
20
0.2469746
40
0.2808655
50
36.3142134
51
47.6305865
0
ARC
8
DEFAULT_255_1_234
10
16.4826643
20
0.1884515
40
0.3855453
50
18.2931786
51
35.6769206
0
ARC
8
DEFAULT_255_1_234
10
16.2283402
20
0.1011593
40
0.654423
50
8.024666
51
18.5605216
0
ARC
8
DEFAULT_255_1_234
10
15.8120322
20
0.0396792
40
1.0752407
50
1.1274072
51
8.1718305
0
ARC
8
DEFAULT_255_1_234
10
15.4884513
20
0.0269885
40
1.3990231
50
0.5424119
51
1.3863029
0
ARC
8
DEFAULT_255_1_234
10
15.6705891
20
0.0542342
40
1.0682415
50
359.8090433
51
4.9407866
0
ARC
8
DEFAULT_255_1_234
10
16.0915905
20
0.0918113
40
0.6455691
50
4.8362157
51
12.2904523
0
ARC
8
DEFAULT_255_1_234
10
16.367102
20
0.1531965
40
0.3633074
50
12.0805627
51
23.8173984
0
ARC
8
DEFAULT_255_1_234
10
16.4844725
20
0.2028919
40
0.2358723
50
24.2871213
51
31.3935614
0
ARC
8
DEFAULT_255_1_234
10
16.5369422
20
0.2372233
40
0.1732111
50
30.7407893
51
82.4657128
0
ARC
8
DEFAULT_255_1_234
10
16.5189556
20
0.1488691
40
0.263235
50
81.1060089
51
90.2184952
0
ARC
8
DEFAULT_255_1_234
10
16.5153855
20
0.1746924
40
0.2374236
50
89.3806855
51
105.6762551
0
ARC
8
DEFAULT_255_1_234
10
16.4970486
20
0.2413567
40
0.1682847
50
105.7981136
51
149.7388061
0
ARC
8
DEFAULT_255_1_234
10
16.6034564
20
0.177395
40
0.2924306
50
149.4208916
51
163.6286378
0
ARC
8
DEFAULT_255_1_234
10
16.8125452
20
0.113625
40
0.5110213
50
163.3763315
51
172.1410975
0
ARC
8
DEFAULT_255_1_234
10
17.1426171
20
0.0663518
40
0.8444586
50
172.0259487
51
178.0703232
0
ARC
8
DEFAULT_255_1_234
10
17.4456261
20
0.0519906
40
1.1477868
50
177.8631668
51
179.5044149
0
ARC
8
DEFAULT_255_1_234
10
17.3383665
20
-0.1794611
40
1.0404907
50
179.7995573
51
185.2460446
0
ARC
8
DEFAULT_255_1_234
10
16.9340705
20
-0.2177487
40
0.6343885
50
185.1411642
51
193.0079639
0
ARC
8
DEFAULT_255_1_234
10
16.6697177
20
-0.2802359
40
0.3627568
50
192.7897626
51
205.2507664
0
ARC
8
DEFAULT_255_1_234
10
16.5650724
20
-0.3269585
40
0.2481908
50
205.8005384
51
211.2537509
0
ARC
8
DEFAULT_255_1_234
10
16.5127165
20
-0.362042
40
0.1852521
50
210.3789793
51
238.4008143
0
ARC
8
DEFAULT_255_1_234
10
16.5107686
20
-0.3573624
40
0.1882621
50
239.6520629
51
265.9793761
0
ARC
8
DEFAULT_255_1_234
10
16.5192887
20
-0.2901573
40
0.2559272
50
265.1315437
51
270.060332
0
ARC
8
DEFAULT_255_1_234
10
16.5221665
20
-0.3225466
40
0.2235528
50
269.3314664
51
287.2178029
0
ARC
8
DEFAULT_255_1_234
10
16.5359517
20
-0.3728721
40
0.1714108
50
287.7958004
51
329.080874
0
ARC
8
DEFAULT_255_1_234
10
16.4401974
20
-0.313107
40
0.2842745
50
328.6634704
51
343.3325132
0
ARC
8
DEFAULT_255_1_234
10
16.2228994
20
-0.2454137
40
0.5118644
50
343.0499468
51
351.9393422
0
ARC
8
DEFAULT_255_1_234
10
15.8762294
20
-0.1943051
40
0.8622784
50
351.8069023
51
357.7959224
0
ARC
8
DEFAULT_255_1_234
10
15.552685
20
-0.1775279
40
1.1862365
50
357.5871873
51
359.2677531
0
LINE
8
DEFAULT_255_1_234
10
17.8110617
20
0.0402327
11
17.8110617
21
-0.1525291
0
LINE
8
DEFAULT_255_1_234
10
17.0729449
20
-0.1726084
11
17.0729449
21
0.0257755
0
LINE
8
DEFAULT_255_1_234
10
17.6624745
20
-0.1926877
11
17.6624745
21
0.0506739
0
LINE
8
DEFAULT_255_1_234
10
17.2215321
20
0.0619184
11
17.2215321
21
-0.1758211
0
ARC
8
DEFAULT_255_1_234
10
16.5863506
20
-0.1574195
40
1.2247208
50
353.8441951
51
0.2287902
0
ARC
8
DEFAULT_255_1_234
10
17.050301
20
-0.2092194
40
0.7578929
50
344.4934747
51
353.9765454
0
ARC
8
DEFAULT_255_1_234
10
17.34956
20
-0.2943019
40
0.4467846
50
329.2803592
51
344.7472793
0
ARC
8
DEFAULT_255_1_234
10
17.4488425
20
-0.3487982
40
0.3336173
50
324.9352394
51
328.6160465
0
ARC
8
DEFAULT_255_1_234
10
17.4865534
20
-0.3751573
40
0.2876076
50
280.580143
51
324.9173126
0
ARC
8
DEFAULT_255_1_234
10
17.4464326
20
-0.2080901
40
0.4592847
50
269.5977311
51
281.6734359
0
ARC
8
DEFAULT_255_1_234
10
17.4392232
20
-0.2200827
40
0.4472986
50
256.6228859
51
270.51044
0
ARC
8
DEFAULT_255_1_234
10
17.399021
20
-0.3749123
40
0.2873874
50
215.8618325
51
257.2788573
0
ARC
8
DEFAULT_255_1_234
10
17.5011241
20
-0.3064023
40
0.4102928
50
197.9693508
51
215.2623606
0
ARC
8
DEFAULT_255_1_234
10
17.7496357
20
-0.2225291
40
0.6725652
50
187.8816417
51
198.2346507
0
ARC
8
DEFAULT_255_1_234
10
18.1454565
20
-0.1653921
40
1.0724845
50
180.8976217
51
188.0055519
0
ARC
8
DEFAULT_255_1_234
10
18.4254753
20
-0.1550223
40
1.3526448
50
180.7449369
51
181.1510016
0
ARC
8
DEFAULT_255_1_234
10
18.2677482
20
0.0306042
40
1.1948131
50
173.7675579
51
180.231553
0
ARC
8
DEFAULT_255_1_234
10
17.8159629
20
0.0816666
40
0.7401564
50
164.3058563
51
173.9002247
0
ARC
8
DEFAULT_255_1_234
10
17.5247698
20
0.1655656
40
0.4371288
50
148.7922025
51
164.568378
0
ARC
8
DEFAULT_255_1_234
10
17.429615
20
0.2186929
40
0.3282386
50
144.5883898
51
148.1176286
0
ARC
8
DEFAULT_255_1_234
10
17.3953048
20
0.2426315
40
0.2864044
50
101.6440918
51
144.514236
0
ARC
8
DEFAULT_255_1_234
10
17.4378115
20
0.0737069
40
0.4604934
50
89.5284041
51
102.5819763
0
ARC
8
DEFAULT_255_1_234
10
17.4457202
20
0.0698018
40
0.464401
50
77.0437873
51
90.5081339
0
ARC
8
DEFAULT_255_1_234
10
17.4859204
20
0.2340615
40
0.2953195
50
48.2778575
51
77.4994676
0
ARC
8
DEFAULT_255_1_234
10
17.4931836
20
0.2469746
40
0.2808655
50
36.3142134
51
47.6305865
0
ARC
8
DEFAULT_255_1_234
10
17.4063142
20
0.1884515
40
0.3855453
50
18.2931786
51
35.6769206
0
ARC
8
DEFAULT_255_1_234
10
17.1519901
20
0.1011593
40
0.654423
50
8.024666
51
18.5605216
0
ARC
8
DEFAULT_255_1_234
10
16.7356821
20
0.0396792
40
1.0752407
50
1.1274072
51
8.1718305
0
ARC
8
DEFAULT_255_1_234
10
16.4121012
20
0.0269885
40
1.3990231
50
0.5424119
51
1.3863029
0
ARC
8
DEFAULT_255_1_234
10
16.594239
20
0.0542342
40
1.0682415
50
359.8090433
51
4.9407866
0
ARC
8
DEFAULT_255_1_234
10
17.0152404
20
0.0918113
40
0.6455691
50
4.8362157
51
12.2904523
0
ARC
8
DEFAULT_255_1_234
10
17.2907519
20
0.1531965
40
0.3633074
50
12.0805627
51
23.8173984
0
ARC
8
DEFAULT_255_1_234
10
17.4081224
20
0.2028919
40
0.2358723
50
24.2871213
51
31.3935614
0
ARC
8
DEFAULT_255_1_234
10
17.4605921
20
0.2372233
40
0.1732111
50
30.7407893
51
82.4657128
0
ARC
8
DEFAULT_255_1_234
10
17.4426055
20
0.1488691
40
0.263235
50
81.1060089
51
90.2184952
0
ARC
8
DEFAULT_255_1_234
10
17.4390354
20
0.1746924
40
0.2374236
50
89.3806855
51
105.6762551
0
ARC
8
DEFAULT_255_1_234
10
17.4206985
20
0.2413567
40
0.1682847
50
105.7981136
51
149.7388061
0
ARC
8
DEFAULT_255_1_234
10
17.5271063
20
0.177395
40
0.2924306
50
149.4208916
51
163.6286378
0
ARC
8
DEFAULT_255_1_234
10
17.7361951
20
0.113625
40
0.5110213
50
163.3763315
51
172.1410975
0
ARC
8
DEFAULT_255_1_234
10
18.066267
20
0.0663518
40
0.8444586
50
172.0259487
51
178.0703232
0
ARC
8
DEFAULT_255_1_234
10
18.369276
20
0.0519906
40
1.1477868
50
177.8631668
51
179.5044149
0
ARC
8
DEFAULT_255_1_234
10
18.2620164
20
-0.1794611
40
1.0404907
50
179.7995573
51
185.2460446
0
ARC
8
DEFAULT_255_1_234
10
17.8577204
20
-0.2177487
40
0.6343885
50
185.1411642
51
193.0079639
0
ARC
8
DEFAULT_255_1_234
10
17.5933676
20
-0.2802359
40
0.3627568
50
192.7897626
51
205.2507664
0
ARC
8
DEFAULT_255_1_234
10
17.4887223
20
-0.3269585
40
0.2481908
50
205.8005384
51
211.2537509
0
ARC
8
DEFAULT_255_1_234
10
17.4363664
20
-0.362042
40
0.1852521
50
210.3789793
51
238.4008143
0
ARC
8
DEFAULT_255_1_234
10
17.4344185
20
-0.3573624
40
0.1882621
50
239.6520629
51
265.9793761
0
ARC
8
DEFAULT_255_1_234
10
17.4429386
20
-0.2901573
40
0.2559272
50
265.1315437
51
270.060332
0
ARC
8
DEFAULT_255_1_234
10
17.4458164
20
-0.3225466
40
0.2235528
50
269.3314664
51
287.2178029
0
ARC
8
DEFAULT_255_1_234
10
17.4596016
20
-0.3728721
40
0.1714108
50
287.7958004
51
329.080874
0
ARC
8
DEFAULT_255_1_234
10
17.3638473
20
-0.313107
40
0.2842745
50
328.6634704
51
343.3325132
0
ARC
8
DEFAULT_255_1_234
10
17.1465493
20
-0.2454137
40
0.5118644
50
343.0499468
51
351.9393422
0
ARC
8
DEFAULT_255_1_234
10
16.7998793
20
-0.1943051
40
0.8622784
50
351.8069023
51
357.7959224
0
ARC
8
DEFAULT_255_1_234
10
16.4763349
20
-0.1775279
40
1.1862365
50
357.5871873
51
359.2677531
0
LINE
8
DEFAULT_255_1_234
10
18.3258961
20
-0.0938974
11
18.3258961
21
-0.2151766
0
LINE
8
DEFAULT_255_1_234
10
18.3258961
20
-0.2151766
11
17.9339473
21
-0.2151766
0
LINE
8
DEFAULT_255_1_234
10
17.9339473
20
-0.2151766
11
17.9339473
21
-0.0938974
0
LINE
8
DEFAULT_255_1_234
10
17.9339473
20
-0.0938974
11
18.3258961
21
-0.0938974
0
LINE
8
DEFAULT_255_1_234
10
19.1885048
20
0.0402327
11
19.1885048
21
-0.1525291
0
LINE
8
DEFAULT_255_1_234
10
18.450388
20
-0.1726084
11
18.450388
21
0.0257755
0
LINE
8
DEFAULT_255_1_234
10
19.0399176
20
-0.1926877
11
19.0399176
21
0.0506739
0
LINE
8
DEFAULT_255_1_234
10
18.5989752
20
0.0619184
11
18.5989752
21
-0.1758211
0
ARC
8
DEFAULT_255_1_234
10
17.9637937
20
-0.1574195
40
1.2247208
50
353.8441951
51
0.2287902
0
ARC
8
DEFAULT_255_1_234
10
18.4277441
20
-0.2092194
40
0.7578929
50
344.4934747
51
353.9765454
0
ARC
8
DEFAULT_255_1_234
10
18.7270031
20
-0.2943019
40
0.4467846
50
329.2803592
51
344.7472793
0
ARC
8
DEFAULT_255_1_234
10
18.8262856
20
-0.3487982
40
0.3336173
50
324.9352394
51
328.6160465
0
ARC
8
DEFAULT_255_1_234
10
18.8639965
20
-0.3751573
40
0.2876076
50
280.580143
51
324.9173126
0
ARC
8
DEFAULT_255_1_234
10
18.8238757
20
-0.2080901
40
0.4592847
50
269.5977311
51
281.6734359
0
ARC
8
DEFAULT_255_1_234
10
18.8166663
20
-0.2200827
40
0.4472986
50
256.6228859
51
270.51044
0
ARC
8
DEFAULT_255_1_234
10
18.7764641
20
-0.3749123
40
0.2873874
50
215.8618325
51
257.2788573
0
ARC
8
DEFAULT_255_1_234
10
18.8785672
20
-0.3064023
40
0.4102928
50
197.9693508
51
215.2623606
0
ARC
8
DEFAULT_255_1_234
10
19.1270788
20
-0.2225291
40
0.6725652
50
187.8816417
51
198.2346507
0
ARC
8
DEFAULT_255_1_234
10
19.5228996
20
-0.1653921
40
1.0724845
50
180.8976217
51
188.0055519
0
ARC
8
DEFAULT_255_1_234
10
19.8029185
20
-0.1550223
40
1.3526448
50
180.7449369
51
181.1510016
0
ARC
8
DEFAULT_255_1_234
10
19.6451914
20
0.0306042
40
1.1948131
50
173.7675579
51
180.231553
0
ARC
8
DEFAULT_255_1_234
10
19.193406
20
0.0816666
40
0.7401564
50
164.3058563
51
173.9002247
0
ARC
8
DEFAULT_255_1_234
10
18.9022129
20
0.1655656
40
0.4371288
50
148.7922025
51
164.568378
0
ARC
8
DEFAULT_255_1_234
10
18.8070581
20
0.2186929
40
0.3282386
50
144.5883898
51
148.1176286
0
ARC
8
DEFAULT_255_1_234
10
18.7727479
20
0.2426315
40
0.2864044
50
101.6440918
51
144.514236
0
ARC
8
DEFAULT_255_1_234
10
18.8152546
20
0.0737069
40
0.4604934
50
89.5284041
51
102.5819763
0
ARC
8
DEFAULT_255_1_234
10
18.8231634
20
0.0698018
40
0.464401
50
77.0437873
51
90.5081339
0
ARC
8
DEFAULT_255_1_234
10
18.8633635
20
0.2340615
40
0.2953195
50
48.2778575
51
77.4994676
0
ARC
8
DEFAULT_255_1_234
10
18.8706267
20
0.2469746
40
0.2808655
50
36.3142134
51
47.6305865
0
ARC
8
DEFAULT_255_1_234
10
18.7837574
20
0.1884515
40
0.3855453
50
18.2931786
51
35.6769206
0
ARC
8
DEFAULT_255_1_234
10
18.5294332
20
0.1011593
40
0.654423
50
8.024666
51
18.5605216
0
ARC
8
DEFAULT_255_1_234
10
18.1131252
20
0.0396792
40
1.0752407
50
1.1274072
51
8.1718305
0
ARC
8
DEFAULT_255_1_234
10
17.7895443
20
0.0269885
40
1.3990231
50
0.5424119
51
1.3863029
0
ARC
8
DEFAULT_255_1_234
10
17.9716821
20
0.0542342
40
1.0682415
50
359.8090433
51
4.9407866
0
ARC
8
DEFAULT_255_1_234
10
18.3926835
20
0.0918113
40
0.6455691
50
4.8362157
51
12.2904523
0
ARC
8
DEFAULT_255_1_234
10
18.668195
20
0.1531965
40
0.3633074
50
12.0805627
51
23.8173984
0
ARC
8
DEFAULT_255_1_234
10
18.7855655
20
0.2028919
40
0.2358723
50
24.2871213
51
31.3935614
0
ARC
8
DEFAULT_255_1_234
10
18.8380352
20
0.2372233
40
0.1732111
50
30.7407893
51
82.4657128
0
ARC
8
DEFAULT_255_1_234
10
18.8200487
20
0.1488691
40
0.263235
50
81.1060089
51
90.2184952
0
ARC
8
DEFAULT_255_1_234
10
18.8164785
20
0.1746924
40
0.2374236
50
89.3806855
51
105.6762551
0
ARC
8
DEFAULT_255_1_234
10
18.7981416
20
0.2413567
40
0.1682847
50
105.7981136
51
149.7388061
0
ARC
8
DEFAULT_255_1_234
10
18.9045494
20
0.177395
40
0.2924306
50
149.4208916
51
163.6286378
0
ARC
8
DEFAULT_255_1_234
10
19.1136382
20
0.113625
40
0.5110213
50
163.3763315
51
172.1410975
0
ARC
8
DEFAULT_255_1_234
10
19.4437101
20
0.0663518
40
0.8444586
50
172.0259487
51
178.0703232
0
ARC
8
DEFAULT_255_1_234
10
19.7467191
20
0.0519906
40
1.1477868
50
177.8631668
51
179.5044149
0
ARC
8
DEFAULT_255_1_234
10
19.6394595
20
-0.1794611
40
1.0404907
50
179.7995573
51
185.2460446
0
ARC
8
DEFAULT_255_1_234
10
19.2351635
20
-0.2177487
40
0.6343885
50
185.1411642
51
193.0079639
0
ARC
8
DEFAULT_255_1_234
10
18.9708107
20
-0.2802359
40
0.3627568
50
192.7897626
51
205.2507664
0
ARC
8
DEFAULT_255_1_234
10
18.8661654
20
-0.3269585
40
0.2481908
50
205.8005384
51
211.2537509
0
ARC
8
DEFAULT_255_1_234
10
18.8138095
20
-0.362042
40
0.1852521
50
210.3789793
51
238.4008143
0
ARC
8
DEFAULT_255_1_234
10
18.8118617
20
-0.3573624
40
0.1882621
50
239.6520629
51
265.9793761
0
ARC
8
DEFAULT_255_1_234
10
18.8203817
20
-0.2901573
40
0.2559272
50
265.1315437
51
270.060332
0
ARC
8
DEFAULT_255_1_234
10
18.8232596
20
-0.3225466
40
0.2235528
50
269.3314664
51
287.2178029
0
ARC
8
DEFAULT_255_1_234
10
18.8370447
20
-0.3728721
40
0.1714108
50
287.7958004
51
329.080874
0
ARC
8
DEFAULT_255_1_234
10
18.7412904
20
-0.313107
40
0.2842745
50
328.6634704
51
343.3325132
0
ARC
8
DEFAULT_255_1_234
10
18.5239924
20
-0.2454137
40
0.5118644
50
343.0499468
51
351.9393422
0
ARC
8
DEFAULT_255_1_234
10
18.1773224
20
-0.1943051
40
0.8622784
50
351.8069023
51
357.7959224
0
ARC
8
DEFAULT_255_1_234
10
17.853778
20
-0.1775279
40
1.1862365
50
357.5871873
51
359.2677531
0
LINE
8
DEFAULT_255_1_234
10
19.5170029
20
0.5181211
11
19.7989169
21
0.0699501
0
LINE
8
DEFAULT_255_1_234
10
19.7989169
20
0.0699501
11
20.0792246
21
0.5181211
0
LINE
8
DEFAULT_255_1_234
10
20.0792246
20
0.5181211
11
20.2607418
21
0.5181211
0
LINE
8
DEFAULT_255_1_234
10
20.2607418
20
0.5181211
11
19.8912819
21
-0.0617704
0
LINE
8
DEFAULT_255_1_234
10
19.8912819
20
-0.0617704
11
20.2695768
21
-0.6513
0
LINE
8
DEFAULT_255_1_234
10
20.2695768
20
-0.6513
11
20.0864531
21
-0.6513
0
LINE
8
DEFAULT_255_1_234
10
20.0864531
20
-0.6513
11
19.7989169
21
-0.1950973
0
LINE
8
DEFAULT_255_1_234
10
19.7989169
20
-0.1950973
11
19.5097743
21
-0.6513
0
LINE
8
DEFAULT_255_1_234
10
19.5097743
20
-0.6513
11
19.3274539
21
-0.6513
0
LINE
8
DEFAULT_255_1_234
10
19.3274539
20
-0.6513
11
19.7065519
21
-0.0617704
0
LINE
8
DEFAULT_255_1_234
10
19.7065519
20
-0.0617704
11
19.3362888
21
0.5181211
0
LINE
8
DEFAULT_255_1_234
10
19.3362888
20
0.5181211
11
19.5170029
21
0.5181211
0
LINE
8
DEFAULT_255_1_234
10
20.8542873
20
-0.6513
11
20.4486845
21
-0.6513
0
LINE
8
DEFAULT_255_1_234
10
20.4486845
20
-0.6513
11
20.4486845
21
0.5181211
0
LINE
8
DEFAULT_255_1_234
10
20.4486845
20
0.5181211
11
20.8309953
21
0.5181211
0
LINE
8
DEFAULT_255_1_234
10
20.8599095
20
-0.1043386
11
20.6028939
21
-0.1043386
0
LINE
8
DEFAULT_255_1_234
10
20.6028939
20
-0.1043386
11
20.6028939
21
-0.5252017
0
LINE
8
DEFAULT_255_1_234
10
20.6028939
20
-0.5252017
11
20.8575
21
-0.5252017
0
LINE
8
DEFAULT_255_1_234
10
20.6028939
20
0.3912196
11
20.6028939
21
0.0193501
0
LINE
8
DEFAULT_255_1_234
10
20.6028939
20
0.0193501
11
20.8358143
21
0.0193501
0
LINE
8
DEFAULT_255_1_234
10
20.8309953
20
0.3912196
11
20.6028939
21
0.3912196
0
ARC
8
DEFAULT_255_1_234
10
20.8347661
20
-0.2186099
40
0.7367406
50
82.1257326
51
90.2932599
0
ARC
8
DEFAULT_255_1_234
10
20.8736616
20
0.0532013
40
0.4621653
50
69.9044149
51
82.2857423
0
ARC
8
DEFAULT_255_1_234
10
20.9307294
20
0.2074637
40
0.2976871
50
51.1838526
51
70.0181538
0
ARC
8
DEFAULT_255_1_234
10
20.956226
20
0.244524
40
0.2528517
50
12.1017251
51
50.4214761
0
ARC
8
DEFAULT_255_1_234
10
20.8178134
20
0.2097676
40
0.3955061
50
359.5251267
51
12.8211707
0
ARC
8
DEFAULT_255_1_234
10
20.9758061
20
0.2028344
40
0.2375281
50
323.4908128
51
0.8817314
0
ARC
8
DEFAULT_255_1_234
10
20.9339747
20
0.235155
40
0.2903817
50
298.6825083
51
323.2756573
0
ARC
8
DEFAULT_255_1_234
10
20.897811
20
0.2952649
40
0.3604842
50
293.1999386
51
299.1396394
0
ARC
8
DEFAULT_255_1_234
10
20.9651083
20
-0.3132874
40
0.2871098
50
54.0011765
51
74.9167975
0
ARC
8
DEFAULT_255_1_234
10
20.9767442
20
-0.2935668
40
0.2643248
50
36.3580696
51
53.5291921
0
ARC
8
DEFAULT_255_1_234
10
20.9640685
20
-0.3026002
40
0.2798884
50
4.8189881
51
36.3089977
0
ARC
8
DEFAULT_255_1_234
10
20.886152
20
-0.313573
40
0.358478
50
359.9370252
51
5.5204067
0
ARC
8
DEFAULT_255_1_234
10
20.8537041
20
-0.3176333
40
0.3909429
50
344.7478609
51
0.5373281
0
ARC
8
DEFAULT_255_1_234
10
20.9528013
20
-0.3443456
40
0.2883093
50
311.1786488
51
344.6886812
0
ARC
8
DEFAULT_255_1_234
10
20.923606
20
-0.3080013
40
0.3348923
50
286.0418249
51
310.8441291
0
ARC
8
DEFAULT_255_1_234
10
20.8728892
20
-0.1433193
40
0.5071869
50
274.1042341
51
286.4071509
0
ARC
8
DEFAULT_255_1_234
10
20.8552147
20
0.0450229
40
0.6963234
50
269.9236873
51
274.445647
0
ARC
8
DEFAULT_255_1_234
10
20.8598148
20
-0.1889463
40
0.3362634
50
269.6055768
51
281.3740047
0
ARC
8
DEFAULT_255_1_234
10
20.8828786
20
-0.2982647
40
0.224546
50
281.1055983
51
302.5132223
0
ARC
8
DEFAULT_255_1_234
10
20.8975686
20
-0.3246177
40
0.1944357
50
303.0368945
51
311.8811219
0
ARC
8
DEFAULT_255_1_234
10
20.9047092
20
-0.333111
40
0.1833454
50
311.9916004
51
351.7143462
0
ARC
8
DEFAULT_255_1_234
10
20.8230322
20
-0.316607
40
0.2665871
50
350.7339597
51
0.2221581
0
ARC
8
DEFAULT_255_1_234
10
20.8122768
20
-0.3109533
40
0.2773789
50
359.0456241
51
17.2296242
0
ARC
8
DEFAULT_255_1_234
10
20.9161885
20
-0.2800837
40
0.1689915
50
17.6685481
51
78.9940892
0
ARC
8
DEFAULT_255_1_234
10
20.8645049
20
-0.4655776
40
0.3612658
50
76.5635957
51
90.6980921
0
LINE
8
DEFAULT_255_1_234
10
20.8601034
20
-0.1043387
11
20.8599095
21
-0.1043386
0
ARC
8
DEFAULT_255_1_234
10
20.838071
20
0.3479036
40
0.3285612
50
269.6064736
51
281.4533503
0
ARC
8
DEFAULT_255_1_234
10
20.8603529
20
0.2427688
40
0.2210975
50
281.2041486
51
302.5148063
0
ARC
8
DEFAULT_255_1_234
10
20.8740379
20
0.2181241
40
0.1929674
50
303.021671
51
309.8369575
0
ARC
8
DEFAULT_255_1_234
10
20.8923841
20
0.1975488
40
0.1654181
50
309.5228395
51
356.9509836
0
ARC
8
DEFAULT_255_1_234
10
20.8260423
20
0.2070932
40
0.2322512
50
355.4701227
51
0.0492546
0
ARC
8
DEFAULT_255_1_234
10
20.7981514
20
0.2093094
40
0.2601498
50
359.5558597
51
11.2096359
0
ARC
8
DEFAULT_255_1_234
10
20.8938804
20
0.229123
40
0.1623975
50
10.9182341
51
31.3230275
0
ARC
8
DEFAULT_255_1_234
10
20.9224538
20
0.2450214
40
0.1297302
50
31.8852677
51
52.1412565
0
ARC
8
DEFAULT_255_1_234
10
20.895027
20
0.206275
40
0.1771663
50
52.8285564
51
71.9850297
0
ARC
8
DEFAULT_255_1_234
10
20.8574447
20
0.0956664
40
0.2939794
50
71.6863486
51
82.8455995
0
ARC
8
DEFAULT_255_1_234
10
20.8334983
20
-0.0852851
40
0.476506
50
82.6984714
51
90.1729175
0
ARC
8
DEFAULT_255_1_234
10
20.8312618
20
0.0370623
40
0.3541573
50
89.8708275
51
90.0431131
0
LINE
8
DEFAULT_255_1_234
10
22.1674765
20
0.0402327
11
22.1674765
21
-0.1525291
0
LINE
8
DEFAULT_255_1_234
10
21.4293598
20
-0.1726084
11
21.4293598
21
0.0257755
0
LINE
8
DEFAULT_255_1_234
10
22.0188894
20
-0.1926877
11
22.0188894
21
0.0506739
0
LINE
8
DEFAULT_255_1_234
10
21.5779469
20
0.0619184
11
21.5779469
21
-0.1758211
0
ARC
8
DEFAULT_255_1_234
10
20.9427655
20
-0.1574195
40
1.2247208
50
353.8441951
51
0.2287902
0
ARC
8
DEFAULT_255_1_234
10
21.4067158
20
-0.2092194
40
0.7578929
50
344.4934747
51
353.9765454
0
ARC
8
DEFAULT_255_1_234
10
21.7059749
20
-0.2943019
40
0.4467846
50
329.2803592
51
344.7472793
0
ARC
8
DEFAULT_255_1_234
10
21.8052573
20
-0.3487982
40
0.3336173
50
324.9352394
51
328.6160465
0
ARC
8
DEFAULT_255_1_234
10
21.8429682
20
-0.3751573
40
0.2876076
50
280.580143
51
324.9173126
0
ARC
8
DEFAULT_255_1_234
10
21.8028475
20
-0.2080901
40
0.4592847
50
269.5977311
51
281.6734359
0
ARC
8
DEFAULT_255_1_234
10
21.795638
20
-0.2200827
40
0.4472986
50
256.6228859
51
270.51044
0
ARC
8
DEFAULT_255_1_234
10
21.7554358
20
-0.3749123
40
0.2873874
50
215.8618325
51
257.2788573
0
ARC
8
DEFAULT_255_1_234
10
21.857539
20
-0.3064023
40
0.4102928
50
197.9693508
51
215.2623606
0
ARC
8
DEFAULT_255_1_234
10
22.1060505
20
-0.2225291
40
0.6725652
50
187.8816417
51
198.2346507
0
ARC
8
DEFAULT_255_1_234
10
22.5018714
20
-0.1653921
40
1.0724845
50
180.8976217
51
188.0055519
0
ARC
8
DEFAULT_255_1_234
10
22.7818902
20
-0.1550223
40
1.3526448
50
180.7449369
51
181.1510016
0
ARC
8
DEFAULT_255_1_234
10
22.6241631
20
0.0306042
40
1.1948131
50
173.7675579
51
180.231553
0
ARC
8
DEFAULT_255_1_234
10
22.1723777
20
0.0816666
40
0.7401564
50
164.3058563
51
173.9002247
0
ARC
8
DEFAULT_255_1_234
10
21.8811846
20
0.1655656
40
0.4371288
50
148.7922025
51
164.568378
0
ARC
8
DEFAULT_255_1_234
10
21.7860298
20
0.2186929
40
0.3282386
50
144.5883898
51
148.1176286
0
ARC
8
DEFAULT_255_1_234
10
21.7517196
20
0.2426315
40
0.2864044
50
101.6440918
51
144.514236
0
ARC
8
DEFAULT_255_1_234
10
21.7942263
20
0.0737069
40
0.4604934
50
89.5284041
51
102.5819763
0
ARC
8
DEFAULT_255_1_234
10
21.8021351
20
0.0698018
40
0.464401
50
77.0437873
51
90.5081339
0
ARC
8
DEFAULT_255_1_234
10
21.8423353
20
0.2340615
40
0.2953195
50
48.2778575
51
77.4994676
0
ARC
8
DEFAULT_255_1_234
10
21.8495984
20
0.2469746
40
0.2808655
50
36.3142134
51
47.6305865
0
ARC
8
DEFAULT_255_1_234
10
21.7627291
20
0.1884515
40
0.3855453
50
18.2931786
51
35.6769206
0
ARC
8
DEFAULT_255_1_234
10
21.508405
20
0.1011593
40
0.654423
50
8.024666
51
18.5605216
0
ARC
8
DEFAULT_255_1_234
10
21.092097
20
0.0396792
40
1.0752407
50
1.1274072
51
8.1718305
0
ARC
8
DEFAULT_255_1_234
10
20.768516
20
0.0269885
40
1.3990231
50
0.5424119
51
1.3863029
0
ARC
8
DEFAULT_255_1_234
10
20.9506538
20
0.0542342
40
1.0682415
50
359.8090433
51
4.9407866
0
ARC
8
DEFAULT_255_1_234
10
21.3716552
20
0.0918113
40
0.6455691
50
4.8362157
51
12.2904523
0
ARC
8
DEFAULT_255_1_234
10
21.6471667
20
0.1531965
40
0.3633074
50
12.0805627
51
23.8173984
0
ARC
8
DEFAULT_255_1_234
10
21.7645372
20
0.2028919
40
0.2358723
50
24.2871213
51
31.3935614
0
ARC
8
DEFAULT_255_1_234
10
21.817007
20
0.2372233
40
0.1732111
50
30.7407893
51
82.4657128
0
ARC
8
DEFAULT_255_1_234
10
21.7990204
20
0.1488691
40
0.263235
50
81.1060089
51
90.2184952
0
ARC
8
DEFAULT_255_1_234
10
21.7954503
20
0.1746924
40
0.2374236
50
89.3806855
51
105.6762551
0
ARC
8
DEFAULT_255_1_234
10
21.7771133
20
0.2413567
40
0.1682847
50
105.7981136
51
149.7388061
0
ARC
8
DEFAULT_255_1_234
10
21.8835212
20
0.177395
40
0.2924306
50
149.4208916
51
163.6286378
0
ARC
8
DEFAULT_255_1_234
10
22.09261
20
0.113625
40
0.5110213
50
163.3763315
51
172.1410975
0
ARC
8
DEFAULT_255_1_234
10
22.4226819
20
0.0663518
40
0.8444586
50
172.0259487
51
178.0703232
0
ARC
8
DEFAULT_255_1_234
10
22.7256908
20
0.0519906
40
1.1477868
50
177.8631668
51
179.5044149
0
ARC
8
DEFAULT_255_1_234
10
22.6184313
20
-0.1794611
40
1.0404907
50
179.7995573
51
185.2460446
0
ARC
8
DEFAULT_255_1_234
10
22.2141352
20
-0.2177487
40
0.6343885
50
185.1411642
51
193.0079639
0
ARC
8
DEFAULT_255_1_234
10
21.9497824
20
-0.2802359
40
0.3627568
50
192.7897626
51
205.2507664
0
ARC
8
DEFAULT_255_1_234
10
21.8451371
20
-0.3269585
40
0.2481908
50
205.8005384
51
211.2537509
0
ARC
8
DEFAULT_255_1_234
10
21.7927812
20
-0.362042
40
0.1852521
50
210.3789793
51
238.4008143
0
ARC
8
DEFAULT_255_1_234
10
21.7908334
20
-0.3573624
40
0.1882621
50
239.6520629
51
265.9793761
0
ARC
8
DEFAULT_255_1_234
10
21.7993534
20
-0.2901573
40
0.2559272
50
265.1315437
51
270.060332
0
ARC
8
DEFAULT_255_1_234
10
21.8022313
20
-0.3225466
40
0.2235528
50
269.3314664
51
287.2178029
0
ARC
8
DEFAULT_255_1_234
10
21.8160165
20
-0.3728721
40
0.1714108
50
287.7958004
51
329.080874
0
ARC
8
DEFAULT_255_1_234
10
21.7202622
20
-0.313107
40
0.2842745
50
328.6634704
51
343.3325132
0
ARC
8
DEFAULT_255_1_234
10
21.5029642
20
-0.2454137
40
0.5118644
50
343.0499468
51
351.9393422
0
ARC
8
DEFAULT_255_1_234
10
21.1562942
20
-0.1943051
40
0.8622784
50
351.8069023
51
357.7959224
0
ARC
8
DEFAULT_255_1_234
10
20.8327498
20
-0.1775279
40
1.1862365
50
357.5871873
51
359.2677531
0
ARC
8
DEFAULT_255_2_778
10
7.7537338
20
52.3387992
40
3.0484709
50
251.6854144
51
258.6071955
0
ARC
8
DEFAULT_255_2_778
10
7.539521
20
51.2571738
40
1.9458471
50
258.4992492
51
268.3986479
0
ARC
8
DEFAULT_255_2_778
10
7.5172314
20
50.8269206
40
1.5151737
50
268.7865272
51
269.9950384
0
ARC
8
DEFAULT_255_2_778
10
7.5277432
20
50.3757355
40
1.0640417
50
269.426895
51
279.6711067
0
ARC
8
DEFAULT_255_2_778
10
7.6417753
20
49.7461746
40
0.4243233
50
278.7731084
51
300.3324923
0
ARC
8
DEFAULT_255_2_778
10
7.760746
20
49.5435552
40
0.1893587
50
300.2240287
51
1.9041213
0
ARC
8
DEFAULT_255_2_778
10
7.7452705
20
49.5527089
40
0.2047497
50
359.1991369
51
359.99965
0
ARC
8
DEFAULT_255_2_778
10
7.7523233
20
49.5535378
40
0.1976988
50
359.7594145
51
47.1793976
0
ARC
8
DEFAULT_255_2_778
10
7.6187277
20
49.404931
40
0.3975169
50
47.6144502
51
60.8366176
0
ARC
8
DEFAULT_255_2_778
10
7.0190958
20
48.3889865
40
1.5771337
50
59.799464
51
64.8885807
0
ARC
8
DEFAULT_255_2_778
10
6.0948833
20
46.4599682
40
3.7160912
50
64.6076081
51
66.8386974
0
ARC
8
DEFAULT_255_2_778
10
9.6419609
20
54.8230052
40
5.368109
50
244.3032309
51
247.1393781
0
ARC
8
DEFAULT_255_2_778
10
8.5507088
20
52.563018
40
2.8584574
50
240.2323579
51
244.3709759
0
ARC
8
DEFAULT_255_2_778
10
7.7800475
20
51.2261591
40
1.315392
50
233.2209971
51
240.4606284
0
ARC
8
DEFAULT_255_2_778
10
7.3561477
20
50.6550187
40
0.6041399
50
225.6990744
51
232.9899679
0
ARC
8
DEFAULT_255_2_778
10
7.3965073
20
50.6794214
40
0.6499005
50
178.2783416
51
224.6550883
0
ARC
8
DEFAULT_255_2_778
10
7.5059624
20
50.7127974
40
0.7591885
50
157.033673
51
181.0453383
0
ARC
8
DEFAULT_255_2_778
10
7.378439
20
50.7536396
40
0.6259551
50
124.9113017
51
155.9211516
0
ARC
8
DEFAULT_255_2_778
10
7.5960466
20
50.4450681
40
1.0035357
50
100.4079723
51
125.0168617
0
ARC
8
DEFAULT_255_2_778
10
7.6991199
20
49.9510046
40
1.5081396
50
89.6483922
51
100.8684975
0
ARC
8
DEFAULT_255_2_778
10
7.7083242
20
49.5987988
40
1.8603169
50
89.5079487
51
89.9984402
0
ARC
8
DEFAULT_255_2_778
10
7.7099573
20
49.5335694
40
1.9255311
50
83.9170631
51
89.5732113
0
ARC
8
DEFAULT_255_2_778
10
7.5071517
20
47.5259957
40
3.9433074
50
80.7325723
51
84.0779772
0
ARC
8
DEFAULT_255_2_778
10
7.0208457
20
44.503082
40
7.0050837
50
78.5086351
51
80.7886813
0
ARC
8
DEFAULT_255_2_778
10
7.6620177
20
49.1025544
40
1.9415426
50
67.135818
51
78.0934208
0
ARC
8
DEFAULT_255_2_778
10
7.7851814
20
49.6729809
40
1.3579807
50
78.2126325
51
89.7333975
0
ARC
8
DEFAULT_255_2_778
10
7.7793853
20
50.0881211
40
0.9429038
50
89.2638155
51
100.5666868
0
ARC
8
DEFAULT_255_2_778
10
7.6660949
20
50.6579419
40
0.362036
50
99.4784875
51
124.329414
0
ARC
8
DEFAULT_255_2_778
10
7.5705593
20
50.806051
40
0.1859067
50
125.7571195
51
182.2824883
0
ARC
8
DEFAULT_255_2_778
10
7.5493239
20
50.7993629
40
0.1645253
50
180.2492993
51
239.8144161
0
ARC
8
DEFAULT_255_2_778
10
7.932718
20
51.3994128
40
0.876484
50
237.8725734
51
242.8068846
0
ARC
8
DEFAULT_255_2_778
10
9.4175857
20
54.2159958
40
4.0604642
50
242.3328458
51
244.031083
0
ARC
8
DEFAULT_255_2_778
10
12.3804066
20
60.2644314
40
10.7955807
50
243.950624
51
244.8024316
0
ARC
8
DEFAULT_255_2_778
10
15.4009918
20
66.6484175
40
17.8580926
50
244.7535425
51
244.9563234
0
ARC
8
DEFAULT_255_2_778
10
5.8652927
20
46.1468264
40
4.7527588
50
62.2505456
51
65.4301556
0
ARC
8
DEFAULT_255_2_778
10
6.9275435
20
48.1549172
40
2.4810291
50
57.2951304
51
62.3684211
0
ARC
8
DEFAULT_255_2_778
10
7.6807233
20
49.3182235
40
1.0952081
50
48.7345704
51
57.5685367
0
ARC
8
DEFAULT_255_2_778
10
8.0117486
20
49.7057722
40
0.5856147
50
44.3236031
51
48.0704418
0
ARC
8
DEFAULT_255_2_778
10
7.9783002
20
49.6857468
40
0.6236013
50
1.3523843
51
43.4925744
0
ARC
8
DEFAULT_255_2_778
10
7.7103531
20
49.6528151
40
0.8926473
50
359.9763756
51
3.0599076
0
ARC
8
DEFAULT_255_2_778
10
7.8645343
20
49.6377407
40
0.7386124
50
333.0361889
51
1.1408766
0
ARC
8
DEFAULT_255_2_778
10
7.8947908
20
49.6446919
40
0.7150741
50
300.8430083
51
331.4403095
0
ARC
8
DEFAULT_255_2_778
10
7.694568
20
49.9582162
40
1.0869673
50
281.4258583
51
301.4316118
0
ARC
8
DEFAULT_255_2_778
10
7.5632666
20
50.5664414
40
1.7091691
50
270.2273513
51
281.7010805
0
ARC
8
DEFAULT_255_2_778
10
7.5453797
20
51.0431043
40
2.1859577
50
269.9983113
51
270.6466065
0
LINE
8
DEFAULT_255_2_778
10
7.5453153
20
48.8571465
11
7.5438002
21
48.857147
0
ARC
8
DEFAULT_255_2_778
10
7.5509161
20
52.0400969
40
3.1829579
50
256.2431122
51
269.871909
0
ARC
8
DEFAULT_255_2_778
10
21.7538511
20
52.2646629
40
2.9720345
50
251.5709223
51
258.7508181
0
ARC
8
DEFAULT_255_2_778
10
21.5538128
20
51.2414385
40
1.9294488
50
258.6495077
51
268.8281511
0
ARC
8
DEFAULT_255_2_778
10
21.5355488
20
50.8466193
40
1.5343723
50
269.2085037
51
269.9981866
0
ARC
8
DEFAULT_255_2_778
10
21.5473849
20
50.3782184
40
1.0660376
50
269.3612297
51
279.5899087
0
ARC
8
DEFAULT_255_2_778
10
21.6608439
20
49.7467324
40
0.424527
50
278.6895227
51
300.2363944
0
ARC
8
DEFAULT_255_2_778
10
21.7799083
20
49.5432793
40
0.188796
50
300.1108484
51
1.9024905
0
ARC
8
DEFAULT_255_2_778
10
21.7439577
20
49.5539221
40
0.2246851
50
358.8842611
51
0.0019649
0
ARC
8
DEFAULT_255_2_778
10
21.7769791
20
49.5578385
40
0.1917038
50
358.831716
51
47.0900458
0
ARC
8
DEFAULT_255_2_778
10
21.6364654
20
49.398484
40
0.4041259
50
47.8812665
51
61.174665
0
ARC
8
DEFAULT_255_2_778
10
21.0418848
20
48.3785117
40
1.5846568
50
60.1210877
51
65.1917015
0
ARC
8
DEFAULT_255_2_778
10
20.1415278
20
46.4729122
40
3.6922188
50
64.9168629
51
67.1565628
0
ARC
8
DEFAULT_255_2_778
10
23.6275467
20
54.7444888
40
5.2839333
50
244.2656926
51
247.1407051
0
ARC
8
DEFAULT_255_2_778
10
22.5594997
20
52.536265
40
2.8309849
50
240.1545061
51
244.3326325
0
ARC
8
DEFAULT_255_2_778
10
21.7856548
20
51.2002346
40
1.2870531
50
232.697515
51
240.4357497
0
ARC
8
DEFAULT_255_2_778
10
21.3705506
20
50.6492218
40
0.5972006
50
225.5850892
51
232.3393736
0
ARC
8
DEFAULT_255_2_778
10
21.4133941
20
50.6787933
40
0.6483829
50
178.7795739
51
224.7095916
0
ARC
8
DEFAULT_255_2_778
10
21.6669319
20
50.7028135
40
0.9018316
50
179.997867
51
180.6487041
0
ARC
8
DEFAULT_255_2_778
10
21.5167738
20
50.7166249
40
0.7517998
50
156.9195758
51
181.050088
0
ARC
8
DEFAULT_255_2_778
10
21.3928482
20
50.7560712
40
0.6224513
50
124.7111133
51
155.7879672
0
ARC
8
DEFAULT_255_2_778
10
21.6055459
20
50.4641942
40
0.9835402
50
101.7934503
51
125.2143527
0
ARC
8
DEFAULT_255_2_778
10
21.729848
20
49.9116326
40
1.5498677
50
89.5248728
51
102.1166783
0
ARC
8
DEFAULT_255_2_778
10
21.7283109
20
49.3580834
40
2.1034129
50
83.2889725
51
89.6080411
0
ARC
8
DEFAULT_255_2_778
10
21.529975
20
47.5902668
40
3.8823067
50
79.4764054
51
83.4308492
0
ARC
8
DEFAULT_255_2_778
10
21.2186357
20
45.8370673
40
5.6628977
50
78.2224868
51
79.6190915
0
ARC
8
DEFAULT_255_2_778
10
21.6838473
20
49.1145715
40
1.9311543
50
67.1323814
51
78.3148813
0
ARC
8
DEFAULT_255_2_778
10
21.801359
20
49.6660614
40
1.3672981
50
78.4565774
51
89.7552271
0
ARC
8
DEFAULT_255_2_778
10
21.7951366
20
50.096947
40
0.9364778
50
89.2619009
51
100.5950934
0
ARC
8
DEFAULT_255_2_778
10
21.6824182
20
50.6624169
40
0.3599879
50
99.5087086
51
124.406715
0
ARC
8
DEFAULT_255_2_778
10
21.5878565
20
50.808843
40
0.1858061
50
125.8630185
51
182.2986975
0
ARC
8
DEFAULT_255_2_778
10
21.5497296
20
50.8013047
40
0.1475296
50
179.9666559
51
180.100057
0
ARC
8
DEFAULT_255_2_778
10
21.566185
20
50.801293
40
0.163985
50
180.0859454
51
239.8819968
0
ARC
8
DEFAULT_255_2_778
10
21.9379018
20
51.3880619
40
0.8584853
50
238.072871
51
243.0442008
0
ARC
8
DEFAULT_255_2_778
10
23.4872034
20
54.3530845
40
4.2038426
50
242.5409111
51
244.1884903
0
ARC
8
DEFAULT_255_2_778
10
26.6463384
20
60.847696
40
11.4260319
50
244.1076525
51
244.9219574
0
ARC
8
DEFAULT_255_2_778
10
29.9038827
20
67.771355
40
19.0777309
50
244.8743531
51
245.066969
0
ARC
8
DEFAULT_255_2_778
10
19.8865272
20
46.1791274
40
4.7250654
50
62.0340028
51
65.293009
0
ARC
8
DEFAULT_255_2_778
10
20.9507744
20
48.1740758
40
2.464003
50
57.1127289
51
62.13736
0
ARC
8
DEFAULT_255_2_778
10
21.7037139
20
49.3277906
40
1.0863604
50
48.3695509
51
57.4197129
0
ARC
8
DEFAULT_255_2_778
10
22.0286268
20
49.7045419
40
0.5889589
50
44.472493
51
47.6467012
0
ARC
8
DEFAULT_255_2_778
10
21.9979457
20
49.6874032
40
0.6229283
50
1.2061613
51
43.6203607
0
ARC
8
DEFAULT_255_2_778
10
21.7312413
20
49.6549903
40
0.890659
50
359.9779196
51
2.9299178
0
ARC
8
DEFAULT_255_2_778
10
21.8802547
20
49.6398837
40
0.7417924
50
333.172934
51
1.140392
0
ARC
8
DEFAULT_255_2_778
10
21.9146167
20
49.6445736
40
0.7135172
50
300.9808035
51
331.5913995
0
ARC
8
DEFAULT_255_2_778
10
21.7182603
20
49.9544862
40
1.0803281
50
281.9040909
51
301.4483918
0
ARC
8
DEFAULT_255_2_778
10
21.5848425
20
50.5530518
40
1.6935565
50
270.5796874
51
282.1436175
0
ARC
8
DEFAULT_255_2_778
10
21.5636722
20
51.0479735
40
2.1887267
50
269.9959074
51
271.0027751
0
LINE
8
DEFAULT_255_2_778
10
21.5635158
20
48.8592468
11
21.5625002
21
48.859247
0
ARC
8
DEFAULT_255_2_778
10
21.5700221
20
52.0480174
40
3.1887792
50
256.2556596
51
269.8648469
0
LINE
8
DEFAULT_255_2_778
10
6.7958002
20
48.950047
11
6.7958002
21
49.444747
0
LINE
8
DEFAULT_255_2_778
10
8.4164002
20
51.367747
11
8.4164002
21
50.891547
0
LINE
8
DEFAULT_255_2_778
10
6.7940002
20
48.948447
11
6.7958002
21
48.950047
0
LINE
8
DEFAULT_255_2_778
10
8.9866002
20
51.417247
11
9.6629002
21
51.417247
0
LINE
8
DEFAULT_255_2_778
10
9.6629002
20
51.417247
11
9.6629002
21
48.909847
0
LINE
8
DEFAULT_255_2_778
10
9.6629002
20
48.909847
11
8.9866002
21
48.909847
0
LINE
8
DEFAULT_255_2_778
10
8.9866002
20
48.909847
11
8.9866002
21
51.417247
0
LINE
8
DEFAULT_255_2_778
10
10.2809002
20
48.909847
11
10.2809002
21
51.417247
0
LINE
8
DEFAULT_255_2_778
10
10.2809002
20
51.417247
11
12.0132002
21
51.417247
0
LINE
8
DEFAULT_255_2_778
10
12.0132002
20
51.417247
11
12.0132002
21
50.963547
0
LINE
8
DEFAULT_255_2_778
10
12.0132002
20
50.963547
11
10.9321002
21
50.963547
0
LINE
8
DEFAULT_255_2_778
10
10.9321002
20
50.963547
11
10.9321002
21
50.397247
0
LINE
8
DEFAULT_255_2_778
10
10.9321002
20
50.397247
11
11.8735002
21
50.397247
0
LINE
8
DEFAULT_255_2_778
10
11.8735002
20
50.397247
11
11.8735002
21
49.983747
0
LINE
8
DEFAULT_255_2_778
10
11.8735002
20
49.983747
11
10.9321002
21
49.983747
0
LINE
8
DEFAULT_255_2_778
10
10.9321002
20
49.983747
11
10.9321002
21
49.388447
0
LINE
8
DEFAULT_255_2_778
10
10.9321002
20
49.388447
11
12.0412002
21
49.388447
0
LINE
8
DEFAULT_255_2_778
10
12.0412002
20
49.388447
11
12.0412002
21
48.908247
0
LINE
8
DEFAULT_255_2_778
10
12.0412002
20
48.908247
11
10.2809002
21
48.909847
0
LINE
8
DEFAULT_255_2_778
10
12.4817002
20
48.909847
11
12.4817002
21
51.417247
0
LINE
8
DEFAULT_255_2_778
10
12.4817002
20
51.417247
11
13.3575002
21
51.417247
0
LINE
8
DEFAULT_255_2_778
10
13.3575002
20
51.417247
11
13.9671002
21
49.814947
0
LINE
8
DEFAULT_255_2_778
10
13.9671002
20
49.814947
11
14.5897002
21
51.417247
0
LINE
8
DEFAULT_255_2_778
10
14.5897002
20
51.417247
11
15.4215002
21
51.417247
0
LINE
8
DEFAULT_255_2_778
10
15.4215002
20
51.417247
11
15.4215002
21
48.909847
0
LINE
8
DEFAULT_255_2_778
10
15.4215002
20
48.909847
11
14.7812002
21
48.909847
0
LINE
8
DEFAULT_255_2_778
10
14.7812002
20
48.909847
11
14.7812002
21
50.685647
0
LINE
8
DEFAULT_255_2_778
10
14.7812002
20
50.685647
11
14.0724002
21
48.885447
0
LINE
8
DEFAULT_255_2_778
10
14.0724002
20
48.885447
11
13.6515002
21
48.885447
0
LINE
8
DEFAULT_255_2_778
10
13.6515002
20
48.885447
11
12.9559002
21
50.685647
0
LINE
8
DEFAULT_255_2_778
10
12.9559002
20
50.685647
11
12.9559002
21
48.909547
0
LINE
8
DEFAULT_255_2_778
10
12.9559002
20
48.909547
11
12.4817002
21
48.909847
0
LINE
8
DEFAULT_255_2_778
10
16.0409002
20
48.909847
11
16.0409002
21
51.417247
0
LINE
8
DEFAULT_255_2_778
10
16.0409002
20
51.417247
11
17.7731002
21
51.417247
0
LINE
8
DEFAULT_255_2_778
10
17.7731002
20
51.417247
11
17.7731002
21
50.963547
0
LINE
8
DEFAULT_255_2_778
10
17.7731002
20
50.963547
11
16.6921002
21
50.963547
0
LINE
8
DEFAULT_255_2_778
10
16.6921002
20
50.963547
11
16.6921002
21
50.397247
0
LINE
8
DEFAULT_255_2_778
10
16.6921002
20
50.397247
11
17.6334002
21
50.397247
0
LINE
8
DEFAULT_255_2_778
10
17.6334002
20
50.397247
11
17.6334002
21
49.983747
0
LINE
8
DEFAULT_255_2_778
10
17.6334002
20
49.983747
11
16.6921002
21
49.983747
0
LINE
8
DEFAULT_255_2_778
10
16.6921002
20
49.983747
11
16.6921002
21
49.388447
0
LINE
8
DEFAULT_255_2_778
10
16.6921002
20
49.388447
11
17.8030002
21
49.388447
0
LINE
8
DEFAULT_255_2_778
10
17.8030002
20
49.388447
11
17.8030002
21
48.908247
0
LINE
8
DEFAULT_255_2_778
10
17.8030002
20
48.908247
11
16.0409002
21
48.909847
0
LINE
8
DEFAULT_255_2_778
10
18.2454002
20
48.909847
11
18.2454002
21
51.417247
0
LINE
8
DEFAULT_255_2_778
10
18.2454002
20
51.417247
11
19.0283002
21
51.417247
0
LINE
8
DEFAULT_255_2_778
10
19.0283002
20
51.417247
11
19.8586002
21
49.738447
0
LINE
8
DEFAULT_255_2_778
10
19.8586002
20
49.738447
11
19.8586002
21
51.417247
0
LINE
8
DEFAULT_255_2_778
10
19.8586002
20
51.417247
11
20.3343002
21
51.417247
0
LINE
8
DEFAULT_255_2_778
10
20.3343002
20
51.417247
11
20.3343002
21
48.909847
0
LINE
8
DEFAULT_255_2_778
10
20.3343002
20
48.909847
11
19.5739002
21
48.909847
0
LINE
8
DEFAULT_255_2_778
10
19.5739002
20
48.909847
11
18.7214002
21
50.611047
0
LINE
8
DEFAULT_255_2_778
10
18.7214002
20
50.611047
11
18.7214002
21
48.909847
0
LINE
8
DEFAULT_255_2_778
10
18.7214002
20
48.909847
11
18.2454002
21
48.909847
0
LINE
8
DEFAULT_255_2_778
10
20.8143002
20
48.950247
11
20.8143002
21
49.445047
0
LINE
8
DEFAULT_255_2_778
10
22.3745002
20
51.380747
11
22.4343002
21
51.370147
0
LINE
8
DEFAULT_255_2_778
10
22.4343002
20
51.370147
11
22.4343002
21
50.893947
0
LINE
8
DEFAULT_255_2_778
10
20.8124002
20
48.950547
11
20.8143002
21
48.950247
0
LINE
8
DEFAULT_255_1_234
10
8.6238023
20
47.1434849
11
8.4687897
21
47.1434849
0
LINE
8
DEFAULT_255_1_234
10
7.7764539
20
46.6511394
11
7.9314665
21
46.6511394
0
ARC
8
DEFAULT_255_1_234
10
8.534671
20
48.0381768
40
1.252368
50
248.9199003
51
254.1439814
0
ARC
8
DEFAULT_255_1_234
10
8.3666205
20
47.6055234
40
0.788226
50
241.633709
51
249.0064503
0
ARC
8
DEFAULT_255_1_234
10
8.21376
20
47.3254317
40
0.4691427
50
230.498225
51
241.8087113
0
ARC
8
DEFAULT_255_1_234
10
8.1353174
20
47.2254906
40
0.3421437
50
227.4064532
51
229.9881192
0
ARC
8
DEFAULT_255_1_234
10
8.0865694
20
47.1779088
40
0.2741476
50
200.6781896
51
228.1763934
0
ARC
8
DEFAULT_255_1_234
10
8.0938005
20
47.1764077
40
0.2804109
50
179.5061581
51
199.8694617
0
ARC
8
DEFAULT_255_1_234
10
8.0928757
20
47.183821
40
0.2795204
50
132.4834203
51
181.0242172
0
ARC
8
DEFAULT_255_1_234
10
8.1524339
20
47.1275704
40
0.3612768
50
129.2532479
51
133.4242687
0
ARC
8
DEFAULT_255_1_234
10
8.1670789
20
47.1055965
40
0.3875675
50
101.98776
51
128.8742646
0
ARC
8
DEFAULT_255_1_234
10
8.2069399
20
46.9334741
40
0.5642249
50
89.5906553
51
102.3169264
0
ARC
8
DEFAULT_255_1_234
10
8.2139891
20
46.9653148
40
0.5323783
50
77.2360837
51
90.3248275
0
ARC
8
DEFAULT_255_1_234
10
8.2346971
20
47.06204
40
0.4334697
50
63.837784
51
77.0809408
0
ARC
8
DEFAULT_255_1_234
10
8.2624732
20
47.1137911
40
0.3747796
50
45.9864267
51
64.1607727
0
ARC
8
DEFAULT_255_1_234
10
8.2885614
20
47.1435866
40
0.3352302
50
32.2747395
51
45.6547121
0
ARC
8
DEFAULT_255_1_234
10
8.2952054
20
47.145488
40
0.328603
50
359.6507365
51
32.6130309
0
ARC
8
DEFAULT_255_1_234
10
8.200915
20
47.145966
40
0.2678863
50
359.469343
51
14.9832209
0
ARC
8
DEFAULT_255_1_234
10
8.2714212
20
47.1648539
40
0.1948938
50
14.9781179
51
48.2004265
0
ARC
8
DEFAULT_255_1_234
10
8.2549856
20
47.1441983
40
0.2212521
50
48.5927837
51
74.1241538
0
ARC
8
DEFAULT_255_1_234
10
8.2216346
20
47.0341248
40
0.3362561
50
73.7888341
51
86.6652678
0
ARC
8
DEFAULT_255_1_234
10
8.2113911
20
46.9133881
40
0.4573953
50
86.2640471
51
90.0526343
0
ARC
8
DEFAULT_255_1_234
10
8.2085624
20
46.9529192
40
0.4178709
50
89.6697524
51
99.2309573
0
ARC
8
DEFAULT_255_1_234
10
8.1843075
20
47.0973964
40
0.2713749
50
99.069534
51
113.7658566
0
ARC
8
DEFAULT_255_1_234
10
8.1569266
20
47.1619677
40
0.2012469
50
114.0401004
51
127.9850673
0
ARC
8
DEFAULT_255_1_234
10
8.132883
20
47.191573
40
0.1631167
50
127.7287463
51
176.7105154
0
ARC
8
DEFAULT_255_1_234
10
8.2007547
20
47.1814693
40
0.2315392
50
175.1779447
51
180.0581938
0
ARC
8
DEFAULT_255_1_234
10
8.1164394
20
47.1802428
40
0.1472271
50
179.6142195
51
228.1246017
0
ARC
8
DEFAULT_255_1_234
10
8.1606063
20
47.2211308
40
0.2072299
50
226.5779593
51
230.8800004
0
ARC
8
DEFAULT_255_1_234
10
8.2077141
20
47.2836636
40
0.2854818
50
231.4635071
51
241.9260842
0
ARC
8
DEFAULT_255_1_234
10
8.3274319
20
47.50398
40
0.53622
50
241.7178533
51
248.3259551
0
ARC
8
DEFAULT_255_1_234
10
8.4659691
20
47.8472064
40
0.9063478
50
248.2007737
51
252.4528373
0
ARC
8
DEFAULT_255_1_234
10
8.5863416
20
48.2193441
40
1.2974635
50
252.3391078
51
254.3469452
0
ARC
8
DEFAULT_255_1_234
10
7.8321119
20
45.5216148
40
1.5037162
50
71.0197183
51
74.4087047
0
ARC
8
DEFAULT_255_1_234
10
8.0015804
20
46.0108111
40
0.9859993
50
66.1847285
51
71.086374
0
ARC
8
DEFAULT_255_1_234
10
8.1572116
20
46.36122
40
0.6025855
50
59.3536294
51
66.2691831
0
ARC
8
DEFAULT_255_1_234
10
8.2460769
20
46.5115609
40
0.4279449
50
49.1020879
51
59.3293958
0
ARC
8
DEFAULT_255_1_234
10
8.3279509
20
46.6048834
40
0.3038015
50
32.7919921
51
49.2505539
0
ARC
8
DEFAULT_255_1_234
10
8.3600599
20
46.6277191
40
0.264448
50
31.1181161
51
32.4005348
0
ARC
8
DEFAULT_255_1_234
10
8.3512136
20
46.6241779
40
0.2738556
50
8.1116974
51
30.7958831
0
ARC
8
DEFAULT_255_1_234
10
8.2701804
20
46.6103753
40
0.3560327
50
359.8389159
51
8.4706516
0
ARC
8
DEFAULT_255_1_234
10
8.3327596
20
46.6055137
40
0.2934776
50
337.4731098
51
0.7537279
0
ARC
8
DEFAULT_255_1_234
10
8.3506291
20
46.6035387
40
0.2762607
50
307.5917067
51
336.4315538
0
ARC
8
DEFAULT_255_1_234
10
8.3046119
20
46.6548102
40
0.3449979
50
307.6551545
51
308.4529766
0
ARC
8
DEFAULT_255_1_234
10
8.2815838
20
46.690325
40
0.3871988
50
284.3734338
51
307.1424381
0
ARC
8
DEFAULT_255_1_234
10
8.2320668
20
46.8724932
40
0.5759636
50
272.4382747
51
284.646547
0
ARC
8
DEFAULT_255_1_234
10
8.2193876
20
47.0524893
40
0.7563528
50
269.9708387
51
272.8178037
0
ARC
8
DEFAULT_255_1_234
10
8.2150916
20
46.8486716
40
0.5525489
50
248.2707594
51
270.4055579
0
ARC
8
DEFAULT_255_1_234
10
8.2096657
20
46.8296192
40
0.5328452
50
246.1383403
51
248.0542782
0
ARC
8
DEFAULT_255_1_234
10
8.1678036
20
46.7416843
40
0.4355005
50
233.1670131
51
246.4950969
0
ARC
8
DEFAULT_255_1_234
10
8.1123941
20
46.6668812
40
0.3424126
50
215.3403242
51
233.0843104
0
ARC
8
DEFAULT_255_1_234
10
8.0851372
20
46.6470549
40
0.3087104
50
179.2419209
51
215.2648451
0
ARC
8
DEFAULT_255_1_234
10
8.1618966
20
46.6484666
40
0.2304457
50
179.335461
51
199.1045811
0
ARC
8
DEFAULT_255_1_234
10
8.1286643
20
46.6397766
40
0.1962176
50
199.8828939
51
232.7063202
0
ARC
8
DEFAULT_255_1_234
10
8.1758911
20
46.6991788
40
0.2720938
50
232.3738199
51
255.5136649
0
ARC
8
DEFAULT_255_1_234
10
8.2099778
20
46.8235835
40
0.4010747
50
255.2446292
51
267.5320849
0
ARC
8
DEFAULT_255_1_234
10
8.2187401
20
46.9468702
40
0.5246356
50
267.1557994
51
270.0286766
0
ARC
8
DEFAULT_255_1_234
10
8.2215173
20
46.902495
40
0.4802668
50
269.7000017
51
278.1660162
0
ARC
8
DEFAULT_255_1_234
10
8.2471178
20
46.7294515
40
0.3053425
50
278.0231263
51
290.625471
0
ARC
8
DEFAULT_255_1_234
10
8.2818865
20
46.6367025
40
0.206291
50
290.6619762
51
307.0370976
0
ARC
8
DEFAULT_255_1_234
10
8.3119254
20
46.5998504
40
0.1587906
50
306.3943566
51
355.3030547
0
ARC
8
DEFAULT_255_1_234
10
8.2607186
20
46.6075113
40
0.2104809
50
354.3660432
51
0.0698737
0
ARC
8
DEFAULT_255_1_234
10
8.2749531
20
46.6097617
40
0.1962563
50
359.417946
51
16.1971788
0
ARC
8
DEFAULT_255_1_234
10
8.3204841
20
46.6222418
40
0.149053
50
16.4723299
51
52.6262157
0
ARC
8
DEFAULT_255_1_234
10
8.2383895
20
46.5138433
40
0.2850296
50
52.7386432
51
62.4979148
0
ARC
8
DEFAULT_255_1_234
10
8.0998972
20
46.2532283
40
0.5801521
50
62.2515216
51
68.1220564
0
ARC
8
DEFAULT_255_1_234
10
7.9278883
20
45.8304872
40
1.0365451
50
68.0062803
51
71.8053402
0
ARC
8
DEFAULT_255_1_234
10
7.7483255
20
45.2919758
40
1.6042013
50
71.7183119
51
73.9258742
0
LINE
8
DEFAULT_255_1_234
10
8.9892464
20
47.4816211
11
8.9892464
21
46.3122
0
LINE
8
DEFAULT_255_1_234
10
8.9892464
20
46.3122
11
8.835037
21
46.3122
0
LINE
8
DEFAULT_255_1_234
10
8.835037
20
46.3122
11
8.835037
21
47.4816211
0
LINE
8
DEFAULT_255_1_234
10
8.835037
20
47.4816211
11
8.9892464
21
47.4816211
0
LINE
8
DEFAULT_255_1_234
10
9.2711604
20
47.4816211
11
9.4703475
21
47.4816211
0
LINE
8
DEFAULT_255_1_234
10
9.4703475
20
47.4816211
11
9.8526583
21
46.5274506
0
LINE
8
DEFAULT_255_1_234
10
9.8526583
20
46.5274506
11
10.234969
21
47.4816211
0
LINE
8
DEFAULT_255_1_234
10
10.234969
20
47.4816211
11
10.4349593
21
47.4816211
0
LINE
8
DEFAULT_255_1_234
10
10.4349593
20
47.4816211
11
10.4349593
21
46.3122
0
LINE
8
DEFAULT_255_1_234
10
10.4349593
20
46.3122
11
10.2807499
21
46.3122
0
LINE
8
DEFAULT_255_1_234
10
10.2807499
20
46.3122
11
10.2807499
21
46.7675996
0
LINE
8
DEFAULT_255_1_234
10
10.2807499
20
46.7675996
11
10.295207
21
47.2591419
0
LINE
8
DEFAULT_255_1_234
10
10.295207
20
47.2591419
11
9.9112899
21
46.3122
0
LINE
8
DEFAULT_255_1_234
10
9.9112899
20
46.3122
11
9.7932234
21
46.3122
0
LINE
8
DEFAULT_255_1_234
10
9.7932234
20
46.3122
11
9.4101095
21
47.2567324
0
LINE
8
DEFAULT_255_1_234
10
9.4101095
20
47.2567324
11
9.4253698
21
46.7675996
0
LINE
8
DEFAULT_255_1_234
10
9.4253698
20
46.7675996
11
9.4253698
21
46.3122
0
LINE
8
DEFAULT_255_1_234
10
9.4253698
20
46.3122
11
9.2711604
21
46.3122
0
LINE
8
DEFAULT_255_1_234
10
9.2711604
20
46.3122
11
9.2711604
21
47.4816211
0
LINE
8
DEFAULT_255_1_234
10
11.4790853
20
46.3122
11
11.3674441
21
46.6174061
0
LINE
8
DEFAULT_255_1_234
10
11.3674441
20
46.6174061
11
10.8775081
21
46.6174061
0
LINE
8
DEFAULT_255_1_234
10
10.8775081
20
46.6174061
11
10.7674732
21
46.3122
0
LINE
8
DEFAULT_255_1_234
10
10.7674732
20
46.3122
11
10.6084448
21
46.3122
0
LINE
8
DEFAULT_255_1_234
10
10.6084448
20
46.3122
11
11.0550095
21
47.4816211
0
LINE
8
DEFAULT_255_1_234
10
11.0550095
20
47.4816211
11
11.1899427
21
47.4816211
0
LINE
8
DEFAULT_255_1_234
10
11.1899427
20
47.4816211
11
11.6373105
21
46.3122
0
LINE
8
DEFAULT_255_1_234
10
11.6373105
20
46.3122
11
11.4790853
21
46.3122
0
LINE
8
DEFAULT_255_1_234
10
11.1224761
20
47.2912689
11
10.9240921
21
46.7443075
0
LINE
8
DEFAULT_255_1_234
10
10.9240921
20
46.7443075
11
11.3216632
21
46.7443075
0
LINE
8
DEFAULT_255_1_234
10
11.3216632
20
46.7443075
11
11.1224761
21
47.2912689
0
LINE
8
DEFAULT_255_1_234
10
12.499116
20
47.4816211
11
12.499116
21
47.3547196
0
LINE
8
DEFAULT_255_1_234
10
12.499116
20
47.3547196
11
12.1232307
21
47.3547196
0
LINE
8
DEFAULT_255_1_234
10
12.1232307
20
47.3547196
11
12.1232307
21
46.3122
0
LINE
8
DEFAULT_255_1_234
10
12.1232307
20
46.3122
11
11.9698245
21
46.3122
0
LINE
8
DEFAULT_255_1_234
10
11.9698245
20
46.3122
11
11.9698245
21
47.3547196
0
LINE
8
DEFAULT_255_1_234
10
11.9698245
20
47.3547196
11
11.5947423
21
47.3547196
0
LINE
8
DEFAULT_255_1_234
10
11.5947423
20
47.3547196
11
11.5947423
21
47.4816211
0
LINE
8
DEFAULT_255_1_234
10
11.5947423
20
47.4816211
11
12.499116
21
47.4816211
0
LINE
8
DEFAULT_255_1_234
10
12.8380554
20
47.4816211
11
12.8380554
21
46.3122
0
LINE
8
DEFAULT_255_1_234
10
12.8380554
20
46.3122
11
12.683846
21
46.3122
0
LINE
8
DEFAULT_255_1_234
10
12.683846
20
46.3122
11
12.683846
21
47.4816211
0
LINE
8
DEFAULT_255_1_234
10
12.683846
20
47.4816211
11
12.8380554
21
47.4816211
0
LINE
8
DEFAULT_255_1_234
10
13.825156
20
46.6832663
11
13.9801686
21
46.6832663
0
LINE
8
DEFAULT_255_1_234
10
13.0798107
20
46.8422947
11
13.0798107
21
46.9547391
0
LINE
8
DEFAULT_255_1_234
10
13.9801686
20
47.1057357
11
13.825156
21
47.1057357
0
LINE
8
DEFAULT_255_1_234
10
13.2348232
20
46.9507232
11
13.2348232
21
46.8374757
0
ARC
8
DEFAULT_255_1_234
10
13.4321072
20
46.7429846
40
0.5513052
50
340.1774281
51
353.7814284
0
ARC
8
DEFAULT_255_1_234
10
13.5892425
20
46.6844582
40
0.3836379
50
311.4558989
51
340.4421614
0
ARC
8
DEFAULT_255_1_234
10
13.5859093
20
46.6955528
40
0.3941894
50
282.4333181
51
310.7513653
0
ARC
8
DEFAULT_255_1_234
10
13.5419832
20
46.8770679
40
0.5809175
50
269.9358511
51
282.809604
0
ARC
8
DEFAULT_255_1_234
10
13.5367899
20
47.0228212
40
0.7266847
50
270.0021091
51
270.3581957
0
ARC
8
DEFAULT_255_1_234
10
13.5315315
20
46.7627585
40
0.4666519
50
250.7884749
51
270.6489167
0
ARC
8
DEFAULT_255_1_234
10
13.514715
20
46.6990319
40
0.4009729
50
219.3627325
51
250.0611886
0
ARC
8
DEFAULT_255_1_234
10
13.5976361
20
46.7695042
40
0.5097822
50
193.5479632
51
219.5756669
0
ARC
8
DEFAULT_255_1_234
10
13.8347982
20
46.8310919
40
0.7547848
50
181.1218675
51
193.87563
0
ARC
8
DEFAULT_255_1_234
10
14.0418163
20
46.842158
40
0.9620055
50
179.9918545
51
181.5394234
0
ARC
8
DEFAULT_255_1_234
10
13.8567265
20
46.9584788
40
0.7769248
50
169.5837241
51
180.2757934
0
ARC
8
DEFAULT_255_1_234
10
13.6730203
20
46.9924229
40
0.590109
50
155.0365899
51
169.6003176
0
ARC
8
DEFAULT_255_1_234
10
13.5594667
20
47.0471677
40
0.4640625
50
136.783148
51
155.2472683
0
ARC
8
DEFAULT_255_1_234
10
13.5205144
20
47.0802562
40
0.4130255
50
121.7633186
51
136.428115
0
ARC
8
DEFAULT_255_1_234
10
13.5340106
20
47.0553227
40
0.4413323
50
95.6459699
51
121.5490577
0
ARC
8
DEFAULT_255_1_234
10
13.5497388
20
46.9444949
40
0.55319
50
89.924208
51
96.1377933
0
ARC
8
DEFAULT_255_1_234
10
13.5547821
20
46.9563542
40
0.5413475
50
76.6779277
51
90.4563316
0
ARC
8
DEFAULT_255_1_234
10
13.5941444
20
47.1154114
40
0.3775041
50
47.485847
51
76.9287264
0
ARC
8
DEFAULT_255_1_234
10
13.5794417
20
47.1054159
40
0.3948286
50
16.5424086
51
46.8933463
0
ARC
8
DEFAULT_255_1_234
10
13.4186574
20
47.0525861
40
0.564021
50
5.4072051
51
17.0365086
0
ARC
8
DEFAULT_255_1_234
10
13.2747591
20
47.0294679
40
0.5556559
50
7.8891745
51
15.9239216
0
ARC
8
DEFAULT_255_1_234
10
13.4734605
20
47.0871631
40
0.3487515
50
15.7653144
51
27.9410532
0
ARC
8
DEFAULT_255_1_234
10
13.5838822
20
47.146279
40
0.2235026
50
27.8166557
51
46.4008329
0
ARC
8
DEFAULT_255_1_234
10
13.5888465
20
47.1457082
40
0.2205286
50
47.4371857
51
75.0698205
0
ARC
8
DEFAULT_255_1_234
10
13.557986
20
47.0382765
40
0.3322915
50
74.7008593
51
87.8124495
0
ARC
8
DEFAULT_255_1_234
10
13.5506547
20
46.9326844
40
0.4380987
50
87.3814673
51
90.0240855
0
ARC
8
DEFAULT_255_1_234
10
13.5468091
20
47.0504291
40
0.3203749
50
89.3451631
51
108.5745436
0
ARC
8
DEFAULT_255_1_234
10
13.5331196
20
47.1017908
40
0.2673494
50
109.2998449
51
143.3037509
0
ARC
8
DEFAULT_255_1_234
10
13.6093268
20
47.0431881
40
0.3634757
50
143.0753173
51
163.1916937
0
ARC
8
DEFAULT_255_1_234
10
13.8044996
20
46.9815967
40
0.5681262
50
162.9373603
51
174.6208611
0
ARC
8
DEFAULT_255_1_234
10
14.0671038
20
46.952801
40
0.8322832
50
174.3419979
51
180.1430411
0
ARC
8
DEFAULT_255_1_234
10
13.9740194
20
46.8333698
40
0.7392076
50
179.6817502
51
189.150529
0
ARC
8
DEFAULT_255_1_234
10
13.7239443
20
46.791719
40
0.4856932
50
188.9910863
51
203.5773039
0
ARC
8
DEFAULT_255_1_234
10
13.6159775
20
46.7469211
40
0.3688271
50
203.9077269
51
215.1312379
0
ARC
8
DEFAULT_255_1_234
10
13.5236869
20
46.6753941
40
0.2522457
50
213.9071664
51
263.8849284
0
ARC
8
DEFAULT_255_1_234
10
13.5362198
20
46.7538518
40
0.3316174
50
263.1758525
51
270.1031083
0
ARC
8
DEFAULT_255_1_234
10
13.539429
20
46.8785365
40
0.4563091
50
269.6719807
51
279.0609165
0
ARC
8
DEFAULT_255_1_234
10
13.5661058
20
46.7172907
40
0.2928759
50
278.8750225
51
293.6346586
0
ARC
8
DEFAULT_255_1_234
10
13.5981266
20
46.64209
40
0.2111472
50
293.8553404
51
310.0518804
0
ARC
8
DEFAULT_255_1_234
10
13.598612
20
46.6358516
40
0.2060917
50
311.0646779
51
332.0108348
0
ARC
8
DEFAULT_255_1_234
10
13.4793847
20
46.7015978
40
0.3422352
50
331.6588543
51
343.2878891
0
ARC
8
DEFAULT_255_1_234
10
13.2731362
20
46.7649798
40
0.5580003
50
343.1446044
51
351.010618
0
ARC
8
DEFAULT_255_1_234
10
13.1190008
20
46.7930871
40
0.7146438
50
350.7157277
51
351.1602153
0
LINE
8
DEFAULT_255_1_234
10
15.2588213
20
46.9788343
11
15.2588213
21
46.852736
0
LINE
8
DEFAULT_255_1_234
10
15.2588213
20
46.852736
11
14.7520186
21
46.852736
0
LINE
8
DEFAULT_255_1_234
10
14.7520186
20
46.852736
11
14.7520186
21
46.4382983
0
LINE
8
DEFAULT_255_1_234
10
14.7520186
20
46.4382983
11
15.340745
21
46.4382983
0
LINE
8
DEFAULT_255_1_234
10
15.340745
20
46.4382983
11
15.340745
21
46.3122
0
LINE
8
DEFAULT_255_1_234
10
15.340745
20
46.3122
11
14.5978092
21
46.3122
0
LINE
8
DEFAULT_255_1_234
10
14.5978092
20
46.3122
11
14.5978092
21
47.4816211
0
LINE
8
DEFAULT_255_1_234
10
14.5978092
20
47.4816211
11
15.3327133
21
47.4816211
0
LINE
8
DEFAULT_255_1_234
10
15.3327133
20
47.4816211
11
15.3327133
21
47.3547196
0
LINE
8
DEFAULT_255_1_234
10
15.3327133
20
47.3547196
11
14.7520186
21
47.3547196
0
LINE
8
DEFAULT_255_1_234
10
14.7520186
20
47.3547196
11
14.7520186
21
46.9788343
0
LINE
8
DEFAULT_255_1_234
10
14.7520186
20
46.9788343
11
15.2588213
21
46.9788343
0
LINE
8
DEFAULT_255_1_234
10
16.3567599
20
47.4816211
11
16.3567599
21
47.3547196
0
LINE
8
DEFAULT_255_1_234
10
16.3567599
20
47.3547196
11
15.9808746
21
47.3547196
0
LINE
8
DEFAULT_255_1_234
10
15.9808746
20
47.3547196
11
15.9808746
21
46.3122
0
LINE
8
DEFAULT_255_1_234
10
15.9808746
20
46.3122
11
15.8274684
21
46.3122
0
LINE
8
DEFAULT_255_1_234
10
15.8274684
20
46.3122
11
15.8274684
21
47.3547196
0
LINE
8
DEFAULT_255_1_234
10
15.8274684
20
47.3547196
11
15.4523862
21
47.3547196
0
LINE
8
DEFAULT_255_1_234
10
15.4523862
20
47.3547196
11
15.4523862
21
47.4816211
0
LINE
8
DEFAULT_255_1_234
10
15.4523862
20
47.4816211
11
16.3567599
21
47.4816211
0
LINE
8
DEFAULT_255_1_234
10
17.2579209
20
46.4334792
11
17.2579209
21
46.3122
0
LINE
8
DEFAULT_255_1_234
10
17.2579209
20
46.3122
11
16.4916931
21
46.3122
0
LINE
8
DEFAULT_255_1_234
10
16.4916931
20
46.3122
11
16.4916931
21
46.4190221
0
LINE
8
DEFAULT_255_1_234
10
16.4916931
20
46.4190221
11
16.8964927
21
46.8687995
0
LINE
8
DEFAULT_255_1_234
10
16.6177914
20
47.1370595
11
16.4692042
21
47.1370595
0
LINE
8
DEFAULT_255_1_234
10
16.9840387
20
46.7732218
11
16.6708009
21
46.4334792
0
LINE
8
DEFAULT_255_1_234
10
16.6708009
20
46.4334792
11
17.2579209
21
46.4334792
0
ARC
8
DEFAULT_255_1_234
10
15.5474761
20
48.0617527
40
1.8008286
50
318.5132453
51
320.7828378
0
ARC
8
DEFAULT_255_1_234
10
16.0761735
20
47.6314426
40
1.1191493
50
320.7372736
51
323.9737074
0
ARC
8
DEFAULT_255_1_234
10
16.4681591
20
47.3474361
40
0.6350923
50
323.8961724
51
328.6421089
0
ARC
8
DEFAULT_255_1_234
10
16.6728187
20
47.2212031
40
0.3946393
50
328.8299013
51
331.789948
0
ARC
8
DEFAULT_255_1_234
10
16.7725365
20
47.1697509
40
0.2824501
50
331.4255242
51
352.9364833
0
ARC
8
DEFAULT_255_1_234
10
16.7861866
20
47.1666976
40
0.2685315
50
353.2248685
51
0.0169286
0
ARC
8
DEFAULT_255_1_234
10
16.8071743
20
47.168995
40
0.2475536
50
359.4866256
51
15.9339782
0
ARC
8
DEFAULT_255_1_234
10
16.8578728
20
47.1826286
40
0.1950618
50
16.1714718
51
43.5284424
0
ARC
8
DEFAULT_255_1_234
10
16.8656037
20
47.1903573
40
0.184134
50
43.4415429
51
83.1661404
0
ARC
8
DEFAULT_255_1_234
10
16.8521955
20
47.1166771
40
0.258926
50
82.160215
51
90.1505798
0
ARC
8
DEFAULT_255_1_234
10
16.8490382
20
47.0629865
40
0.3126255
50
89.5460705
51
102.5418777
0
ARC
8
DEFAULT_255_1_234
10
16.8247468
20
47.1660665
40
0.2067346
50
102.1739365
51
129.2061916
0
ARC
8
DEFAULT_255_1_234
10
16.816854
20
47.1785094
40
0.1921118
50
129.7279328
51
135.7542026
0
ARC
8
DEFAULT_255_1_234
10
16.8290068
20
47.1688045
40
0.2075944
50
136.175737
51
166.3674722
0
ARC
8
DEFAULT_255_1_234
10
16.9296987
20
47.1418182
40
0.3118201
50
165.9092917
51
178.8683903
0
ARC
8
DEFAULT_255_1_234
10
17.0161848
20
47.1371179
40
0.3983935
50
178.438168
51
180.0083905
0
ARC
8
DEFAULT_255_1_234
10
16.876045
20
47.1410231
40
0.4068601
50
163.2878735
51
180.5581814
0
ARC
8
DEFAULT_255_1_234
10
16.7958712
20
47.163084
40
0.3237344
50
133.454115
51
162.9470031
0
ARC
8
DEFAULT_255_1_234
10
16.8137253
20
47.1441
40
0.349795
50
100.7869394
51
133.4384016
0
ARC
8
DEFAULT_255_1_234
10
16.8485024
20
46.9892319
40
0.5084616
50
89.6605301
51
101.3704185
0
ARC
8
DEFAULT_255_1_234
10
16.8551363
20
46.9953496
40
0.502348
50
78.2171172
51
90.4130393
0
ARC
8
DEFAULT_255_1_234
10
16.8906442
20
47.1577637
40
0.3361092
50
55.9268222
51
78.4888551
0
ARC
8
DEFAULT_255_1_234
10
16.9102882
20
47.1916324
40
0.2970617
50
47.9292255
51
55.4054003
0
ARC
8
DEFAULT_255_1_234
10
16.9204442
20
47.2019502
40
0.2825983
50
4.3347696
51
48.0560701
0
ARC
8
DEFAULT_255_1_234
10
16.8108836
20
47.1849601
40
0.393225
50
359.925209
51
5.5967654
0
ARC
8
DEFAULT_255_1_234
10
16.8537728
20
47.1905816
40
0.3503892
50
337.8914096
51
358.9967724
0
ARC
8
DEFAULT_255_1_234
10
16.582414
20
47.2952706
40
0.6412172
50
326.9135351
51
338.3505194
0
ARC
8
DEFAULT_255_1_234
10
16.1838444
20
47.5507284
40
1.1146189
50
319.6472867
51
327.095818
0
ARC
8
DEFAULT_255_1_234
10
15.8005447
20
47.8669
40
1.6114559
50
317.2586784
51
319.9046139
0
LINE
8
DEFAULT_255_1_234
10
18.1486407
20
47.0037327
11
18.1486407
21
46.8109709
0
LINE
8
DEFAULT_255_1_234
10
17.410524
20
46.7908916
11
17.410524
21
46.9892755
0
LINE
8
DEFAULT_255_1_234
10
18.0000536
20
46.7708123
11
18.0000536
21
47.0141739
0
LINE
8
DEFAULT_255_1_234
10
17.5591111
20
47.0254184
11
17.5591111
21
46.7876789
0
ARC
8
DEFAULT_255_1_234
10
16.9239297
20
46.8060805
40
1.2247208
50
353.8441951
51
0.2287902
0
ARC
8
DEFAULT_255_1_234
10
17.38788
20
46.7542806
40
0.7578929
50
344.4934747
51
353.9765454
0
ARC
8
DEFAULT_255_1_234
10
17.6871391
20
46.6691981
40
0.4467846
50
329.2803592
51
344.7472793
0
ARC
8
DEFAULT_255_1_234
10
17.7864216
20
46.6147018
40
0.3336173
50
324.9352394
51
328.6160465
0
ARC
8
DEFAULT_255_1_234
10
17.8241324
20
46.5883427
40
0.2876076
50
280.580143
51
324.9173126
0
ARC
8
DEFAULT_255_1_234
10
17.7840117
20
46.7554099
40
0.4592847
50
269.5977311
51
281.6734359
0
ARC
8
DEFAULT_255_1_234
10
17.7768022
20
46.7434173
40
0.4472986
50
256.6228859
51
270.51044
0
ARC
8
DEFAULT_255_1_234
10
17.7366
20
46.5885877
40
0.2873874
50
215.8618325
51
257.2788573
0
ARC
8
DEFAULT_255_1_234
10
17.8387032
20
46.6570977
40
0.4102928
50
197.9693508
51
215.2623606
0
ARC
8
DEFAULT_255_1_234
10
18.0872147
20
46.7409709
40
0.6725652
50
187.8816417
51
198.2346507
0
ARC
8
DEFAULT_255_1_234
10
18.4830356
20
46.7981079
40
1.0724845
50
180.8976217
51
188.0055519
0
ARC
8
DEFAULT_255_1_234
10
18.7630544
20
46.8084777
40
1.3526448
50
180.7449369
51
181.1510016
0
ARC
8
DEFAULT_255_1_234
10
18.6053273
20
46.9941042
40
1.1948131
50
173.7675579
51
180.231553
0
ARC
8
DEFAULT_255_1_234
10
18.153542
20
47.0451666
40
0.7401564
50
164.3058563
51
173.9002247
0
ARC
8
DEFAULT_255_1_234
10
17.8623488
20
47.1290656
40
0.4371288
50
148.7922025
51
164.568378
0
ARC
8
DEFAULT_255_1_234
10
17.7671941
20
47.1821929
40
0.3282386
50
144.5883898
51
148.1176286
0
ARC
8
DEFAULT_255_1_234
10
17.7328838
20
47.2061315
40
0.2864044
50
101.6440918
51
144.514236
0
ARC
8
DEFAULT_255_1_234
10
17.7753905
20
47.0372069
40
0.4604934
50
89.5284041
51
102.5819763
0
ARC
8
DEFAULT_255_1_234
10
17.7832993
20
47.0333018
40
0.464401
50
77.0437873
51
90.5081339
0
ARC
8
DEFAULT_255_1_234
10
17.8234995
20
47.1975615
40
0.2953195
50
48.2778575
51
77.4994676
0
ARC
8
DEFAULT_255_1_234
10
17.8307626
20
47.2104746
40
0.2808655
50
36.3142134
51
47.6305865
0
ARC
8
DEFAULT_255_1_234
10
17.7438933
20
47.1519515
40
0.3855453
50
18.2931786
51
35.6769206
0
ARC
8
DEFAULT_255_1_234
10
17.4895692
20
47.0646593
40
0.654423
50
8.024666
51
18.5605216
0
ARC
8
DEFAULT_255_1_234
10
17.0732612
20
47.0031792
40
1.0752407
50
1.1274072
51
8.1718305
0
ARC
8
DEFAULT_255_1_234
10
16.7496802
20
46.9904885
40
1.3990231
50
0.5424119
51
1.3863029
0
ARC
8
DEFAULT_255_1_234
10
16.931818
20
47.0177342
40
1.0682415
50
359.8090433
51
4.9407866
0
ARC
8
DEFAULT_255_1_234
10
17.3528194
20
47.0553113
40
0.6455691
50
4.8362157
51
12.2904523
0
ARC
8
DEFAULT_255_1_234
10
17.6283309
20
47.1166965
40
0.3633074
50
12.0805627
51
23.8173984
0
ARC
8
DEFAULT_255_1_234
10
17.7457014
20
47.1663919
40
0.2358723
50
24.2871213
51
31.3935614
0
ARC
8
DEFAULT_255_1_234
10
17.7981712
20
47.2007233
40
0.1732111
50
30.7407893
51
82.4657128
0
ARC
8
DEFAULT_255_1_234
10
17.7801846
20
47.1123691
40
0.263235
50
81.1060089
51
90.2184952
0
ARC
8
DEFAULT_255_1_234
10
17.7766145
20
47.1381924
40
0.2374236
50
89.3806855
51
105.6762551
0
ARC
8
DEFAULT_255_1_234
10
17.7582775
20
47.2048567
40
0.1682847
50
105.7981136
51
149.7388061
0
ARC
8
DEFAULT_255_1_234
10
17.8646854
20
47.140895
40
0.2924306
50
149.4208916
51
163.6286378
0
ARC
8
DEFAULT_255_1_234
10
18.0737742
20
47.077125
40
0.5110213
50
163.3763315
51
172.1410975
0
ARC
8
DEFAULT_255_1_234
10
18.4038461
20
47.0298518
40
0.8444586
50
172.0259487
51
178.0703232
0
ARC
8
DEFAULT_255_1_234
10
18.706855
20
47.0154906
40
1.1477868
50
177.8631668
51
179.5044149
0
ARC
8
DEFAULT_255_1_234
10
18.5995955
20
46.7840389
40
1.0404907
50
179.7995573
51
185.2460446
0
ARC
8
DEFAULT_255_1_234
10
18.1952994
20
46.7457513
40
0.6343885
50
185.1411642
51
193.0079639
0
ARC
8
DEFAULT_255_1_234
10
17.9309467
20
46.6832641
40
0.3627568
50
192.7897626
51
205.2507664
0
ARC
8
DEFAULT_255_1_234
10
17.8263014
20
46.6365415
40
0.2481908
50
205.8005384
51
211.2537509
0
ARC
8
DEFAULT_255_1_234
10
17.7739454
20
46.601458
40
0.1852521
50
210.3789793
51
238.4008143
0
ARC
8
DEFAULT_255_1_234
10
17.7719976
20
46.6061376
40
0.1882621
50
239.6520629
51
265.9793761
0
ARC
8
DEFAULT_255_1_234
10
17.7805176
20
46.6733427
40
0.2559272
50
265.1315437
51
270.060332
0
ARC
8
DEFAULT_255_1_234
10
17.7833955
20
46.6409534
40
0.2235528
50
269.3314664
51
287.2178029
0
ARC
8
DEFAULT_255_1_234
10
17.7971807
20
46.5906279
40
0.1714108
50
287.7958004
51
329.080874
0
ARC
8
DEFAULT_255_1_234
10
17.7014264
20
46.650393
40
0.2842745
50
328.6634704
51
343.3325132
0
ARC
8
DEFAULT_255_1_234
10
17.4841284
20
46.7180863
40
0.5118644
50
343.0499468
51
351.9393422
0
ARC
8
DEFAULT_255_1_234
10
17.1374584
20
46.7691949
40
0.8622784
50
351.8069023
51
357.7959224
0
ARC
8
DEFAULT_255_1_234
10
16.813914
20
46.7859721
40
1.1862365
50
357.5871873
51
359.2677531
0
LINE
8
DEFAULT_255_1_234
10
19.0722906
20
47.0037327
11
19.0722906
21
46.8109709
0
LINE
8
DEFAULT_255_1_234
10
18.3341739
20
46.7908916
11
18.3341739
21
46.9892755
0
LINE
8
DEFAULT_255_1_234
10
18.9237035
20
46.7708123
11
18.9237035
21
47.0141739
0
LINE
8
DEFAULT_255_1_234
10
18.482761
20
47.0254184
11
18.482761
21
46.7876789
0
ARC
8
DEFAULT_255_1_234
10
17.8475796
20
46.8060805
40
1.2247208
50
353.8441951
51
0.2287902
0
ARC
8
DEFAULT_255_1_234
10
18.3115299
20
46.7542806
40
0.7578929
50
344.4934747
51
353.9765454
0
ARC
8
DEFAULT_255_1_234
10
18.610789
20
46.6691981
40
0.4467846
50
329.2803592
51
344.7472793
0
ARC
8
DEFAULT_255_1_234
10
18.7100715
20
46.6147018
40
0.3336173
50
324.9352394
51
328.6160465
0
ARC
8
DEFAULT_255_1_234
10
18.7477823
20
46.5883427
40
0.2876076
50
280.580143
51
324.9173126
0
ARC
8
DEFAULT_255_1_234
10
18.7076616
20
46.7554099
40
0.4592847
50
269.5977311
51
281.6734359
0
ARC
8
DEFAULT_255_1_234
10
18.7004521
20
46.7434173
40
0.4472986
50
256.6228859
51
270.51044
0
ARC
8
DEFAULT_255_1_234
10
18.6602499
20
46.5885877
40
0.2873874
50
215.8618325
51
257.2788573
0
ARC
8
DEFAULT_255_1_234
10
18.7623531
20
46.6570977
40
0.4102928
50
197.9693508
51
215.2623606
0
ARC
8
DEFAULT_255_1_234
10
19.0108647
20
46.7409709
40
0.6725652
50
187.8816417
51
198.2346507
0
ARC
8
DEFAULT_255_1_234
10
19.4066855
20
46.7981079
40
1.0724845
50
180.8976217
51
188.0055519
0
ARC
8
DEFAULT_255_1_234
10
19.6867043
20
46.8084777
40
1.3526448
50
180.7449369
51
181.1510016
0
ARC
8
DEFAULT_255_1_234
10
19.5289772
20
46.9941042
40
1.1948131
50
173.7675579
51
180.231553
0
ARC
8
DEFAULT_255_1_234
10
19.0771919
20
47.0451666
40
0.7401564
50
164.3058563
51
173.9002247
0
ARC
8
DEFAULT_255_1_234
10
18.7859987
20
47.1290656
40
0.4371288
50
148.7922025
51
164.568378
0
ARC
8
DEFAULT_255_1_234
10
18.690844
20
47.1821929
40
0.3282386
50
144.5883898
51
148.1176286
0
ARC
8
DEFAULT_255_1_234
10
18.6565337
20
47.2061315
40
0.2864044
50
101.6440918
51
144.514236
0
ARC
8
DEFAULT_255_1_234
10
18.6990404
20
47.0372069
40
0.4604934
50
89.5284041
51
102.5819763
0
ARC
8
DEFAULT_255_1_234
10
18.7069492
20
47.0333018
40
0.464401
50
77.0437873
51
90.5081339
0
ARC
8
DEFAULT_255_1_234
10
18.7471494
20
47.1975615
40
0.2953195
50
48.2778575
51
77.4994676
0
ARC
8
DEFAULT_255_1_234
10
18.7544125
20
47.2104746
40
0.2808655
50
36.3142134
51
47.6305865
0
ARC
8
DEFAULT_255_1_234
10
18.6675432
20
47.1519515
40
0.3855453
50
18.2931786
51
35.6769206
0
ARC
8
DEFAULT_255_1_234
10
18.4132191
20
47.0646593
40
0.654423
50
8.024666
51
18.5605216
0
ARC
8
DEFAULT_255_1_234
10
17.9969111
20
47.0031792
40
1.0752407
50
1.1274072
51
8.1718305
0
ARC
8
DEFAULT_255_1_234
10
17.6733301
20
46.9904885
40
1.3990231
50
0.5424119
51
1.3863029
0
ARC
8
DEFAULT_255_1_234
10
17.8554679
20
47.0177342
40
1.0682415
50
359.8090433
51
4.9407866
0
ARC
8
DEFAULT_255_1_234
10
18.2764693
20
47.0553113
40
0.6455691
50
4.8362157
51
12.2904523
0
ARC
8
DEFAULT_255_1_234
10
18.5519808
20
47.1166965
40
0.3633074
50
12.0805627
51
23.8173984
0
ARC
8
DEFAULT_255_1_234
10
18.6693513
20
47.1663919
40
0.2358723
50
24.2871213
51
31.3935614
0
ARC
8
DEFAULT_255_1_234
10
18.7218211
20
47.2007233
40
0.1732111
50
30.7407893
51
82.4657128
0
ARC
8
DEFAULT_255_1_234
10
18.7038345
20
47.1123691
40
0.263235
50
81.1060089
51
90.2184952
0
ARC
8
DEFAULT_255_1_234
10
18.7002644
20
47.1381924
40
0.2374236
50
89.3806855
51
105.6762551
0
ARC
8
DEFAULT_255_1_234
10
18.6819274
20
47.2048567
40
0.1682847
50
105.7981136
51
149.7388061
0
ARC
8
DEFAULT_255_1_234
10
18.7883353
20
47.140895
40
0.2924306
50
149.4208916
51
163.6286378
0
ARC
8
DEFAULT_255_1_234
10
18.9974241
20
47.077125
40
0.5110213
50
163.3763315
51
172.1410975
0
ARC
8
DEFAULT_255_1_234
10
19.327496
20
47.0298518
40
0.8444586
50
172.0259487
51
178.0703232
0
ARC
8
DEFAULT_255_1_234
10
19.6305049
20
47.0154906
40
1.1477868
50
177.8631668
51
179.5044149
0
ARC
8
DEFAULT_255_1_234
10
19.5232454
20
46.7840389
40
1.0404907
50
179.7995573
51
185.2460446
0
ARC
8
DEFAULT_255_1_234
10
19.1189493
20
46.7457513
40
0.6343885
50
185.1411642
51
193.0079639
0
ARC
8
DEFAULT_255_1_234
10
18.8545966
20
46.6832641
40
0.3627568
50
192.7897626
51
205.2507664
0
ARC
8
DEFAULT_255_1_234
10
18.7499513
20
46.6365415
40
0.2481908
50
205.8005384
51
211.2537509
0
ARC
8
DEFAULT_255_1_234
10
18.6975953
20
46.601458
40
0.1852521
50
210.3789793
51
238.4008143
0
ARC
8
DEFAULT_255_1_234
10
18.6956475
20
46.6061376
40
0.1882621
50
239.6520629
51
265.9793761
0
ARC
8
DEFAULT_255_1_234
10
18.7041675
20
46.6733427
40
0.2559272
50
265.1315437
51
270.060332
0
ARC
8
DEFAULT_255_1_234
10
18.7070454
20
46.6409534
40
0.2235528
50
269.3314664
51
287.2178029
0
ARC
8
DEFAULT_255_1_234
10
18.7208306
20
46.5906279
40
0.1714108
50
287.7958004
51
329.080874
0
ARC
8
DEFAULT_255_1_234
10
18.6250763
20
46.650393
40
0.2842745
50
328.6634704
51
343.3325132
0
ARC
8
DEFAULT_255_1_234
10
18.4077783
20
46.7180863
40
0.5118644
50
343.0499468
51
351.9393422
0
ARC
8
DEFAULT_255_1_234
10
18.0611083
20
46.7691949
40
0.8622784
50
351.8069023
51
357.7959224
0
ARC
8
DEFAULT_255_1_234
10
17.7375639
20
46.7859721
40
1.1862365
50
357.5871873
51
359.2677531
0
LINE
8
DEFAULT_255_1_234
10
19.3011952
20
47.4816211
11
19.5003823
21
47.4816211
0
LINE
8
DEFAULT_255_1_234
10
19.5003823
20
47.4816211
11
19.882693
21
46.5274506
0
LINE
8
DEFAULT_255_1_234
10
19.882693
20
46.5274506
11
20.2650038
21
47.4816211
0
LINE
8
DEFAULT_255_1_234
10
20.2650038
20
47.4816211
11
20.464994
21
47.4816211
0
LINE
8
DEFAULT_255_1_234
10
20.464994
20
47.4816211
11
20.464994
21
46.3122
0
LINE
8
DEFAULT_255_1_234
10
20.464994
20
46.3122
11
20.3107847
21
46.3122
0
LINE
8
DEFAULT_255_1_234
10
20.3107847
20
46.3122
11
20.3107847
21
46.7675996
0
LINE
8
DEFAULT_255_1_234
10
20.3107847
20
46.7675996
11
20.3252418
21
47.2591419
0
LINE
8
DEFAULT_255_1_234
10
20.3252418
20
47.2591419
11
19.9413247
21
46.3122
0
LINE
8
DEFAULT_255_1_234
10
19.9413247
20
46.3122
11
19.8232582
21
46.3122
0
LINE
8
DEFAULT_255_1_234
10
19.8232582
20
46.3122
11
19.4401442
21
47.2567324
0
LINE
8
DEFAULT_255_1_234
10
19.4401442
20
47.2567324
11
19.4554045
21
46.7675996
0
LINE
8
DEFAULT_255_1_234
10
19.4554045
20
46.7675996
11
19.4554045
21
46.3122
0
LINE
8
DEFAULT_255_1_234
10
19.4554045
20
46.3122
11
19.3011952
21
46.3122
0
LINE
8
DEFAULT_255_1_234
10
19.3011952
20
46.3122
11
19.3011952
21
47.4816211
0
LINE
8
DEFAULT_255_1_234
10
4.8843023
20
45.1591849
11
4.7292897
21
45.1591849
0
LINE
8
DEFAULT_255_1_234
10
4.0369539
20
44.6668394
11
4.1919665
21
44.6668394
0
ARC
8
DEFAULT_255_1_234
10
4.795171
20
46.0538768
40
1.252368
50
248.9199003
51
254.1439814
0
ARC
8
DEFAULT_255_1_234
10
4.6271205
20
45.6212234
40
0.788226
50
241.633709
51
249.0064503
0
ARC
8
DEFAULT_255_1_234
10
4.47426
20
45.3411317
40
0.4691427
50
230.498225
51
241.8087113
0
ARC
8
DEFAULT_255_1_234
10
4.3958174
20
45.2411906
40
0.3421437
50
227.4064532
51
229.9881192
0
ARC
8
DEFAULT_255_1_234
10
4.3470694
20
45.1936088
40
0.2741476
50
200.6781896
51
228.1763934
0
ARC
8
DEFAULT_255_1_234
10
4.3543005
20
45.1921077
40
0.2804109
50
179.5061581
51
199.8694617
0
ARC
8
DEFAULT_255_1_234
10
4.3533757
20
45.199521
40
0.2795204
50
132.4834203
51
181.0242172
0
ARC
8
DEFAULT_255_1_234
10
4.4129339
20
45.1432704
40
0.3612768
50
129.2532479
51
133.4242687
0
ARC
8
DEFAULT_255_1_234
10
4.4275789
20
45.1212965
40
0.3875675
50
101.98776
51
128.8742646
0
ARC
8
DEFAULT_255_1_234
10
4.4674399
20
44.9491741
40
0.5642249
50
89.5906553
51
102.3169264
0
ARC
8
DEFAULT_255_1_234
10
4.4744891
20
44.9810148
40
0.5323783
50
77.2360837
51
90.3248275
0
ARC
8
DEFAULT_255_1_234
10
4.4951971
20
45.07774
40
0.4334697
50
63.837784
51
77.0809408
0
ARC
8
DEFAULT_255_1_234
10
4.5229732
20
45.1294911
40
0.3747796
50
45.9864267
51
64.1607727
0
ARC
8
DEFAULT_255_1_234
10
4.5490614
20
45.1592866
40
0.3352302
50
32.2747395
51
45.6547121
0
ARC
8
DEFAULT_255_1_234
10
4.5557054
20
45.161188
40
0.328603
50
359.6507365
51
32.6130309
0
ARC
8
DEFAULT_255_1_234
10
4.461415
20
45.161666
40
0.2678863
50
359.469343
51
14.9832209
0
ARC
8
DEFAULT_255_1_234
10
4.5319212
20
45.1805539
40
0.1948938
50
14.9781179
51
48.2004265
0
ARC
8
DEFAULT_255_1_234
10
4.5154856
20
45.1598983
40
0.2212521
50
48.5927837
51
74.1241538
0
ARC
8
DEFAULT_255_1_234
10
4.4821346
20
45.0498248
40
0.3362561
50
73.7888341
51
86.6652678
0
ARC
8
DEFAULT_255_1_234
10
4.4718911
20
44.9290881
40
0.4573953
50
86.2640471
51
90.0526343
0
ARC
8
DEFAULT_255_1_234
10
4.4690624
20
44.9686192
40
0.4178709
50
89.6697524
51
99.2309573
0
ARC
8
DEFAULT_255_1_234
10
4.4448075
20
45.1130964
40
0.2713749
50
99.069534
51
113.7658566
0
ARC
8
DEFAULT_255_1_234
10
4.4174266
20
45.1776677
40
0.2012469
50
114.0401004
51
127.9850673
0
ARC
8
DEFAULT_255_1_234
10
4.393383
20
45.207273
40
0.1631167
50
127.7287463
51
176.7105154
0
ARC
8
DEFAULT_255_1_234
10
4.4612547
20
45.1971693
40
0.2315392
50
175.1779447
51
180.0581938
0
ARC
8
DEFAULT_255_1_234
10
4.3769394
20
45.1959428
40
0.1472271
50
179.6142195
51
228.1246017
0
ARC
8
DEFAULT_255_1_234
10
4.4211063
20
45.2368308
40
0.2072299
50
226.5779593
51
230.8800004
0
ARC
8
DEFAULT_255_1_234
10
4.4682141
20
45.2993636
40
0.2854818
50
231.4635071
51
241.9260842
0
ARC
8
DEFAULT_255_1_234
10
4.5879319
20
45.51968
40
0.53622
50
241.7178533
51
248.3259551
0
ARC
8
DEFAULT_255_1_234
10
4.7264691
20
45.8629064
40
0.9063478
50
248.2007737
51
252.4528373
0
ARC
8
DEFAULT_255_1_234
10
4.8468416
20
46.2350441
40
1.2974635
50
252.3391078
51
254.3469452
0
ARC
8
DEFAULT_255_1_234
10
4.0926119
20
43.5373148
40
1.5037162
50
71.0197183
51
74.4087047
0
ARC
8
DEFAULT_255_1_234
10
4.2620804
20
44.0265111
40
0.9859993
50
66.1847285
51
71.086374
0
ARC
8
DEFAULT_255_1_234
10
4.4177116
20
44.37692
40
0.6025855
50
59.3536294
51
66.2691831
0
ARC
8
DEFAULT_255_1_234
10
4.5065769
20
44.5272609
40
0.4279449
50
49.1020879
51
59.3293958
0
ARC
8
DEFAULT_255_1_234
10
4.5884509
20
44.6205834
40
0.3038015
50
32.7919921
51
49.2505539
0
ARC
8
DEFAULT_255_1_234
10
4.6205599
20
44.6434191
40
0.264448
50
31.1181161
51
32.4005348
0
ARC
8
DEFAULT_255_1_234
10
4.6117136
20
44.6398779
40
0.2738556
50
8.1116974
51
30.7958831
0
ARC
8
DEFAULT_255_1_234
10
4.5306804
20
44.6260753
40
0.3560327
50
359.8389159
51
8.4706516
0
ARC
8
DEFAULT_255_1_234
10
4.5932596
20
44.6212137
40
0.2934776
50
337.4731098
51
0.7537279
0
ARC
8
DEFAULT_255_1_234
10
4.6111291
20
44.6192387
40
0.2762607
50
307.5917067
51
336.4315538
0
ARC
8
DEFAULT_255_1_234
10
4.5651119
20
44.6705102
40
0.3449979
50
307.6551545
51
308.4529766
0
ARC
8
DEFAULT_255_1_234
10
4.5420838
20
44.706025
40
0.3871988
50
284.3734338
51
307.1424381
0
ARC
8
DEFAULT_255_1_234
10
4.4925668
20
44.8881932
40
0.5759636
50
272.4382747
51
284.646547
0
ARC
8
DEFAULT_255_1_234
10
4.4798876
20
45.0681893
40
0.7563528
50
269.9708387
51
272.8178037
0
ARC
8
DEFAULT_255_1_234
10
4.4755916
20
44.8643716
40
0.5525489
50
248.2707594
51
270.4055579
0
ARC
8
DEFAULT_255_1_234
10
4.4701657
20
44.8453192
40
0.5328452
50
246.1383403
51
248.0542782
0
ARC
8
DEFAULT_255_1_234
10
4.4283036
20
44.7573843
40
0.4355005
50
233.1670131
51
246.4950969
0
ARC
8
DEFAULT_255_1_234
10
4.3728941
20
44.6825812
40
0.3424126
50
215.3403242
51
233.0843104
0
ARC
8
DEFAULT_255_1_234
10
4.3456372
20
44.6627549
40
0.3087104
50
179.2419209
51
215.2648451
0
ARC
8
DEFAULT_255_1_234
10
4.4223966
20
44.6641666
40
0.2304457
50
179.335461
51
199.1045811
0
ARC
8
DEFAULT_255_1_234
10
4.3891643
20
44.6554766
40
0.1962176
50
199.8828939
51
232.7063202
0
ARC
8
DEFAULT_255_1_234
10
4.4363911
20
44.7148788
40
0.2720938
50
232.3738199
51
255.5136649
0
ARC
8
DEFAULT_255_1_234
10
4.4704778
20
44.8392835
40
0.4010747
50
255.2446292
51
267.5320849
0
ARC
8
DEFAULT_255_1_234
10
4.4792401
20
44.9625702
40
0.5246356
50
267.1557994
51
270.0286766
0
ARC
8
DEFAULT_255_1_234
10
4.4820173
20
44.918195
40
0.4802668
50
269.7000017
51
278.1660162
0
ARC
8
DEFAULT_255_1_234
10
4.5076178
20
44.7451515
40
0.3053425
50
278.0231263
51
290.625471
0
ARC
8
DEFAULT_255_1_234
10
4.5423865
20
44.6524025
40
0.206291
50
290.6619762
51
307.0370976
0
ARC
8
DEFAULT_255_1_234
10
4.5724254
20
44.6155504
40
0.1587906
50
306.3943566
51
355.3030547
0
ARC
8
DEFAULT_255_1_234
10
4.5212186
20
44.6232113
40
0.2104809
50
354.3660432
51
0.0698737
0
ARC
8
DEFAULT_255_1_234
10
4.5354531
20
44.6254617
40
0.1962563
50
359.417946
51
16.1971788
0
ARC
8
DEFAULT_255_1_234
10
4.5809841
20
44.6379418
40
0.149053
50
16.4723299
51
52.6262157
0
ARC
8
DEFAULT_255_1_234
10
4.4988895
20
44.5295433
40
0.2850296
50
52.7386432
51
62.4979148
0
ARC
8
DEFAULT_255_1_234
10
4.3603972
20
44.2689283
40
0.5801521
50
62.2515216
51
68.1220564
0
ARC
8
DEFAULT_255_1_234
10
4.1883883
20
43.8461872
40
1.0365451
50
68.0062803
51
71.8053402
0
ARC
8
DEFAULT_255_1_234
10
4.0088255
20
43.3076758
40
1.6042013
50
71.7183119
51
73.9258742
0
LINE
8
DEFAULT_255_1_234
10
5.7292412
20
44.9704391
11
5.7292412
21
44.8443408
0
LINE
8
DEFAULT_255_1_234
10
5.7292412
20
44.8443408
11
5.238502
21
44.8443408
0
LINE
8
DEFAULT_255_1_234
10
5.238502
20
44.8443408
11
5.238502
21
44.3279
0
LINE
8
DEFAULT_255_1_234
10
5.238502
20
44.3279
11
5.0842926
21
44.3279
0
LINE
8
DEFAULT_255_1_234
10
5.0842926
20
44.3279
11
5.0842926
21
45.4973211
0
LINE
8
DEFAULT_255_1_234
10
5.0842926
20
45.4973211
11
5.8087554
21
45.4973211
0
LINE
8
DEFAULT_255_1_234
10
5.8087554
20
45.4973211
11
5.8087554
21
45.3704196
0
LINE
8
DEFAULT_255_1_234
10
5.8087554
20
45.3704196
11
5.238502
21
45.3704196
0
LINE
8
DEFAULT_255_1_234
10
5.238502
20
45.3704196
11
5.238502
21
44.9704391
0
LINE
8
DEFAULT_255_1_234
10
5.238502
20
44.9704391
11
5.7292412
21
44.9704391
0
LINE
8
DEFAULT_255_1_234
10
4.741685
20
5.2829391
11
4.741685
21
5.1568408
0
LINE
8
DEFAULT_255_1_234
10
4.741685
20
5.1568408
11
4.2509458
21
5.1568408
0
LINE
8
DEFAULT_255_1_234
10
4.2509458
20
5.1568408
11
4.2509458
21
4.6404
0
LINE
8
DEFAULT_255_1_234
10
4.2509458
20
4.6404
11
4.0967364
21
4.6404
0
LINE
8
DEFAULT_255_1_234
10
4.0967364
20
4.6404
11
4.0967364
21
5.8098211
0
LINE
8
DEFAULT_255_1_234
10
4.0967364
20
5.8098211
11
4.8211992
21
5.8098211
0
LINE
8
DEFAULT_255_1_234
10
4.8211992
20
5.8098211
11
4.8211992
21
5.6829196
0
LINE
8
DEFAULT_255_1_234
10
4.8211992
20
5.6829196
11
4.2509458
21
5.6829196
0
LINE
8
DEFAULT_255_1_234
10
4.2509458
20
5.6829196
11
4.2509458
21
5.2829391
0
LINE
8
DEFAULT_255_1_234
10
4.2509458
20
5.2829391
11
4.741685
21
5.2829391
0
LINE
8
DEFAULT_255_1_234
10
5.7336046
20
4.7616792
11
5.7336046
21
4.6404
0
LINE
8
DEFAULT_255_1_234
10
5.7336046
20
4.6404
11
4.9673768
21
4.6404
0
LINE
8
DEFAULT_255_1_234
10
4.9673768
20
4.6404
11
4.9673768
21
4.7472221
0
LINE
8
DEFAULT_255_1_234
10
4.9673768
20
4.7472221
11
5.3721764
21
5.1969995
0
LINE
8
DEFAULT_255_1_234
10
5.0934751
20
5.4652595
11
4.9448879
21
5.4652595
0
LINE
8
DEFAULT_255_1_234
10
5.4597224
20
5.1014218
11
5.1464846
21
4.7616792
0
LINE
8
DEFAULT_255_1_234
10
5.1464846
20
4.7616792
11
5.7336046
21
4.7616792
0
ARC
8
DEFAULT_255_1_234
10
4.0231597
20
6.3899527
40
1.8008286
50
318.5132453
51
320.7828378
0
ARC
8
DEFAULT_255_1_234
10
4.5518572
20
5.9596426
40
1.1191493
50
320.7372736
51
323.9737074
0
ARC
8
DEFAULT_255_1_234
10
4.9438428
20
5.6756361
40
0.6350923
50
323.8961724
51
328.6421089
0
ARC
8
DEFAULT_255_1_234
10
5.1485024
20
5.5494031
40
0.3946393
50
328.8299013
51
331.789948
0
ARC
8
DEFAULT_255_1_234
10
5.2482202
20
5.4979509
40
0.2824501
50
331.4255242
51
352.9364833
0
ARC
8
DEFAULT_255_1_234
10
5.2618703
20
5.4948976
40
0.2685315
50
353.2248685
51
0.0169286
0
ARC
8
DEFAULT_255_1_234
10
5.282858
20
5.497195
40
0.2475536
50
359.4866256
51
15.9339782
0
ARC
8
DEFAULT_255_1_234
10
5.3335565
20
5.5108286
40
0.1950618
50
16.1714718
51
43.5284424
0
ARC
8
DEFAULT_255_1_234
10
5.3412873
20
5.5185573
40
0.184134
50
43.4415429
51
83.1661404
0
ARC
8
DEFAULT_255_1_234
10
5.3278792
20
5.4448771
40
0.258926
50
82.160215
51
90.1505798
0
ARC
8
DEFAULT_255_1_234
10
5.3247219
20
5.3911865
40
0.3126255
50
89.5460705
51
102.5418777
0
ARC
8
DEFAULT_255_1_234
10
5.3004305
20
5.4942665
40
0.2067346
50
102.1739365
51
129.2061916
0
ARC
8
DEFAULT_255_1_234
10
5.2925377
20
5.5067094
40
0.1921118
50
129.7279328
51
135.7542026
0
ARC
8
DEFAULT_255_1_234
10
5.3046904
20
5.4970045
40
0.2075944
50
136.175737
51
166.3674722
0
ARC
8
DEFAULT_255_1_234
10
5.4053824
20
5.4700182
40
0.3118201
50
165.9092917
51
178.8683903
0
ARC
8
DEFAULT_255_1_234
10
5.4918685
20
5.4653179
40
0.3983935
50
178.438168
51
180.0083905
0
ARC
8
DEFAULT_255_1_234
10
5.3517287
20
5.4692231
40
0.4068601
50
163.2878735
51
180.5581814
0
ARC
8
DEFAULT_255_1_234
10
5.2715548
20
5.491284
40
0.3237344
50
133.454115
51
162.9470031
0
ARC
8
DEFAULT_255_1_234
10
5.289409
20
5.4723
40
0.349795
50
100.7869394
51
133.4384016
0
ARC
8
DEFAULT_255_1_234
10
5.3241861
20
5.3174319
40
0.5084616
50
89.6605301
51
101.3704185
0
ARC
8
DEFAULT_255_1_234
10
5.33082
20
5.3235496
40
0.502348
50
78.2171172
51
90.4130393
0
ARC
8
DEFAULT_255_1_234
10
5.3663278
20
5.4859637
40
0.3361092
50
55.9268222
51
78.4888551
0
ARC
8
DEFAULT_255_1_234
10
5.3859719
20
5.5198324
40
0.2970617
50
47.9292255
51
55.4054003
0
ARC
8
DEFAULT_255_1_234
10
5.3961279
20
5.5301502
40
0.2825983
50
4.3347696
51
48.0560701
0
ARC
8
DEFAULT_255_1_234
10
5.2865673
20
5.5131601
40
0.393225
50
359.925209
51
5.5967654
0
ARC
8
DEFAULT_255_1_234
10
5.3294565
20
5.5187816
40
0.3503892
50
337.8914096
51
358.9967724
0
ARC
8
DEFAULT_255_1_234
10
5.0580977
20
5.6234706
40
0.6412172
50
326.9135351
51
338.3505194
0
ARC
8
DEFAULT_255_1_234
10
4.6595281
20
5.8789284
40
1.1146189
50
319.6472867
51
327.095818
0
ARC
8
DEFAULT_255_1_234
10
4.2762284
20
6.1951
40
1.6114559
50
317.2586784
51
319.9046139
0
LINE
8
DEFAULT_255_1_234
10
4.732585
20
13.2204391
11
4.732585
21
13.0943408
0
LINE
8
DEFAULT_255_1_234
10
4.732585
20
13.0943408
11
4.2418458
21
13.0943408
0
LINE
8
DEFAULT_255_1_234
10
4.2418458
20
13.0943408
11
4.2418458
21
12.5779
0
LINE
8
DEFAULT_255_1_234
10
4.2418458
20
12.5779
11
4.0876364
21
12.5779
0
LINE
8
DEFAULT_255_1_234
10
4.0876364
20
12.5779
11
4.0876364
21
13.7473211
0
LINE
8
DEFAULT_255_1_234
10
4.0876364
20
13.7473211
11
4.8120992
21
13.7473211
0
LINE
8
DEFAULT_255_1_234
10
4.8120992
20
13.7473211
11
4.8120992
21
13.6204196
0
LINE
8
DEFAULT_255_1_234
10
4.8120992
20
13.6204196
11
4.2418458
21
13.6204196
0
LINE
8
DEFAULT_255_1_234
10
4.2418458
20
13.6204196
11
4.2418458
21
13.2204391
0
LINE
8
DEFAULT_255_1_234
10
4.2418458
20
13.2204391
11
4.732585
21
13.2204391
0
LINE
8
DEFAULT_255_1_234
10
5.4466065
20
13.7529433
11
5.4466065
21
12.5779
0
LINE
8
DEFAULT_255_1_234
10
5.4466065
20
12.5779
11
5.2972162
21
12.5779
0
LINE
8
DEFAULT_255_1_234
10
5.2972162
20
12.5779
11
5.2972162
21
13.5682133
0
LINE
8
DEFAULT_255_1_234
10
5.2972162
20
13.5682133
11
4.9976323
21
13.4581785
0
LINE
8
DEFAULT_255_1_234
10
4.9976323
20
13.4581785
11
4.9976323
21
13.5931117
0
LINE
8
DEFAULT_255_1_234
10
4.9976323
20
13.5931117
11
5.4233145
21
13.7529433
0
LINE
8
DEFAULT_255_1_234
10
5.4233145
20
13.7529433
11
5.4466065
21
13.7529433
0
LINE
8
DEFAULT_255_1_234
10
5.0177911
20
21.1362534
11
5.0177911
21
21.0623614
0
LINE
8
DEFAULT_255_1_234
10
4.0772745
20
21.0519201
11
4.0772745
21
21.1362534
0
LINE
8
DEFAULT_255_1_234
10
4.8643849
20
21.0511169
11
4.8643849
21
21.1378597
0
LINE
8
DEFAULT_255_1_234
10
4.2306807
20
21.148301
11
4.2306807
21
21.0623614
0
ARC
8
DEFAULT_255_1_234
10
4.1535937
20
21.0584015
40
0.8642064
50
350.487711
51
0.2625388
0
ARC
8
DEFAULT_255_1_234
10
4.3829178
20
21.0189578
40
0.631518
50
336.0277639
51
350.5787438
0
ARC
8
DEFAULT_255_1_234
10
4.5174002
20
20.9581892
40
0.4839466
50
319.8877444
51
336.1328423
0
ARC
8
DEFAULT_255_1_234
10
4.5776643
20
20.909958
40
0.4067874
50
302.4806467
51
319.6143626
0
ARC
8
DEFAULT_255_1_234
10
4.5661653
20
20.9321202
40
0.4316636
50
275.8195682
51
302.1884709
0
ARC
8
DEFAULT_255_1_234
10
4.5495286
20
21.0463665
40
0.5470306
50
269.9171439
51
276.3397983
0
ARC
8
DEFAULT_255_1_234
10
4.5450496
20
20.9777681
40
0.4784458
50
252.5219675
51
270.4416499
0
ARC
8
DEFAULT_255_1_234
10
4.5306755
20
20.9238592
40
0.422716
50
237.5352116
51
252.1857531
0
ARC
8
DEFAULT_255_1_234
10
4.5395951
20
20.9352363
40
0.4371052
50
209.063312
51
237.3492538
0
ARC
8
DEFAULT_255_1_234
10
4.6265799
20
20.9898685
40
0.5397041
50
205.1183774
51
209.6470015
0
ARC
8
DEFAULT_255_1_234
10
4.7062836
20
21.023683
40
0.6262326
50
188.7215458
51
204.8240747
0
ARC
8
DEFAULT_255_1_234
10
4.9060364
20
21.0573067
40
0.8287794
50
180.3723947
51
188.9252049
0
ARC
8
DEFAULT_255_1_234
10
4.9033116
20
21.1402402
40
0.8260467
50
169.5253763
51
180.2765336
0
ARC
8
DEFAULT_255_1_234
10
4.7130564
20
21.1752309
40
0.6326007
50
155.8315255
51
169.5089989
0
ARC
8
DEFAULT_255_1_234
10
4.5850066
20
21.2346348
40
0.4914567
50
139.6258461
51
156.0379525
0
ARC
8
DEFAULT_255_1_234
10
4.5260399
20
21.2820799
40
0.4158054
50
122.6416387
51
139.3430715
0
ARC
8
DEFAULT_255_1_234
10
4.5361019
20
21.2637451
40
0.4366739
50
93.0223692
51
122.455762
0
ARC
8
DEFAULT_255_1_234
10
4.5469016
20
21.1672709
40
0.5336137
50
89.975342
51
93.6341897
0
ARC
8
DEFAULT_255_1_234
10
4.5507795
20
21.2071242
40
0.4937738
50
73.746375
51
90.4233405
0
ARC
8
DEFAULT_255_1_234
10
4.5683373
20
21.2751287
40
0.4235786
50
57.662753
51
73.4518111
0
ARC
8
DEFAULT_255_1_234
10
4.567538
20
21.2772832
40
0.4221899
50
29.1440151
51
57.414694
0
ARC
8
DEFAULT_255_1_234
10
4.4740574
20
21.2189005
40
0.5322966
50
24.0982783
51
29.7323517
0
ARC
8
DEFAULT_255_1_234
10
4.370685
20
21.1760399
40
0.6441673
50
8.6655297
51
23.8241346
0
ARC
8
DEFAULT_255_1_234
10
4.1472588
20
21.1395854
40
0.8705386
50
359.7806941
51
8.8218784
0
ARC
8
DEFAULT_255_1_234
10
4.0325586
20
21.1421345
40
0.8318373
50
359.7055579
51
8.036044
0
ARC
8
DEFAULT_255_1_234
10
4.3325592
20
21.1858239
40
0.5286768
50
7.8928306
51
20.2962107
0
ARC
8
DEFAULT_255_1_234
10
4.4953162
20
21.2458395
40
0.3552073
50
20.3231126
51
36.4992797
0
ARC
8
DEFAULT_255_1_234
10
4.5638708
20
21.2986402
40
0.2686974
50
36.1437156
51
85.6627023
0
ARC
8
DEFAULT_255_1_234
10
4.5476254
20
21.1946221
40
0.373739
50
84.3852322
51
90.0757696
0
ARC
8
DEFAULT_255_1_234
10
4.5433927
20
21.2606839
40
0.3076997
50
89.3038458
51
109.9045693
0
ARC
8
DEFAULT_255_1_234
10
4.5341318
20
21.2989062
40
0.2686424
50
110.8228367
51
143.9179474
0
ARC
8
DEFAULT_255_1_234
10
4.6274978
20
21.2276236
40
0.3860887
50
143.5289163
51
163.2980757
0
ARC
8
DEFAULT_255_1_234
10
4.8182799
20
21.1676433
40
0.5860659
50
163.0418846
51
174.3140048
0
ARC
8
DEFAULT_255_1_234
10
5.0586911
20
21.1398854
40
0.8280531
50
174.0509143
51
179.4176892
0
ARC
8
DEFAULT_255_1_234
10
5.008265
20
21.0581954
40
0.7775954
50
179.6930361
51
188.7906598
0
ARC
8
DEFAULT_255_1_234
10
4.7419129
20
21.0155935
40
0.5078633
50
188.6331305
51
202.5629587
0
ARC
8
DEFAULT_255_1_234
10
4.6164721
20
20.9651996
40
0.3726913
50
202.8081362
51
216.1193925
0
ARC
8
DEFAULT_255_1_234
10
4.5355291
20
20.9000676
40
0.2689577
50
215.0755913
51
264.6379694
0
ARC
8
DEFAULT_255_1_234
10
4.548224
20
20.9831513
40
0.3528978
50
263.846392
51
270.0833719
0
ARC
8
DEFAULT_255_1_234
10
4.5523631
20
20.9573374
40
0.3271036
50
269.3649385
51
287.5152008
0
ARC
8
DEFAULT_255_1_234
10
4.5701788
20
20.8926238
40
0.2600406
50
288.0630309
51
323.8113348
0
ARC
8
DEFAULT_255_1_234
10
4.483063
20
20.9576049
40
0.3687189
50
323.6547608
51
342.6590488
0
ARC
8
DEFAULT_255_1_234
10
4.2799245
20
21.0236952
40
0.5823286
50
342.4091907
51
353.6451149
0
ARC
8
DEFAULT_255_1_234
10
3.9967756
20
21.058919
40
0.8676442
50
353.4029884
51
359.4847795
0
LINE
8
DEFAULT_255_1_234
10
6.1478566
20
21.6848211
11
6.1478566
21
20.5154
0
LINE
8
DEFAULT_255_1_234
10
6.1478566
20
20.5154
11
5.9928441
21
20.5154
0
LINE
8
DEFAULT_255_1_234
10
5.9928441
20
20.5154
11
5.4041177
21
21.416561
0
LINE
8
DEFAULT_255_1_234
10
5.4041177
20
21.416561
11
5.4041177
21
20.5154
0
LINE
8
DEFAULT_255_1_234
10
5.4041177
20
20.5154
11
5.2491051
21
20.5154
0
LINE
8
DEFAULT_255_1_234
10
5.2491051
20
20.5154
11
5.2491051
21
21.6848211
0
LINE
8
DEFAULT_255_1_234
10
5.2491051
20
21.6848211
11
5.4041177
21
21.6848211
0
LINE
8
DEFAULT_255_1_234
10
5.4041177
20
21.6848211
11
5.9944504
21
20.7796442
0
LINE
8
DEFAULT_255_1_234
10
5.9944504
20
20.7796442
11
5.9944504
21
21.6848211
0
LINE
8
DEFAULT_255_1_234
10
5.9944504
20
21.6848211
11
6.1478566
21
21.6848211
0
LINE
8
DEFAULT_255_1_234
10
4.2060364
20
29.6223211
11
4.4052235
21
29.6223211
0
LINE
8
DEFAULT_255_1_234
10
4.4052235
20
29.6223211
11
4.7875342
21
28.6681506
0
LINE
8
DEFAULT_255_1_234
10
4.7875342
20
28.6681506
11
5.169845
21
29.6223211
0
LINE
8
DEFAULT_255_1_234
10
5.169845
20
29.6223211
11
5.3698353
21
29.6223211
0
LINE
8
DEFAULT_255_1_234
10
5.3698353
20
29.6223211
11
5.3698353
21
28.4529
0
LINE
8
DEFAULT_255_1_234
10
5.3698353
20
28.4529
11
5.2156259
21
28.4529
0
LINE
8
DEFAULT_255_1_234
10
5.2156259
20
28.4529
11
5.2156259
21
28.9082996
0
LINE
8
DEFAULT_255_1_234
10
5.2156259
20
28.9082996
11
5.230083
21
29.3998419
0
LINE
8
DEFAULT_255_1_234
10
5.230083
20
29.3998419
11
4.8461659
21
28.4529
0
LINE
8
DEFAULT_255_1_234
10
4.8461659
20
28.4529
11
4.7280994
21
28.4529
0
LINE
8
DEFAULT_255_1_234
10
4.7280994
20
28.4529
11
4.3449854
21
29.3974324
0
LINE
8
DEFAULT_255_1_234
10
4.3449854
20
29.3974324
11
4.3602458
21
28.9082996
0
LINE
8
DEFAULT_255_1_234
10
4.3602458
20
28.9082996
11
4.3602458
21
28.4529
0
LINE
8
DEFAULT_255_1_234
10
4.3602458
20
28.4529
11
4.2060364
21
28.4529
0
LINE
8
DEFAULT_255_1_234
10
4.2060364
20
28.4529
11
4.2060364
21
29.6223211
0
LINE
8
DEFAULT_255_1_234
10
6.426812
20
29.6223211
11
6.426812
21
29.4954196
0
LINE
8
DEFAULT_255_1_234
10
6.426812
20
29.4954196
11
6.0509267
21
29.4954196
0
LINE
8
DEFAULT_255_1_234
10
6.0509267
20
29.4954196
11
6.0509267
21
28.4529
0
LINE
8
DEFAULT_255_1_234
10
6.0509267
20
28.4529
11
5.8975205
21
28.4529
0
LINE
8
DEFAULT_255_1_234
10
5.8975205
20
28.4529
11
5.8975205
21
29.4954196
0
LINE
8
DEFAULT_255_1_234
10
5.8975205
20
29.4954196
11
5.5224383
21
29.4954196
0
LINE
8
DEFAULT_255_1_234
10
5.5224383
20
29.4954196
11
5.5224383
21
29.6223211
0
LINE
8
DEFAULT_255_1_234
10
5.5224383
20
29.6223211
11
6.426812
21
29.6223211
0
LINE
8
DEFAULT_255_1_234
10
4.5174392
20
36.3904
11
4.1118364
21
36.3904
0
LINE
8
DEFAULT_255_1_234
10
4.1118364
20
36.3904
11
4.1118364
21
37.5598211
0
LINE
8
DEFAULT_255_1_234
10
4.1118364
20
37.5598211
11
4.4941471
21
37.5598211
0
LINE
8
DEFAULT_255_1_234
10
4.5230614
20
36.9373614
11
4.2660458
21
36.9373614
0
LINE
8
DEFAULT_255_1_234
10
4.2660458
20
36.9373614
11
4.2660458
21
36.5164983
0
LINE
8
DEFAULT_255_1_234
10
4.2660458
20
36.5164983
11
4.5206519
21
36.5164983
0
LINE
8
DEFAULT_255_1_234
10
4.2660458
20
37.4329196
11
4.2660458
21
37.0610501
0
LINE
8
DEFAULT_255_1_234
10
4.2660458
20
37.0610501
11
4.4989662
21
37.0610501
0
LINE
8
DEFAULT_255_1_234
10
4.4941471
20
37.4329196
11
4.2660458
21
37.4329196
0
ARC
8
DEFAULT_255_1_234
10
4.497918
20
36.8230901
40
0.7367406
50
82.1257326
51
90.2932599
0
ARC
8
DEFAULT_255_1_234
10
4.5368135
20
37.0949013
40
0.4621653
50
69.9044149
51
82.2857423
0
ARC
8
DEFAULT_255_1_234
10
4.5938813
20
37.2491637
40
0.2976871
50
51.1838526
51
70.0181538
0
ARC
8
DEFAULT_255_1_234
10
4.6193779
20
37.286224
40
0.2528517
50
12.1017251
51
50.4214761
0
ARC
8
DEFAULT_255_1_234
10
4.4809653
20
37.2514676
40
0.3955061
50
359.5251267
51
12.8211707
0
ARC
8
DEFAULT_255_1_234
10
4.6389579
20
37.2445344
40
0.2375281
50
323.4908128
51
0.8817314
0
ARC
8
DEFAULT_255_1_234
10
4.5971266
20
37.276855
40
0.2903817
50
298.6825083
51
323.2756573
0
ARC
8
DEFAULT_255_1_234
10
4.5609629
20
37.3369649
40
0.3604842
50
293.1999386
51
299.1396394
0
ARC
8
DEFAULT_255_1_234
10
4.6282602
20
36.7284126
40
0.2871098
50
54.0011765
51
74.9167975
0
ARC
8
DEFAULT_255_1_234
10
4.6398961
20
36.7481332
40
0.2643248
50
36.3580696
51
53.5291921
0
ARC
8
DEFAULT_255_1_234
10
4.6272203
20
36.7390998
40
0.2798884
50
4.8189881
51
36.3089977
0
ARC
8
DEFAULT_255_1_234
10
4.5493038
20
36.728127
40
0.358478
50
359.9370252
51
5.5204067
0
ARC
8
DEFAULT_255_1_234
10
4.516856
20
36.7240667
40
0.3909429
50
344.7478609
51
0.5373281
0
ARC
8
DEFAULT_255_1_234
10
4.6159531
20
36.6973544
40
0.2883093
50
311.1786488
51
344.6886812
0
ARC
8
DEFAULT_255_1_234
10
4.5867578
20
36.7336987
40
0.3348923
50
286.0418249
51
310.8441291
0
ARC
8
DEFAULT_255_1_234
10
4.536041
20
36.8983807
40
0.5071869
50
274.1042341
51
286.4071509
0
ARC
8
DEFAULT_255_1_234
10
4.5183666
20
37.0867229
40
0.6963234
50
269.9236873
51
274.445647
0
ARC
8
DEFAULT_255_1_234
10
4.5229667
20
36.8527537
40
0.3362634
50
269.6055768
51
281.3740047
0
ARC
8
DEFAULT_255_1_234
10
4.5460305
20
36.7434353
40
0.224546
50
281.1055983
51
302.5132223
0
ARC
8
DEFAULT_255_1_234
10
4.5607204
20
36.7170823
40
0.1944357
50
303.0368945
51
311.8811219
0
ARC
8
DEFAULT_255_1_234
10
4.5678611
20
36.708589
40
0.1833454
50
311.9916004
51
351.7143462
0
ARC
8
DEFAULT_255_1_234
10
4.4861841
20
36.725093
40
0.2665871
50
350.7339597
51
0.2221581
0
ARC
8
DEFAULT_255_1_234
10
4.4754287
20
36.7307467
40
0.2773789
50
359.0456241
51
17.2296242
0
ARC
8
DEFAULT_255_1_234
10
4.5793404
20
36.7616163
40
0.1689915
50
17.6685481
51
78.9940892
0
ARC
8
DEFAULT_255_1_234
10
4.5276568
20
36.5761224
40
0.3612658
50
76.5635957
51
90.6980921
0
LINE
8
DEFAULT_255_1_234
10
4.5232552
20
36.9373613
11
4.5230614
21
36.9373614
0
ARC
8
DEFAULT_255_1_234
10
4.5012228
20
37.3896036
40
0.3285612
50
269.6064736
51
281.4533503
0
ARC
8
DEFAULT_255_1_234
10
4.5235048
20
37.2844688
40
0.2210975
50
281.2041486
51
302.5148063
0
ARC
8
DEFAULT_255_1_234
10
4.5371898
20
37.2598241
40
0.1929674
50
303.021671
51
309.8369575
0
ARC
8
DEFAULT_255_1_234
10
4.5555359
20
37.2392488
40
0.1654181
50
309.5228395
51
356.9509836
0
ARC
8
DEFAULT_255_1_234
10
4.4891942
20
37.2487932
40
0.2322512
50
355.4701227
51
0.0492546
0
ARC
8
DEFAULT_255_1_234
10
4.4613033
20
37.2510094
40
0.2601498
50
359.5558597
51
11.2096359
0
ARC
8
DEFAULT_255_1_234
10
4.5570323
20
37.270823
40
0.1623975
50
10.9182341
51
31.3230275
0
ARC
8
DEFAULT_255_1_234
10
4.5856056
20
37.2867214
40
0.1297302
50
31.8852677
51
52.1412565
0
ARC
8
DEFAULT_255_1_234
10
4.5581789
20
37.247975
40
0.1771663
50
52.8285564
51
71.9850297
0
ARC
8
DEFAULT_255_1_234
10
4.5205965
20
37.1373664
40
0.2939794
50
71.6863486
51
82.8455995
0
ARC
8
DEFAULT_255_1_234
10
4.4966501
20
36.9564149
40
0.476506
50
82.6984714
51
90.1729175
0
ARC
8
DEFAULT_255_1_234
10
4.4944136
20
37.0787623
40
0.3541573
50
89.8708275
51
90.0431131
0
LINE
8
DEFAULT_255_1_234
10
5.7808316
20
37.0329391
11
5.7808316
21
36.9068408
0
LINE
8
DEFAULT_255_1_234
10
5.7808316
20
36.9068408
11
5.2900924
21
36.9068408
0
LINE
8
DEFAULT_255_1_234
10
5.2900924
20
36.9068408
11
5.2900924
21
36.3904
0
LINE
8
DEFAULT_255_1_234
10
5.2900924
20
36.3904
11
5.135883
21
36.3904
0
LINE
8
DEFAULT_255_1_234
10
5.135883
20
36.3904
11
5.135883
21
37.5598211
0
LINE
8
DEFAULT_255_1_234
10
5.135883
20
37.5598211
11
5.8603458
21
37.5598211
0
LINE
8
DEFAULT_255_1_234
10
5.8603458
20
37.5598211
11
5.8603458
21
37.4329196
0
LINE
8
DEFAULT_255_1_234
10
5.8603458
20
37.4329196
11
5.2900924
21
37.4329196
0
LINE
8
DEFAULT_255_1_234
10
5.2900924
20
37.4329196
11
5.2900924
21
37.0329391
0
LINE
8
DEFAULT_255_1_234
10
5.2900924
20
37.0329391
11
5.7808316
21
37.0329391
0
ENDSEC
0
EOF