0
SECTION
2
HEADER
9
$MEASUREMENT
70
1
0
ENDSEC
0
SECTION
2
TABLES
0
TABLE
2
LTYPE
0
LTYPE
72
65
70
64
2
CONTINUOUS
3
______
73
0
40
0
0
ENDTAB
0
TABLE
2
LAYER
0
LAYER
2
DEFAULT_255_2_778
70
0
62
255
6
CONTINUOUS
0
ENDTAB
0
ENDSEC
0
SECTION
2
ENTITIES
0
ARC
8
DEFAULT_255_2_778
10
37.3404872
20
55.1941433
40
0.7499998
50
271.4719871
51
0.0078468
0
ARC
8
DEFAULT_255_2_778
10
37.3403917
20
55.2093161
40
0.7651702
50
269.9996458
51
271.4499508
0
ARC
8
DEFAULT_255_2_778
10
37.3403489
20
55.194212
40
0.750066
50
181.4765716
51
270.0029087
0
ARC
8
DEFAULT_255_2_778
10
37.3551113
20
55.1942414
40
0.7648244
50
179.9996578
51
181.4502783
0
ARC
8
DEFAULT_255_2_778
10
3.140421
20
55.1942079
40
0.750066
50
271.4765716
51
0.0029087
0
ARC
8
DEFAULT_255_2_778
10
3.1403915
20
55.2089703
40
0.7648244
50
269.9996578
51
271.4502783
0
ARC
8
DEFAULT_255_2_778
10
3.1403489
20
55.194212
40
0.750066
50
181.4765716
51
270.0029087
0
ARC
8
DEFAULT_255_2_778
10
3.1551113
20
55.1942414
40
0.7648244
50
179.9996578
51
181.4502783
0
LINE
8
DEFAULT_255_2_778
10
8.215887
20
80.507446
11
8.060587
21
80.519146
0
LINE
8
DEFAULT_255_2_778
10
8.060587
20
80.519146
11
7.916087
21
80.495546
0
LINE
8
DEFAULT_255_2_778
10
7.916087
20
80.495546
11
7.820887
21
80.453446
0
LINE
8
DEFAULT_255_2_778
10
7.820887
20
80.453446
11
7.707087
21
80.355046
0
LINE
8
DEFAULT_255_2_778
10
7.707087
20
80.355046
11
7.649387
21
80.260346
0
LINE
8
DEFAULT_255_2_778
10
7.649387
20
80.260346
11
7.625087
21
80.188946
0
LINE
8
DEFAULT_255_2_778
10
7.625087
20
80.188946
11
7.613387
21
80.130946
0
LINE
8
DEFAULT_255_2_778
10
7.613387
20
80.130946
11
7.609187
21
80.094946
0
LINE
8
DEFAULT_255_2_778
10
7.609187
20
80.094946
11
7.606787
21
80.035146
0
LINE
8
DEFAULT_255_2_778
10
7.606787
20
80.035146
11
7.805287
21
80.035146
0
LINE
8
DEFAULT_255_2_778
10
7.805287
20
80.035146
11
7.807887
21
80.084646
0
LINE
8
DEFAULT_255_2_778
10
7.807887
20
80.084646
11
7.811587
21
80.109546
0
LINE
8
DEFAULT_255_2_778
10
7.811587
20
80.109546
11
7.822687
21
80.154246
0
LINE
8
DEFAULT_255_2_778
10
7.822687
20
80.154246
11
7.850187
21
80.213746
0
LINE
8
DEFAULT_255_2_778
10
7.850187
20
80.213746
11
7.913987
21
80.283346
0
LINE
8
DEFAULT_255_2_778
10
7.913987
20
80.283346
11
8.030387
21
80.332046
0
LINE
8
DEFAULT_255_2_778
10
8.030387
20
80.332046
11
8.202887
21
80.317746
0
LINE
8
DEFAULT_255_2_778
10
8.202887
20
80.317746
11
8.294187
21
80.260646
0
LINE
8
DEFAULT_255_2_778
10
8.294187
20
80.260646
11
8.341287
21
80.195246
0
LINE
8
DEFAULT_255_2_778
10
8.341287
20
80.195246
11
8.360087
21
80.142346
0
LINE
8
DEFAULT_255_2_778
10
8.360087
20
80.142346
11
8.366687
21
80.106846
0
LINE
8
DEFAULT_255_2_778
10
8.366687
20
80.106846
11
8.366387
21
80.023246
0
LINE
8
DEFAULT_255_2_778
10
8.366387
20
80.023246
11
8.360087
21
79.987846
0
LINE
8
DEFAULT_255_2_778
10
8.360087
20
79.987846
11
8.344987
21
79.935446
0
LINE
8
DEFAULT_255_2_778
10
8.344987
20
79.935446
11
8.321987
21
79.878246
0
LINE
8
DEFAULT_255_2_778
10
8.321987
20
79.878246
11
8.275187
21
79.789946
0
LINE
8
DEFAULT_255_2_778
10
8.275187
20
79.789946
11
8.195787
21
79.671646
0
LINE
8
DEFAULT_255_2_778
10
8.195787
20
79.671646
11
8.034887
21
79.473446
0
LINE
8
DEFAULT_255_2_778
10
8.034887
20
79.473446
11
7.802087
21
79.230546
0
LINE
8
DEFAULT_255_2_778
10
7.802087
20
79.230546
11
7.543887
21
78.997746
0
LINE
8
DEFAULT_255_2_778
10
7.543887
20
78.997746
11
7.543887
21
78.794046
0
LINE
8
DEFAULT_255_2_778
10
7.543887
20
78.794046
11
8.598987
21
78.794046
0
LINE
8
DEFAULT_255_2_778
10
8.598987
20
78.794046
11
8.598987
21
78.979446
0
LINE
8
DEFAULT_255_2_778
10
8.598987
20
78.979446
11
7.793387
21
78.979446
0
LINE
8
DEFAULT_255_2_778
10
7.793387
20
78.979446
11
8.148387
21
79.303646
0
LINE
8
DEFAULT_255_2_778
10
8.148387
20
79.303646
11
8.297587
21
79.465046
0
LINE
8
DEFAULT_255_2_778
10
8.297587
20
79.465046
11
8.387587
21
79.583546
0
LINE
8
DEFAULT_255_2_778
10
8.387587
20
79.583546
11
8.446887
21
79.677946
0
LINE
8
DEFAULT_255_2_778
10
8.446887
20
79.677946
11
8.503487
21
79.791746
0
LINE
8
DEFAULT_255_2_778
10
8.503487
20
79.791746
11
8.531287
21
79.865046
0
LINE
8
DEFAULT_255_2_778
10
8.531287
20
79.865046
11
8.546087
21
79.915046
0
LINE
8
DEFAULT_255_2_778
10
8.546087
20
79.915046
11
8.557487
21
79.965846
0
LINE
8
DEFAULT_255_2_778
10
8.557487
20
79.965846
11
8.561687
21
79.991546
0
LINE
8
DEFAULT_255_2_778
10
8.561687
20
79.991546
11
8.564887
21
80.017146
0
LINE
8
DEFAULT_255_2_778
10
8.564887
20
80.017146
11
8.564287
21
80.137546
0
LINE
8
DEFAULT_255_2_778
10
8.564287
20
80.137546
11
8.561187
21
80.160346
0
LINE
8
DEFAULT_255_2_778
10
8.561187
20
80.160346
11
8.556887
21
80.182846
0
LINE
8
DEFAULT_255_2_778
10
8.556887
20
80.182846
11
8.545787
21
80.225146
0
LINE
8
DEFAULT_255_2_778
10
8.545787
20
80.225146
11
8.531487
21
80.264046
0
LINE
8
DEFAULT_255_2_778
10
8.531487
20
80.264046
11
8.502987
21
80.319046
0
LINE
8
DEFAULT_255_2_778
10
8.502987
20
80.319046
11
8.452187
21
80.382846
0
LINE
8
DEFAULT_255_2_778
10
8.452187
20
80.382846
11
8.386287
21
80.437646
0
LINE
8
DEFAULT_255_2_778
10
8.386287
20
80.437646
11
8.306087
21
80.480246
0
LINE
8
DEFAULT_255_2_778
10
8.306087
20
80.480246
11
8.215887
21
80.506946
0
LINE
8
DEFAULT_255_2_778
10
2.665487
20
73.294146
11
1.890487
21
73.294146
0
LINE
8
DEFAULT_255_2_778
10
1.890487
20
73.294146
11
1.890487
21
76.294246
0
LINE
8
DEFAULT_255_2_778
10
1.890487
20
76.294246
11
2.665487
21
76.294246
0
LINE
8
DEFAULT_255_2_778
10
2.390587
20
76.294246
11
2.390587
21
85.294346
0
LINE
8
DEFAULT_255_2_778
10
15.540587
20
118.694246
11
12.140687
21
118.694246
0
LINE
8
DEFAULT_255_2_778
10
12.140687
20
118.694246
11
12.140687
21
94.194346
0
LINE
8
DEFAULT_255_2_778
10
12.140687
20
94.194346
11
11.140587
21
94.194346
0
LINE
8
DEFAULT_255_2_778
10
11.140587
20
94.194346
11
11.140587
21
85.694346
0
LINE
8
DEFAULT_255_2_778
10
11.140587
20
85.694346
11
16.540487
21
85.694346
0
LINE
8
DEFAULT_255_2_778
10
16.540487
20
85.694346
11
16.540487
21
94.194346
0
LINE
8
DEFAULT_255_2_778
10
16.540487
20
94.194346
11
15.540387
21
94.194346
0
LINE
8
DEFAULT_255_2_778
10
15.540387
20
94.194346
11
15.540387
21
118.694246
0
LINE
8
DEFAULT_255_2_778
10
38.090487
20
73.294146
11
38.090487
21
55.194246
0
LINE
8
DEFAULT_255_2_778
10
36.590287
20
55.194246
11
36.590287
21
67.694246
0
LINE
8
DEFAULT_255_2_778
10
36.590287
20
67.694246
11
3.890487
21
67.694246
0
LINE
8
DEFAULT_255_2_778
10
3.890487
20
67.694246
11
3.890487
21
55.194246
0
LINE
8
DEFAULT_255_2_778
10
2.390287
20
55.194246
11
2.390287
21
73.294146
0
LINE
8
DEFAULT_255_2_778
10
38.0905177
20
76.2941884
11
38.0905177
21
85.2942884
0
LINE
8
DEFAULT_255_2_778
10
37.8156177
20
76.2941884
11
38.5906177
21
76.2941884
0
LINE
8
DEFAULT_255_2_778
10
38.5906177
20
76.2941884
11
38.5906177
21
73.2940884
0
LINE
8
DEFAULT_255_2_778
10
38.5906177
20
73.2940884
11
37.8156177
21
73.2940884
0
ARC
8
DEFAULT_255_2_778
10
1.2367999
20
0.7925644
40
0.9963191
50
179.916016
51
221.6459452
0
ARC
8
DEFAULT_255_2_778
10
1.2394274
20
0.7915835
40
0.9976339
50
221.5035703
51
268.2692494
0
ARC
8
DEFAULT_255_2_778
10
1.2405721
20
0.8126839
40
1.0187593
50
268.2407389
51
270.0005447
0
ARC
8
DEFAULT_255_2_778
10
39.2420677
20
0.7902776
40
0.9963538
50
269.9145538
51
311.6422128
0
ARC
8
DEFAULT_255_2_778
10
39.2430709
20
0.7928125
40
0.9975846
50
311.5024107
51
358.2721781
0
ARC
8
DEFAULT_255_2_778
10
39.2215812
20
0.794015
40
1.0191008
50
358.2410304
51
0.000554
0
LINE
8
DEFAULT_255_2_778
10
0.2404818
20
86.0795248
11
0.2404818
21
0.7940248
0
LINE
8
DEFAULT_255_2_778
10
1.2405818
20
-0.2060752
11
39.2405818
21
-0.2060752
0
LINE
8
DEFAULT_255_2_778
10
40.2406818
20
0.7940248
11
40.2406818
21
86.0795248
0
ARC
8
DEFAULT_255_2_778
10
1.2368034
20
123.7954877
40
0.9963226
50
138.3541388
51
180.0816049
0
ARC
8
DEFAULT_255_2_778
10
1.2394655
20
123.7965072
40
0.9976376
50
91.732932
51
138.4994886
0
ARC
8
DEFAULT_255_2_778
10
1.2405721
20
123.7754095
40
1.0187592
50
89.9994554
51
91.7592612
0
ARC
8
DEFAULT_255_2_778
10
39.2405989
20
123.7940013
40
1.0001674
50
45.0034224
51
90.0009797
0
ARC
8
DEFAULT_255_2_778
10
39.2405868
20
123.7941157
40
1.000095
50
359.9973023
51
44.9982952
0
LINE
8
DEFAULT_255_2_778
10
40.2404818
20
43.2440687
11
40.1904818
21
43.2440687
0
LINE
8
DEFAULT_255_2_778
10
0.2904818
20
43.2440687
11
0.2404818
21
43.2440687
0
LINE
8
DEFAULT_255_2_778
10
40.2404818
20
66.2942687
11
40.1904818
21
66.2942687
0
LINE
8
DEFAULT_255_2_778
10
12.7425818
20
88.3340687
11
12.7925818
21
88.3340687
0
LINE
8
DEFAULT_255_2_778
10
12.7425818
20
118.0840687
11
14.9425818
21
118.0840687
0
LINE
8
DEFAULT_255_2_778
10
1.4903818
20
118.3941687
11
4.0904818
21
118.3941687
0
LINE
8
DEFAULT_255_2_778
10
1.2405818
20
124.7941687
11
39.2405818
21
124.7941687
0
LINE
8
DEFAULT_255_2_778
10
40.2406818
20
123.7940687
11
40.2406818
21
86.0988687
0
LINE
8
DEFAULT_255_2_778
10
40.2406818
20
86.0988687
11
40.2372818
21
86.0662687
0
LINE
8
DEFAULT_255_2_778
10
40.2372818
20
86.0662687
11
40.2271818
21
86.0266687
0
LINE
8
DEFAULT_255_2_778
10
40.2271818
20
86.0266687
11
40.2099818
21
85.9784687
0
LINE
8
DEFAULT_255_2_778
10
40.2099818
20
85.9784687
11
40.1853818
21
85.9210687
0
LINE
8
DEFAULT_255_2_778
10
40.1853818
20
85.9210687
11
40.0229818
21
85.5934687
0
LINE
8
DEFAULT_255_2_778
10
40.0229818
20
85.5934687
11
39.9758818
21
85.4934687
0
LINE
8
DEFAULT_255_2_778
10
39.9758818
20
85.4934687
11
39.9329818
21
85.3921687
0
LINE
8
DEFAULT_255_2_778
10
39.9329818
20
85.3921687
11
39.8975818
21
85.2939687
0
LINE
8
DEFAULT_255_2_778
10
39.8975818
20
85.2939687
11
37.8155818
21
85.2939687
0
LINE
8
DEFAULT_255_2_778
10
37.8155818
20
85.2939687
11
37.8155818
21
68.2939687
0
LINE
8
DEFAULT_255_2_778
10
37.8155818
20
68.2939687
11
2.6653818
21
68.2939687
0
LINE
8
DEFAULT_255_2_778
10
2.6653818
20
68.2939687
11
2.6653818
21
85.2939687
0
LINE
8
DEFAULT_255_2_778
10
2.6653818
20
85.2939687
11
0.5833818
21
85.2939687
0
LINE
8
DEFAULT_255_2_778
10
0.5833818
20
85.2939687
11
0.5478818
21
85.3921687
0
LINE
8
DEFAULT_255_2_778
10
0.5478818
20
85.3921687
11
0.5050818
21
85.4932687
0
LINE
8
DEFAULT_255_2_778
10
0.5050818
20
85.4932687
11
0.4582818
21
85.5932687
0
LINE
8
DEFAULT_255_2_778
10
0.4582818
20
85.5932687
11
0.3274818
21
85.8535687
0
LINE
8
DEFAULT_255_2_778
10
0.3274818
20
85.8535687
11
0.2954818
21
85.9210687
0
LINE
8
DEFAULT_255_2_778
10
0.2954818
20
85.9210687
11
0.2708818
21
85.9784687
0
LINE
8
DEFAULT_255_2_778
10
0.2708818
20
85.9784687
11
0.2536818
21
86.0266687
0
LINE
8
DEFAULT_255_2_778
10
0.2536818
20
86.0266687
11
0.2436818
21
86.0665687
0
LINE
8
DEFAULT_255_2_778
10
0.2436818
20
86.0665687
11
0.2404818
21
86.0988687
0
LINE
8
DEFAULT_255_2_778
10
0.2404818
20
86.0988687
11
0.2404818
21
123.7940687
0
ARC
8
DEFAULT_255_2_778
10
16.243084
20
104.8149758
40
6.9857024
50
264.2289399
51
268.200384
0
ARC
8
DEFAULT_255_2_778
10
16.2423243
20
104.7957067
40
6.9664191
50
268.201652
51
269.9997882
0
ARC
8
DEFAULT_255_2_778
10
16.2423474
20
104.7830384
40
6.9537508
50
269.9995979
51
287.739626
0
ARC
8
DEFAULT_255_2_778
10
16.2389041
20
104.7975822
40
6.9686523
50
287.7301561
51
317.1725446
0
ARC
8
DEFAULT_255_2_778
10
16.238387
20
104.7949224
40
6.9672238
50
317.191477
51
328.0826137
0
ARC
8
DEFAULT_255_2_778
10
16.2413364
20
104.7958678
40
6.9652205
50
328.0631857
51
338.1851065
0
ARC
8
DEFAULT_255_2_778
10
16.2509053
20
104.7910338
40
6.9545407
50
338.1927847
51
352.5557194
0
ARC
8
DEFAULT_255_2_778
10
16.2327869
20
104.7938475
40
6.972871
50
352.5520832
51
0.000533
0
LINE
8
DEFAULT_255_2_778
10
23.2056578
20
104.7939124
11
23.2056577
21
104.7950716
0
ARC
8
DEFAULT_255_2_778
10
16.2395171
20
104.7945376
40
6.9661406
50
0.0043922
51
18.2984912
0
ARC
8
DEFAULT_255_2_778
10
16.2472949
20
104.795999
40
6.9582973
50
18.3071742
51
29.2457376
0
ARC
8
DEFAULT_255_2_778
10
16.2159753
20
104.779078
40
6.9938915
50
29.2413364
51
31.9208579
0
ARC
8
DEFAULT_255_2_778
10
16.2440667
20
104.7984093
40
6.9598268
50
31.9080581
51
46.1612821
0
ARC
8
DEFAULT_255_2_778
10
16.2396703
20
104.7913182
40
6.9679867
50
46.1755935
51
87.0225345
0
ARC
8
DEFAULT_255_2_778
10
16.242427
20
104.8016475
40
6.9575284
50
87.0407866
51
90.0003483
0
ARC
8
DEFAULT_255_2_778
10
16.2425285
20
104.7851016
40
6.9740743
50
90.0011817
51
94.1438249
0
ARC
8
DEFAULT_255_2_778
10
16.2441142
20
104.7615267
40
6.997702
50
94.1428264
51
95.7696084
0
LINE
8
DEFAULT_255_2_778
10
4.0905453
20
119.1442796
11
1.4904453
21
119.1442796
0
LINE
8
DEFAULT_255_2_778
10
1.4904453
20
119.1442796
11
1.4904453
21
88.6441796
0
LINE
8
DEFAULT_255_2_778
10
1.4904453
20
88.6441796
11
4.0905453
21
88.6441796
0
LINE
8
DEFAULT_255_2_778
10
4.0905453
20
88.6441796
11
4.0905453
21
119.1442796
0
LINE
8
DEFAULT_255_2_778
10
18.2406453
20
76.0941796
11
15.4406453
21
76.0941796
0
LINE
8
DEFAULT_255_2_778
10
15.4406453
20
76.0941796
11
15.4406453
21
72.8942796
0
LINE
8
DEFAULT_255_2_778
10
15.4406453
20
72.8942796
11
18.2406453
21
72.8942796
0
LINE
8
DEFAULT_255_2_778
10
18.2406453
20
72.8942796
11
18.2406453
21
76.0941796
0
LINE
8
DEFAULT_255_2_778
10
18.2406453
20
81.2940796
11
15.4406453
21
81.2940796
0
LINE
8
DEFAULT_255_2_778
10
15.4406453
20
81.2940796
11
15.4406453
21
78.0941796
0
LINE
8
DEFAULT_255_2_778
10
15.4406453
20
78.0941796
11
18.2406453
21
78.0941796
0
LINE
8
DEFAULT_255_2_778
10
18.2406453
20
78.0941796
11
18.2406453
21
81.2940796
0
LINE
8
DEFAULT_255_2_778
10
21.3646453
20
91.7910796
11
21.3646453
21
88.7970796
0
LINE
8
DEFAULT_255_2_778
10
36.2405453
20
76.0941796
11
33.4404453
21
76.0941796
0
LINE
8
DEFAULT_255_2_778
10
33.4404453
20
76.0941796
11
33.4404453
21
72.8942796
0
LINE
8
DEFAULT_255_2_778
10
33.4404453
20
72.8942796
11
36.2405453
21
72.8942796
0
LINE
8
DEFAULT_255_2_778
10
36.2405453
20
72.8942796
11
36.2405453
21
76.0941796
0
LINE
8
DEFAULT_255_2_778
10
36.2405453
20
81.2940796
11
33.4404453
21
81.2940796
0
LINE
8
DEFAULT_255_2_778
10
33.4404453
20
81.2940796
11
33.4404453
21
78.0941796
0
LINE
8
DEFAULT_255_2_778
10
33.4404453
20
78.0941796
11
36.2405453
21
78.0941796
0
LINE
8
DEFAULT_255_2_778
10
36.2405453
20
78.0941796
11
36.2405453
21
81.2940796
0
ARC
8
DEFAULT_255_2_778
10
24.5405657
20
78.1938761
40
0.0999084
50
179.9474922
51
270.0525769
0
ARC
8
DEFAULT_255_2_778
10
27.1408489
20
78.1938762
40
0.0999085
50
269.9474921
51
0.0524792
0
ARC
8
DEFAULT_255_2_778
10
27.1408489
20
81.1941592
40
0.0999085
50
359.9475004
51
90.0525164
0
ARC
8
DEFAULT_255_2_778
10
24.5405659
20
81.1941589
40
0.0999088
50
89.94759
51
180.052341
0
LINE
8
DEFAULT_255_2_778
10
24.5406573
20
78.0939677
11
27.1407573
21
78.0939677
0
LINE
8
DEFAULT_255_2_778
10
27.2407573
20
78.1939677
11
27.2407573
21
81.1940677
0
LINE
8
DEFAULT_255_2_778
10
27.1407573
20
81.2940677
11
24.5406573
21
81.2940677
0
LINE
8
DEFAULT_255_2_778
10
24.4406573
20
81.1940677
11
24.4406573
21
78.1939677
0
ARC
8
DEFAULT_255_2_778
10
24.5405657
20
72.9939761
40
0.0999084
50
179.9474922
51
270.0525769
0
ARC
8
DEFAULT_255_2_778
10
27.1408489
20
72.9939762
40
0.0999085
50
269.9474921
51
0.0524792
0
ARC
8
DEFAULT_255_2_778
10
27.1408489
20
75.9942592
40
0.0999085
50
359.9475004
51
90.0525164
0
ARC
8
DEFAULT_255_2_778
10
24.5405659
20
75.9942589
40
0.0999088
50
89.94759
51
180.052341
0
LINE
8
DEFAULT_255_2_778
10
24.5406573
20
72.8940677
11
27.1407573
21
72.8940677
0
LINE
8
DEFAULT_255_2_778
10
27.2407573
20
72.9940677
11
27.2407573
21
75.9941677
0
LINE
8
DEFAULT_255_2_778
10
27.1407573
20
76.0941677
11
24.5406573
21
76.0941677
0
LINE
8
DEFAULT_255_2_778
10
24.4406573
20
75.9941677
11
24.4406573
21
72.9940677
0
LINE
8
DEFAULT_255_2_778
10
14.9426116
20
92.9360062
11
14.8926116
21
92.9360062
0
LINE
8
DEFAULT_255_2_778
10
14.8926116
20
92.4341062
11
14.9426116
21
92.4341062
0
LINE
8
DEFAULT_255_2_778
10
14.8926116
20
91.6342062
11
14.9426116
21
91.6342062
0
LINE
8
DEFAULT_255_2_778
10
14.8926116
20
91.1842062
11
14.9426116
21
91.1842062
0
LINE
8
DEFAULT_255_2_778
10
14.8926116
20
90.3841062
11
14.9426116
21
90.3841062
0
LINE
8
DEFAULT_255_2_778
10
14.8926116
20
89.9343062
11
14.9426116
21
89.9343062
0
LINE
8
DEFAULT_255_2_778
10
14.8926116
20
89.1342062
11
14.9426116
21
89.1342062
0
LINE
8
DEFAULT_255_2_778
10
14.8926116
20
88.6841062
11
14.9426116
21
88.6841062
0
LINE
8
DEFAULT_255_2_778
10
14.8926116
20
87.8843062
11
14.9426116
21
87.8843062
0
LINE
8
DEFAULT_255_2_778
10
14.6426116
20
94.0343062
11
14.9426116
21
94.0343062
0
LINE
8
DEFAULT_255_2_778
10
12.7426116
20
94.0343062
11
13.0426116
21
94.0343062
0
LINE
8
DEFAULT_255_2_778
10
12.7426116
20
93.7342062
11
13.0426116
21
93.7342062
0
LINE
8
DEFAULT_255_2_778
10
13.0926116
20
94.5883062
11
14.5926116
21
94.5883062
0
LINE
8
DEFAULT_255_2_778
10
14.9426116
20
93.7342062
11
14.6426116
21
93.7342062
0
LINE
8
DEFAULT_255_2_778
10
12.7926116
20
93.1842062
11
14.8926116
21
93.1842062
0
LINE
8
DEFAULT_255_2_778
10
14.9426116
20
92.9841062
11
12.7426116
21
92.9841062
0
LINE
8
DEFAULT_255_2_778
10
12.7426116
20
91.9843062
11
14.8926116
21
91.9843062
0
LINE
8
DEFAULT_255_2_778
10
21.3646116
20
88.7942062
11
18.5954116
21
88.7942062
0
LINE
8
DEFAULT_255_2_778
10
18.5954116
20
88.7942062
11
17.4405116
21
89.9491062
0
LINE
8
DEFAULT_255_2_778
10
17.4405116
20
89.9491062
11
17.4405116
21
91.7940062
0
LINE
8
DEFAULT_255_2_778
10
17.4405116
20
91.7940062
11
21.3646116
21
91.7940062
0
LINE
8
DEFAULT_255_2_778
10
20.9023253
20
89.1407218
11
19.7474253
21
90.2943218
0
LINE
8
DEFAULT_255_2_778
10
19.7474253
20
90.2943218
11
20.9023253
21
91.4479218
0
LINE
8
DEFAULT_255_2_778
10
20.9023253
20
91.4479218
11
20.9023253
21
89.1410218
0
LINE
8
DEFAULT_255_2_778
10
14.4425253
20
91.5842218
11
13.2427253
21
91.5842218
0
LINE
8
DEFAULT_255_2_778
10
13.2427253
20
91.5842218
11
13.2427253
21
87.7842218
0
LINE
8
DEFAULT_255_2_778
10
13.2427253
20
87.7842218
11
14.4425253
21
87.7842218
0
LINE
8
DEFAULT_255_2_778
10
14.4425253
20
87.7842218
11
14.4425253
21
91.5842218
0
LINE
8
DEFAULT_255_2_778
10
13.0426253
20
87.3842218
11
13.0426253
21
87.3342218
0
LINE
8
DEFAULT_255_2_778
10
1.4904253
20
94.5941218
11
4.0905253
21
94.5941218
0
LINE
8
DEFAULT_255_2_778
10
1.4904253
20
92.3940218
11
4.0905253
21
92.3940218
0
LINE
8
DEFAULT_255_2_778
10
1.4904253
20
89.3942218
11
4.0905253
21
89.3942218
0
LINE
8
DEFAULT_255_2_778
10
14.5926253
20
94.6946218
11
13.0926253
21
94.6946218
0
LINE
8
DEFAULT_255_2_778
10
14.5926253
20
94.6851218
11
13.0926253
21
94.6851218
0
LINE
8
DEFAULT_255_2_778
10
14.5926253
20
94.3946218
11
13.0926253
21
94.3946218
0
LINE
8
DEFAULT_255_2_778
10
14.5926245
20
94.6947298
11
14.5926245
21
93.6842298
0
LINE
8
DEFAULT_255_2_778
10
14.5926245
20
93.6842298
11
14.8926245
21
93.6842298
0
LINE
8
DEFAULT_255_2_778
10
14.8926245
20
93.6842298
11
14.8926245
21
87.3842298
0
LINE
8
DEFAULT_255_2_778
10
14.8926245
20
87.3842298
11
12.7926245
21
87.3842298
0
LINE
8
DEFAULT_255_2_778
10
12.7926245
20
87.3842298
11
12.7926245
21
93.6842298
0
LINE
8
DEFAULT_255_2_778
10
12.7926245
20
93.6842298
11
13.0926245
21
93.6842298
0
LINE
8
DEFAULT_255_2_778
10
13.0926245
20
93.6842298
11
13.0926245
21
94.6947298
0
LINE
8
DEFAULT_255_2_778
10
13.0426245
20
96.9833298
11
14.6426245
21
96.9833298
0
LINE
8
DEFAULT_255_2_778
10
13.0426245
20
96.3843298
11
14.6426245
21
96.3843298
0
LINE
8
DEFAULT_255_2_778
10
1.4904245
20
104.9941298
11
4.0905245
21
104.9941298
0
LINE
8
DEFAULT_255_2_778
10
1.4904245
20
102.7941298
11
4.0905245
21
102.7941298
0
LINE
8
DEFAULT_255_2_778
10
1.4904245
20
99.7943298
11
4.0905245
21
99.7943298
0
LINE
8
DEFAULT_255_2_778
10
1.4904245
20
97.5942298
11
4.0905245
21
97.5942298
0
LINE
8
DEFAULT_255_2_778
10
1.4904245
20
115.3941298
11
4.0905245
21
115.3941298
0
LINE
8
DEFAULT_255_2_778
10
1.4904245
20
113.1941298
11
4.0905245
21
113.1941298
0
LINE
8
DEFAULT_255_2_778
10
1.4904245
20
110.1942298
11
4.0905245
21
110.1942298
0
LINE
8
DEFAULT_255_2_778
10
1.4904245
20
107.9942298
11
4.0905245
21
107.9942298
0
LINE
8
DEFAULT_255_2_778
10
14.6426245
20
117.7841298
11
13.0426245
21
117.7841298
0
LINE
8
DEFAULT_255_2_778
10
38.6906245
20
119.1943298
11
17.0905245
21
119.1943298
0
LINE
8
DEFAULT_255_2_778
10
17.0905245
20
119.1943298
11
17.0905245
21
113.1943298
0
LINE
8
DEFAULT_255_2_778
10
17.0905245
20
113.1943298
11
38.6906245
21
113.1943298
0
LINE
8
DEFAULT_255_2_778
10
38.6906245
20
113.1943298
11
38.6906245
21
119.1943298
0
ARC
8
DEFAULT_255_2_778
10
4.2874574
20
6.7967563
40
0.9344323
50
138.4220511
51
180.1490436
0
ARC
8
DEFAULT_255_2_778
10
4.2877372
20
6.7975155
40
0.9341381
50
91.8392914
51
138.4682718
0
ARC
8
DEFAULT_255_2_778
10
4.2903975
20
6.7683848
40
0.9633407
50
89.998167
51
91.9418248
0
ARC
8
DEFAULT_255_2_778
10
4.2928755
20
6.7973359
40
0.9343929
50
48.4179611
51
90.1500632
0
ARC
8
DEFAULT_255_2_778
10
4.2935462
20
6.7969758
40
0.9342174
50
1.6416032
51
48.4633832
0
ARC
8
DEFAULT_255_2_778
10
4.2638369
20
6.7943397
40
0.9639916
50
359.9991591
51
1.7476331
0
ARC
8
DEFAULT_255_2_778
10
4.2932444
20
6.7918694
40
0.9345872
50
318.4256452
51
0.1505752
0
ARC
8
DEFAULT_255_2_778
10
4.2931246
20
6.7909937
40
0.934096
50
271.8390535
51
318.4707
0
ARC
8
DEFAULT_255_2_778
10
4.2904591
20
6.8201663
40
0.9633407
50
269.998167
51
271.9418248
0
ARC
8
DEFAULT_255_2_778
10
4.2879765
20
6.7911742
40
0.9343519
50
228.4161012
51
270.1503458
0
ARC
8
DEFAULT_255_2_778
10
4.2874009
20
6.7916153
40
0.9343
50
181.8378072
51
228.4604599
0
ARC
8
DEFAULT_255_2_778
10
4.3170873
20
6.7943008
40
0.964059
50
179.9985288
51
181.940746
0
LINE
8
DEFAULT_255_2_778
10
14.6425283
20
93.6842255
11
14.6425283
21
117.7841255
0
LINE
8
DEFAULT_255_2_778
10
14.6425283
20
117.7841255
11
14.9425283
21
118.0841255
0
LINE
8
DEFAULT_255_2_778
10
14.9425283
20
118.0841255
11
14.9425283
21
87.3342255
0
LINE
8
DEFAULT_255_2_778
10
14.9425283
20
87.3342255
11
12.7425283
21
87.3342255
0
LINE
8
DEFAULT_255_2_778
10
12.7425283
20
87.3342255
11
12.7425283
21
118.0841255
0
LINE
8
DEFAULT_255_2_778
10
12.7425283
20
118.0841255
11
13.0426283
21
117.7841255
0
LINE
8
DEFAULT_255_2_778
10
13.0426283
20
117.7841255
11
13.0426283
21
93.6840255
0
LINE
8
DEFAULT_255_2_778
10
3.3530283
20
6.7943255
11
3.3530283
21
6.7943255
0
ARC
8
DEFAULT_255_2_778
10
16.2355925
20
104.7980456
40
6.9589302
50
126.0492932
51
143.8343682
0
ARC
8
DEFAULT_255_2_778
10
16.2397865
20
104.7945965
40
6.9643515
50
143.8318212
51
174.7620447
0
ARC
8
DEFAULT_255_2_778
10
16.2463424
20
104.7949408
40
6.9708486
50
174.7697826
51
180.0016129
0
LINE
8
DEFAULT_255_2_778
10
9.2754939
20
104.7947446
11
9.2754939
21
104.7941173
0
ARC
8
DEFAULT_255_2_778
10
16.236601
20
104.7932054
40
6.9611072
50
179.9924943
51
197.7739627
0
ARC
8
DEFAULT_255_2_778
10
16.2407882
20
104.7942799
40
6.9654225
50
197.7718653
51
228.6998357
0
ARC
8
DEFAULT_255_2_778
10
16.245415
20
104.8008655
40
6.9734237
50
228.7069886
51
233.9375621
0
LINE
8
DEFAULT_255_2_778
10
6.8529939
20
9.3567173
11
1.7279939
21
9.3567173
0
LINE
8
DEFAULT_255_2_778
10
1.7279939
20
9.3567173
11
1.7279939
21
4.2318173
0
LINE
8
DEFAULT_255_2_778
10
1.7279939
20
4.2318173
11
6.8529939
21
4.2318173
0
LINE
8
DEFAULT_255_2_778
10
6.8529939
20
4.2318173
11
6.8529939
21
9.3567173
0
LINE
8
DEFAULT_255_2_778
10
20.518169
20
117.549877
11
20.168469
21
117.589577
0
LINE
8
DEFAULT_255_2_778
10
20.168469
20
117.589577
11
19.856269
21
117.582477
0
LINE
8
DEFAULT_255_2_778
10
19.856269
20
117.582477
11
19.585569
21
117.534577
0
LINE
8
DEFAULT_255_2_778
10
19.585569
20
117.534577
11
19.357469
21
117.454077
0
LINE
8
DEFAULT_255_2_778
10
19.357469
20
117.454077
11
19.173869
21
117.346977
0
LINE
8
DEFAULT_255_2_778
10
19.173869
20
117.346977
11
19.035769
21
117.219377
0
LINE
8
DEFAULT_255_2_778
10
19.035769
20
117.219377
11
18.938669
21
117.069377
0
LINE
8
DEFAULT_255_2_778
10
18.938669
20
117.069377
11
18.879169
21
116.894277
0
LINE
8
DEFAULT_255_2_778
10
18.879169
20
116.894277
11
18.860869
21
116.695577
0
LINE
8
DEFAULT_255_2_778
10
18.860869
20
116.695577
11
18.883369
21
116.508777
0
LINE
8
DEFAULT_255_2_778
10
18.883369
20
116.508777
11
18.945569
21
116.344477
0
LINE
8
DEFAULT_255_2_778
10
18.945569
20
116.344477
11
19.052969
21
116.188877
0
LINE
8
DEFAULT_255_2_778
10
19.052969
20
116.188877
11
19.188669
21
116.062977
0
LINE
8
DEFAULT_255_2_778
10
19.188669
20
116.062977
11
19.326569
21
115.975577
0
LINE
8
DEFAULT_255_2_778
10
19.326569
20
115.975577
11
19.455869
21
115.909477
0
LINE
8
DEFAULT_255_2_778
10
19.455869
20
115.909477
11
19.972369
21
115.682677
0
LINE
8
DEFAULT_255_2_778
10
19.972369
20
115.682677
11
20.051469
21
115.644077
0
LINE
8
DEFAULT_255_2_778
10
20.051469
20
115.644077
11
20.122169
21
115.604377
0
LINE
8
DEFAULT_255_2_778
10
20.122169
20
115.604377
11
20.182969
21
115.562577
0
LINE
8
DEFAULT_255_2_778
10
20.182969
20
115.562577
11
20.231469
21
115.516077
0
LINE
8
DEFAULT_255_2_778
10
20.231469
20
115.516077
11
20.264969
21
115.464677
0
LINE
8
DEFAULT_255_2_778
10
20.264969
20
115.464677
11
20.279569
21
115.414177
0
LINE
8
DEFAULT_255_2_778
10
20.279569
20
115.414177
11
20.274569
21
115.364177
0
LINE
8
DEFAULT_255_2_778
10
20.274569
20
115.364177
11
20.249669
21
115.313377
0
LINE
8
DEFAULT_255_2_778
10
20.249669
20
115.313377
11
20.204169
21
115.268077
0
LINE
8
DEFAULT_255_2_778
10
20.204169
20
115.268077
11
20.141669
21
115.231377
0
LINE
8
DEFAULT_255_2_778
10
20.141669
20
115.231377
11
20.067369
21
115.202277
0
LINE
8
DEFAULT_255_2_778
10
20.067369
20
115.202277
11
19.982469
21
115.179977
0
LINE
8
DEFAULT_255_2_778
10
19.982469
20
115.179977
11
19.887169
21
115.163577
0
LINE
8
DEFAULT_255_2_778
10
19.887169
20
115.163577
11
19.781569
21
115.153077
0
LINE
8
DEFAULT_255_2_778
10
19.781569
20
115.153077
11
19.665169
21
115.148277
0
LINE
8
DEFAULT_255_2_778
10
19.665169
20
115.148277
11
19.537169
21
115.150677
0
LINE
8
DEFAULT_255_2_778
10
19.537169
20
115.150677
11
19.396169
21
115.162777
0
LINE
8
DEFAULT_255_2_778
10
19.396169
20
115.162777
11
19.241569
21
115.188177
0
LINE
8
DEFAULT_255_2_778
10
19.241569
20
115.188177
11
19.073369
21
115.230777
0
LINE
8
DEFAULT_255_2_778
10
19.073369
20
115.230777
11
18.891269
21
115.294077
0
LINE
8
DEFAULT_255_2_778
10
18.891269
20
115.294077
11
18.891269
21
114.754077
0
LINE
8
DEFAULT_255_2_778
10
18.891269
20
114.754077
11
19.308569
21
114.657777
0
LINE
8
DEFAULT_255_2_778
10
19.308569
20
114.657777
11
19.685069
21
114.620377
0
LINE
8
DEFAULT_255_2_778
10
19.685069
20
114.620377
11
20.018469
21
114.633077
0
LINE
8
DEFAULT_255_2_778
10
20.018469
20
114.633077
11
20.308369
21
114.685277
0
LINE
8
DEFAULT_255_2_778
10
20.308369
20
114.685277
11
20.553669
21
114.770477
0
LINE
8
DEFAULT_255_2_778
10
20.553669
20
114.770477
11
20.753969
21
114.881577
0
LINE
8
DEFAULT_255_2_778
10
20.753969
20
114.881577
11
20.906369
21
115.014077
0
LINE
8
DEFAULT_255_2_778
10
20.906369
20
115.014077
11
21.011669
21
115.164377
0
LINE
8
DEFAULT_255_2_778
10
21.011669
20
115.164377
11
21.074369
21
115.331877
0
LINE
8
DEFAULT_255_2_778
10
21.074369
20
115.331877
11
21.096369
21
115.522677
0
LINE
8
DEFAULT_255_2_778
10
21.096369
20
115.522677
11
21.075969
21
115.719777
0
LINE
8
DEFAULT_255_2_778
10
21.075969
20
115.719777
11
21.011469
21
115.898577
0
LINE
8
DEFAULT_255_2_778
10
21.011469
20
115.898577
11
20.903969
21
116.059277
0
LINE
8
DEFAULT_255_2_778
10
20.903969
20
116.059277
11
20.771169
21
116.186477
0
LINE
8
DEFAULT_255_2_778
10
20.771169
20
116.186477
11
20.636769
21
116.275677
0
LINE
8
DEFAULT_255_2_778
10
20.636769
20
116.275677
11
20.510269
21
116.343377
0
LINE
8
DEFAULT_255_2_778
10
20.510269
20
116.343377
11
19.925769
21
116.614577
0
LINE
8
DEFAULT_255_2_778
10
19.925769
20
116.614577
11
19.855469
21
116.653477
0
LINE
8
DEFAULT_255_2_778
10
19.855469
20
116.653477
11
19.793569
21
116.693977
0
LINE
8
DEFAULT_255_2_778
10
19.793569
20
116.693977
11
19.742469
21
116.738177
0
LINE
8
DEFAULT_255_2_778
10
19.742469
20
116.738177
11
19.704069
21
116.786877
0
LINE
8
DEFAULT_255_2_778
10
19.704069
20
116.786877
11
19.681869
21
116.836877
0
LINE
8
DEFAULT_255_2_778
10
19.681869
20
116.836877
11
19.678669
21
116.886577
0
LINE
8
DEFAULT_255_2_778
10
19.678669
20
116.886577
11
19.695869
21
116.935577
0
LINE
8
DEFAULT_255_2_778
10
19.695869
20
116.935577
11
19.733169
21
116.978877
0
LINE
8
DEFAULT_255_2_778
10
19.733169
20
116.978877
11
19.787469
21
117.014677
0
LINE
8
DEFAULT_255_2_778
10
19.787469
20
117.014677
11
19.853069
21
117.042977
0
LINE
8
DEFAULT_255_2_778
10
19.853069
20
117.042977
11
19.928269
21
117.065677
0
LINE
8
DEFAULT_255_2_778
10
19.928269
20
117.065677
11
20.013169
21
117.082677
0
LINE
8
DEFAULT_255_2_778
10
20.013169
20
117.082677
11
20.108069
21
117.091877
0
LINE
8
DEFAULT_255_2_778
10
20.108069
20
117.091877
11
20.213369
21
117.092177
0
LINE
8
DEFAULT_255_2_778
10
20.213369
20
117.092177
11
20.329269
21
117.082877
0
LINE
8
DEFAULT_255_2_778
10
20.329269
20
117.082877
11
20.455469
21
117.064077
0
LINE
8
DEFAULT_255_2_778
10
20.455469
20
117.064077
11
20.592569
21
117.035277
0
LINE
8
DEFAULT_255_2_778
10
20.592569
20
117.035277
11
20.741269
21
116.995077
0
LINE
8
DEFAULT_255_2_778
10
20.741269
20
116.995077
11
20.901569
21
116.943477
0
LINE
8
DEFAULT_255_2_778
10
20.901569
20
116.943477
11
20.901569
21
117.483477
0
LINE
8
DEFAULT_255_2_778
10
20.901569
20
117.483477
11
20.519269
21
117.549077
0
LINE
8
DEFAULT_255_2_778
10
37.400769
20
117.484277
11
37.012569
21
117.547477
0
LINE
8
DEFAULT_255_2_778
10
37.012569
20
117.547477
11
36.658069
21
117.583777
0
LINE
8
DEFAULT_255_2_778
10
36.658069
20
117.583777
11
36.342669
21
117.571077
0
LINE
8
DEFAULT_255_2_778
10
36.342669
20
117.571077
11
36.071269
21
117.514977
0
LINE
8
DEFAULT_255_2_778
10
36.071269
20
117.514977
11
35.845769
21
117.424477
0
LINE
8
DEFAULT_255_2_778
10
35.845769
20
117.424477
11
35.666969
21
117.308277
0
LINE
8
DEFAULT_255_2_778
10
35.666969
20
117.308277
11
35.536269
21
117.174477
0
LINE
8
DEFAULT_255_2_778
10
35.536269
20
117.174477
11
35.446569
21
117.020177
0
LINE
8
DEFAULT_255_2_778
10
35.446569
20
117.020177
11
35.395769
21
116.841377
0
LINE
8
DEFAULT_255_2_778
10
35.395769
20
116.841377
11
35.387569
21
116.643477
0
LINE
8
DEFAULT_255_2_778
10
35.387569
20
116.643477
11
35.422469
21
116.458977
0
LINE
8
DEFAULT_255_2_778
10
35.422469
20
116.458977
11
35.501269
21
116.293377
0
LINE
8
DEFAULT_255_2_778
10
35.501269
20
116.293377
11
35.623269
21
116.143677
0
LINE
8
DEFAULT_255_2_778
10
35.623269
20
116.143677
11
35.761969
21
116.031177
0
LINE
8
DEFAULT_255_2_778
10
35.761969
20
116.031177
11
35.896369
21
115.953177
0
LINE
8
DEFAULT_255_2_778
10
35.896369
20
115.953177
11
36.138469
21
115.838577
0
LINE
8
DEFAULT_255_2_778
10
36.138469
20
115.838577
11
36.521569
21
115.674477
0
LINE
8
DEFAULT_255_2_778
10
36.521569
20
115.674477
11
36.665969
21
115.599077
0
LINE
8
DEFAULT_255_2_778
10
36.665969
20
115.599077
11
36.724969
21
115.558377
0
LINE
8
DEFAULT_255_2_778
10
36.724969
20
115.558377
11
36.771569
21
115.512377
0
LINE
8
DEFAULT_255_2_778
10
36.771569
20
115.512377
11
36.803069
21
115.462377
0
LINE
8
DEFAULT_255_2_778
10
36.803069
20
115.462377
11
36.815469
21
115.411777
0
LINE
8
DEFAULT_255_2_778
10
36.815469
20
115.411777
11
36.806469
21
115.360777
0
LINE
8
DEFAULT_255_2_778
10
36.806469
20
115.360777
11
36.777169
21
115.310977
0
LINE
8
DEFAULT_255_2_778
10
36.777169
20
115.310977
11
36.728169
21
115.268677
0
LINE
8
DEFAULT_255_2_778
10
36.728169
20
115.268677
11
36.664369
21
115.234477
0
LINE
8
DEFAULT_255_2_778
10
36.664369
20
115.234477
11
36.589769
21
115.207577
0
LINE
8
DEFAULT_255_2_778
10
36.589769
20
115.207577
11
36.505169
21
115.186077
0
LINE
8
DEFAULT_255_2_778
10
36.505169
20
115.186077
11
36.410669
21
115.169177
0
LINE
8
DEFAULT_255_2_778
10
36.410669
20
115.169177
11
36.306169
21
115.157577
0
LINE
8
DEFAULT_255_2_778
10
36.306169
20
115.157577
11
36.190569
21
115.151977
0
LINE
8
DEFAULT_255_2_778
10
36.190569
20
115.151977
11
36.062969
21
115.153777
0
LINE
8
DEFAULT_255_2_778
10
36.062969
20
115.153777
11
35.922769
21
115.165477
0
LINE
8
DEFAULT_255_2_778
10
35.922769
20
115.165477
11
35.769069
21
115.190377
0
LINE
8
DEFAULT_255_2_778
10
35.769069
20
115.190377
11
35.601569
21
115.231877
0
LINE
8
DEFAULT_255_2_778
10
35.601569
20
115.231877
11
35.420369
21
115.294277
0
LINE
8
DEFAULT_255_2_778
10
35.420369
20
115.294277
11
35.420369
21
114.754277
0
LINE
8
DEFAULT_255_2_778
10
35.420369
20
114.754277
11
35.833369
21
114.660077
0
LINE
8
DEFAULT_255_2_778
10
35.833369
20
114.660077
11
36.205869
21
114.623877
0
LINE
8
DEFAULT_255_2_778
10
36.205869
20
114.623877
11
36.535869
21
114.636577
0
LINE
8
DEFAULT_255_2_778
10
36.535869
20
114.636577
11
36.822969
21
114.688177
0
LINE
8
DEFAULT_255_2_778
10
36.822969
20
114.688177
11
37.065769
21
114.772577
0
LINE
8
DEFAULT_255_2_778
10
37.065769
20
114.772577
11
37.263969
21
114.883377
0
LINE
8
DEFAULT_255_2_778
10
37.263969
20
114.883377
11
37.412969
21
115.014677
0
LINE
8
DEFAULT_255_2_778
10
37.412969
20
115.014677
11
37.514269
21
115.161977
0
LINE
8
DEFAULT_255_2_778
10
37.514269
20
115.161977
11
37.576169
21
115.329277
0
LINE
8
DEFAULT_255_2_778
10
37.576169
20
115.329277
11
37.598169
21
115.524777
0
LINE
8
DEFAULT_255_2_778
10
37.598169
20
115.524777
11
37.577769
21
115.719277
0
LINE
8
DEFAULT_255_2_778
10
37.577769
20
115.719277
11
37.516169
21
115.892577
0
LINE
8
DEFAULT_255_2_778
10
37.516169
20
115.892577
11
37.410569
21
116.052877
0
LINE
8
DEFAULT_255_2_778
10
37.410569
20
116.052877
11
37.273769
21
116.184677
0
LINE
8
DEFAULT_255_2_778
10
37.273769
20
116.184677
11
37.132169
21
116.276977
0
LINE
8
DEFAULT_255_2_778
10
37.132169
20
116.276977
11
36.999369
21
116.346877
0
LINE
8
DEFAULT_255_2_778
10
36.999369
20
116.346877
11
36.471269
21
116.587877
0
LINE
8
DEFAULT_255_2_778
10
36.471269
20
116.587877
11
36.390869
21
116.629677
0
LINE
8
DEFAULT_255_2_778
10
36.390869
20
116.629677
11
36.319969
21
116.673277
0
LINE
8
DEFAULT_255_2_778
10
36.319969
20
116.673277
11
36.261169
21
116.721177
0
LINE
8
DEFAULT_255_2_778
10
36.261169
20
116.721177
11
36.218869
21
116.775177
0
LINE
8
DEFAULT_255_2_778
10
36.218869
20
116.775177
11
36.195869
21
116.832077
0
LINE
8
DEFAULT_255_2_778
10
36.195869
20
116.832077
11
36.195269
21
116.888977
0
LINE
8
DEFAULT_255_2_778
10
36.195269
20
116.888977
11
36.216969
21
116.946377
0
LINE
8
DEFAULT_255_2_778
10
36.216969
20
116.946377
11
36.260369
21
116.998277
0
LINE
8
DEFAULT_255_2_778
10
36.260369
20
116.998277
11
36.322569
21
117.035777
0
LINE
8
DEFAULT_255_2_778
10
36.322569
20
117.035777
11
36.401169
21
117.060977
0
LINE
8
DEFAULT_255_2_778
10
36.401169
20
117.060977
11
36.489769
21
117.077377
0
LINE
8
DEFAULT_255_2_778
10
36.489769
20
117.077377
11
36.587169
21
117.085777
0
LINE
8
DEFAULT_255_2_778
10
36.587169
20
117.085777
11
36.694269
21
117.086877
0
LINE
8
DEFAULT_255_2_778
10
36.694269
20
117.086877
11
36.812269
21
117.080777
0
LINE
8
DEFAULT_255_2_778
10
36.812269
20
117.080777
11
36.941669
21
117.065677
0
LINE
8
DEFAULT_255_2_778
10
36.941669
20
117.065677
11
37.082469
21
117.038977
0
LINE
8
DEFAULT_255_2_778
10
37.082469
20
117.038977
11
37.235369
21
116.999077
0
LINE
8
DEFAULT_255_2_778
10
37.235369
20
116.999077
11
37.400469
21
116.944277
0
LINE
8
DEFAULT_255_2_778
10
37.400469
20
116.944277
11
37.400469
21
117.484277
0
LINE
8
DEFAULT_255_2_778
10
26.690669
20
117.514177
11
25.670669
21
117.514177
0
LINE
8
DEFAULT_255_2_778
10
25.670669
20
117.514177
11
25.670669
21
114.694277
0
LINE
8
DEFAULT_255_2_778
10
25.670669
20
114.694277
11
26.240669
21
114.694277
0
LINE
8
DEFAULT_255_2_778
10
26.240669
20
114.694277
11
26.240669
21
116.494177
0
LINE
8
DEFAULT_255_2_778
10
26.240669
20
116.494177
11
27.020569
21
114.664077
0
LINE
8
DEFAULT_255_2_778
10
27.020569
20
114.664077
11
27.530769
21
114.664077
0
LINE
8
DEFAULT_255_2_778
10
27.530769
20
114.664077
11
28.340669
21
116.524077
0
LINE
8
DEFAULT_255_2_778
10
28.340669
20
116.524077
11
28.340669
21
114.693977
0
LINE
8
DEFAULT_255_2_778
10
28.340669
20
114.693977
11
29.150469
21
114.693977
0
LINE
8
DEFAULT_255_2_778
10
29.150469
20
114.693977
11
29.150469
21
117.514177
0
LINE
8
DEFAULT_255_2_778
10
29.150469
20
117.514177
11
28.130569
21
117.514177
0
LINE
8
DEFAULT_255_2_778
10
28.130569
20
117.514177
11
27.440469
21
115.804177
0
LINE
8
DEFAULT_255_2_778
10
27.440469
20
115.804177
11
26.690369
21
117.514177
0
LINE
8
DEFAULT_255_2_778
10
25.130669
20
117.514177
11
23.060569
21
117.514177
0
LINE
8
DEFAULT_255_2_778
10
23.060569
20
117.514177
11
23.060569
21
114.694277
0
LINE
8
DEFAULT_255_2_778
10
23.060569
20
114.694277
11
25.160569
21
114.694277
0
LINE
8
DEFAULT_255_2_778
10
25.160569
20
114.694277
11
25.160569
21
115.204377
0
LINE
8
DEFAULT_255_2_778
10
25.160569
20
115.204377
11
23.870469
21
115.204377
0
LINE
8
DEFAULT_255_2_778
10
23.870469
20
115.204377
11
23.870469
21
115.894377
0
LINE
8
DEFAULT_255_2_778
10
23.870469
20
115.894377
11
24.980369
21
115.894377
0
LINE
8
DEFAULT_255_2_778
10
24.980369
20
115.894377
11
24.980369
21
116.344477
0
LINE
8
DEFAULT_255_2_778
10
24.980369
20
116.344477
11
23.870469
21
116.344477
0
LINE
8
DEFAULT_255_2_778
10
23.870469
20
116.344477
11
23.870469
21
117.004277
0
LINE
8
DEFAULT_255_2_778
10
23.870469
20
117.004277
11
25.130469
21
117.004277
0
LINE
8
DEFAULT_255_2_778
10
25.130469
20
117.004277
11
25.130469
21
117.514477
0
LINE
8
DEFAULT_255_2_778
10
22.400469
20
117.514177
11
21.530469
21
117.514177
0
LINE
8
DEFAULT_255_2_778
10
21.530469
20
117.514177
11
21.530469
21
114.694277
0
LINE
8
DEFAULT_255_2_778
10
21.530469
20
114.694277
11
22.400469
21
114.694277
0
LINE
8
DEFAULT_255_2_778
10
22.400469
20
114.694277
11
22.400469
21
117.514177
0
LINE
8
DEFAULT_255_2_778
10
33.350469
20
117.514177
11
32.420469
21
117.514177
0
LINE
8
DEFAULT_255_2_778
10
32.420469
20
117.514177
11
32.420469
21
114.694277
0
LINE
8
DEFAULT_255_2_778
10
32.420469
20
114.694277
11
32.990369
21
114.694277
0
LINE
8
DEFAULT_255_2_778
10
32.990369
20
114.694277
11
32.990369
21
116.494177
0
LINE
8
DEFAULT_255_2_778
10
32.990369
20
116.494177
11
34.010369
21
114.694277
0
LINE
8
DEFAULT_255_2_778
10
34.010369
20
114.694277
11
34.940369
21
114.694277
0
LINE
8
DEFAULT_255_2_778
10
34.940369
20
114.694277
11
34.940369
21
117.514177
0
LINE
8
DEFAULT_255_2_778
10
34.940369
20
117.514177
11
34.340269
21
117.514177
0
LINE
8
DEFAULT_255_2_778
10
34.340269
20
117.514177
11
34.340269
21
115.774277
0
LINE
8
DEFAULT_255_2_778
10
34.340269
20
115.774277
11
33.350269
21
117.514177
0
LINE
8
DEFAULT_255_2_778
10
31.910669
20
117.514177
11
29.810669
21
117.514177
0
LINE
8
DEFAULT_255_2_778
10
29.810669
20
117.514177
11
29.810669
21
114.694277
0
LINE
8
DEFAULT_255_2_778
10
29.810669
20
114.694277
11
31.940569
21
114.694277
0
LINE
8
DEFAULT_255_2_778
10
31.940569
20
114.694277
11
31.940569
21
115.204377
0
LINE
8
DEFAULT_255_2_778
10
31.940569
20
115.204377
11
30.650469
21
115.204377
0
LINE
8
DEFAULT_255_2_778
10
30.650469
20
115.204377
11
30.650469
21
115.894377
0
LINE
8
DEFAULT_255_2_778
10
30.650469
20
115.894377
11
31.760369
21
115.894377
0
LINE
8
DEFAULT_255_2_778
10
31.760369
20
115.894377
11
31.760369
21
116.344477
0
LINE
8
DEFAULT_255_2_778
10
31.760369
20
116.344477
11
30.650469
21
116.344477
0
LINE
8
DEFAULT_255_2_778
10
30.650469
20
116.344477
11
30.650469
21
117.004277
0
LINE
8
DEFAULT_255_2_778
10
30.650469
20
117.004277
11
31.910369
21
117.004277
0
LINE
8
DEFAULT_255_2_778
10
31.910369
20
117.004277
11
31.910369
21
117.514477
0
LINE
8
DEFAULT_255_2_778
10
5.9074355
20
117.4437677
11
6.1214355
21
117.4437677
0
LINE
8
DEFAULT_255_2_778
10
6.1214355
20
117.4437677
11
6.1193355
21
117.5419677
0
LINE
8
DEFAULT_255_2_778
10
6.1193355
20
117.5419677
11
6.1148355
21
117.5755677
0
LINE
8
DEFAULT_255_2_778
10
6.1148355
20
117.5755677
11
6.1047355
21
117.6263677
0
LINE
8
DEFAULT_255_2_778
10
6.1047355
20
117.6263677
11
6.0849355
21
117.6932677
0
LINE
8
DEFAULT_255_2_778
10
6.0849355
20
117.6932677
11
6.0502355
21
117.7739677
0
LINE
8
DEFAULT_255_2_778
10
6.0502355
20
117.7739677
11
5.9891355
21
117.8687677
0
LINE
8
DEFAULT_255_2_778
10
5.9891355
20
117.8687677
11
5.9108355
21
117.9459677
0
LINE
8
DEFAULT_255_2_778
10
5.9108355
20
117.9459677
11
5.7986355
21
118.0057677
0
LINE
8
DEFAULT_255_2_778
10
5.7986355
20
118.0057677
11
5.5872355
21
118.0380677
0
LINE
8
DEFAULT_255_2_778
10
5.5872355
20
118.0380677
11
5.3848355
21
118.0089677
0
LINE
8
DEFAULT_255_2_778
10
5.3848355
20
118.0089677
11
5.2446355
21
117.9406677
0
LINE
8
DEFAULT_255_2_778
10
5.2446355
20
117.9406677
11
5.1456355
21
117.8501677
0
LINE
8
DEFAULT_255_2_778
10
5.1456355
20
117.8501677
11
5.0898355
21
117.7687677
0
LINE
8
DEFAULT_255_2_778
10
5.0898355
20
117.7687677
11
5.0535355
21
117.6885677
0
LINE
8
DEFAULT_255_2_778
10
5.0535355
20
117.6885677
11
5.0332355
21
117.6210677
0
LINE
8
DEFAULT_255_2_778
10
5.0332355
20
117.6210677
11
5.0242355
21
117.5803677
0
LINE
8
DEFAULT_255_2_778
10
5.0242355
20
117.5803677
11
5.0165355
21
117.5329677
0
LINE
8
DEFAULT_255_2_778
10
5.0165355
20
117.5329677
11
5.0184355
21
117.2667677
0
LINE
8
DEFAULT_255_2_778
10
5.0184355
20
117.2667677
11
5.0295355
21
117.2101677
0
LINE
8
DEFAULT_255_2_778
10
5.0295355
20
117.2101677
11
5.0490355
21
117.1453677
0
LINE
8
DEFAULT_255_2_778
10
5.0490355
20
117.1453677
11
5.0869355
21
117.0646677
0
LINE
8
DEFAULT_255_2_778
10
5.0869355
20
117.0646677
11
5.1559355
21
116.9770677
0
LINE
8
DEFAULT_255_2_778
10
5.1559355
20
116.9770677
11
5.2861355
21
116.8855677
0
LINE
8
DEFAULT_255_2_778
10
5.2861355
20
116.8855677
11
5.3994355
21
116.8376677
0
LINE
8
DEFAULT_255_2_778
10
5.3994355
20
116.8376677
11
5.8020355
21
116.6894677
0
LINE
8
DEFAULT_255_2_778
10
5.8020355
20
116.6894677
11
5.8936355
21
116.6082677
0
LINE
8
DEFAULT_255_2_778
10
5.8936355
20
116.6082677
11
5.9245355
21
116.5555677
0
LINE
8
DEFAULT_255_2_778
10
5.9245355
20
116.5555677
11
5.9394355
21
116.5116677
0
LINE
8
DEFAULT_255_2_778
10
5.9394355
20
116.5116677
11
5.9462355
21
116.4772677
0
LINE
8
DEFAULT_255_2_778
10
5.9462355
20
116.4772677
11
5.9449355
21
116.2989677
0
LINE
8
DEFAULT_255_2_778
10
5.9449355
20
116.2989677
11
5.9370355
21
116.2603677
0
LINE
8
DEFAULT_255_2_778
10
5.9370355
20
116.2603677
11
5.9206355
21
116.2103677
0
LINE
8
DEFAULT_255_2_778
10
5.9206355
20
116.2103677
11
5.8748355
21
116.1288677
0
LINE
8
DEFAULT_255_2_778
10
5.8748355
20
116.1288677
11
5.7944355
21
116.0526677
0
LINE
8
DEFAULT_255_2_778
10
5.7944355
20
116.0526677
11
5.6383355
21
116.0028677
0
LINE
8
DEFAULT_255_2_778
10
5.6383355
20
116.0028677
11
5.4533355
21
116.0155677
0
LINE
8
DEFAULT_255_2_778
10
5.4533355
20
116.0155677
11
5.3078355
21
116.1042677
0
LINE
8
DEFAULT_255_2_778
10
5.3078355
20
116.1042677
11
5.2380355
21
116.2174677
0
LINE
8
DEFAULT_255_2_778
10
5.2380355
20
116.2174677
11
5.2110355
21
116.3042677
0
LINE
8
DEFAULT_255_2_778
10
5.2110355
20
116.3042677
11
5.2038355
21
116.3481677
0
LINE
8
DEFAULT_255_2_778
10
5.2038355
20
116.3481677
11
5.2028355
21
116.4325677
0
LINE
8
DEFAULT_255_2_778
10
5.2028355
20
116.4325677
11
4.9911355
21
116.4325677
0
LINE
8
DEFAULT_255_2_778
10
4.9911355
20
116.4325677
11
4.9932355
21
116.3595677
0
LINE
8
DEFAULT_255_2_778
10
4.9932355
20
116.3595677
11
4.9969355
21
116.3216677
0
LINE
8
DEFAULT_255_2_778
10
4.9969355
20
116.3216677
11
5.0025355
21
116.2833677
0
LINE
8
DEFAULT_255_2_778
10
5.0025355
20
116.2833677
11
5.0144355
21
116.2251677
0
LINE
8
DEFAULT_255_2_778
10
5.0144355
20
116.2251677
11
5.0369355
21
116.1476677
0
LINE
8
DEFAULT_255_2_778
10
5.0369355
20
116.1476677
11
5.0668355
21
116.0721677
0
LINE
8
DEFAULT_255_2_778
10
5.0668355
20
116.0721677
11
5.1210355
21
115.9750677
0
LINE
8
DEFAULT_255_2_778
10
5.1210355
20
115.9750677
11
5.1887355
21
115.8922677
0
LINE
8
DEFAULT_255_2_778
10
5.1887355
20
115.8922677
11
5.2710355
21
115.8269677
0
LINE
8
DEFAULT_255_2_778
10
5.2710355
20
115.8269677
11
5.4176355
21
115.7687677
0
LINE
8
DEFAULT_255_2_778
10
5.4176355
20
115.7687677
11
5.6176355
21
115.7523677
0
LINE
8
DEFAULT_255_2_778
10
5.6176355
20
115.7523677
11
5.7891355
21
115.7845677
0
LINE
8
DEFAULT_255_2_778
10
5.7891355
20
115.7845677
11
5.9185355
21
115.8512677
0
LINE
8
DEFAULT_255_2_778
10
5.9185355
20
115.8512677
11
5.9997355
21
115.9242677
0
LINE
8
DEFAULT_255_2_778
10
5.9997355
20
115.9242677
11
6.0566355
21
116.0002677
0
LINE
8
DEFAULT_255_2_778
10
6.0566355
20
116.0002677
11
6.0931355
21
116.0687677
0
LINE
8
DEFAULT_255_2_778
10
6.0931355
20
116.0687677
11
6.1161355
21
116.1269677
0
LINE
8
DEFAULT_255_2_778
10
6.1161355
20
116.1269677
11
6.1338355
21
116.1870677
0
LINE
8
DEFAULT_255_2_778
10
6.1338355
20
116.1870677
11
6.1431355
21
116.2277677
0
LINE
8
DEFAULT_255_2_778
10
6.1431355
20
116.2277677
11
6.1513355
21
116.2753677
0
LINE
8
DEFAULT_255_2_778
10
6.1513355
20
116.2753677
11
6.1571355
21
116.3232677
0
LINE
8
DEFAULT_255_2_778
10
6.1571355
20
116.3232677
11
6.1547355
21
116.5664677
0
LINE
8
DEFAULT_255_2_778
10
6.1547355
20
116.5664677
11
6.1465355
21
116.6148677
0
LINE
8
DEFAULT_255_2_778
10
6.1465355
20
116.6148677
11
6.1291355
21
116.6820677
0
LINE
8
DEFAULT_255_2_778
10
6.1291355
20
116.6820677
11
6.0886355
21
116.7757677
0
LINE
8
DEFAULT_255_2_778
10
6.0886355
20
116.7757677
11
6.0169355
21
116.8712677
0
LINE
8
DEFAULT_255_2_778
10
6.0169355
20
116.8712677
11
5.8732355
21
116.9731677
0
LINE
8
DEFAULT_255_2_778
10
5.8732355
20
116.9731677
11
5.7555355
21
117.0220677
0
LINE
8
DEFAULT_255_2_778
10
5.7555355
20
117.0220677
11
5.3501355
21
117.1739677
0
LINE
8
DEFAULT_255_2_778
10
5.3501355
20
117.1739677
11
5.2708355
21
117.2525677
0
LINE
8
DEFAULT_255_2_778
10
5.2708355
20
117.2525677
11
5.2435355
21
117.3048677
0
LINE
8
DEFAULT_255_2_778
10
5.2435355
20
117.3048677
11
5.2311355
21
117.3477677
0
LINE
8
DEFAULT_255_2_778
10
5.2311355
20
117.3477677
11
5.2258355
21
117.3810677
0
LINE
8
DEFAULT_255_2_778
10
5.2258355
20
117.3810677
11
5.2266355
21
117.4922677
0
LINE
8
DEFAULT_255_2_778
10
5.2266355
20
117.4922677
11
5.2335355
21
117.5313677
0
LINE
8
DEFAULT_255_2_778
10
5.2335355
20
117.5313677
11
5.2491355
21
117.5837677
0
LINE
8
DEFAULT_255_2_778
10
5.2491355
20
117.5837677
11
5.2824355
21
117.6475677
0
LINE
8
DEFAULT_255_2_778
10
5.2824355
20
117.6475677
11
5.3533355
21
117.7179677
0
LINE
8
DEFAULT_255_2_778
10
5.3533355
20
117.7179677
11
5.4943355
21
117.7747677
0
LINE
8
DEFAULT_255_2_778
10
5.4943355
20
117.7747677
11
5.6661355
21
117.7739677
0
LINE
8
DEFAULT_255_2_778
10
5.6661355
20
117.7739677
11
5.8322355
21
117.6678677
0
LINE
8
DEFAULT_255_2_778
10
5.8322355
20
117.6678677
11
5.8883355
21
117.5612677
0
LINE
8
DEFAULT_255_2_778
10
5.8883355
20
117.5612677
11
5.9018355
21
117.5049677
0
LINE
8
DEFAULT_255_2_778
10
5.9018355
20
117.5049677
11
5.9071355
21
117.4617677
0
LINE
8
DEFAULT_255_2_778
10
5.9071355
20
117.4617677
11
5.9081355
21
117.4445677
0
LINE
8
DEFAULT_255_2_778
10
6.4815355
20
117.9941677
11
7.4300355
21
117.9941677
0
LINE
8
DEFAULT_255_2_778
10
7.4300355
20
117.9941677
11
7.4300355
21
117.7446677
0
LINE
8
DEFAULT_255_2_778
10
7.4300355
20
117.7446677
11
6.6921355
21
117.7446677
0
LINE
8
DEFAULT_255_2_778
10
6.6921355
20
117.7446677
11
6.6921355
21
117.0508677
0
LINE
8
DEFAULT_255_2_778
10
6.6921355
20
117.0508677
11
7.3917355
21
117.0508677
0
LINE
8
DEFAULT_255_2_778
10
7.3917355
20
117.0508677
11
7.3917355
21
116.8013677
0
LINE
8
DEFAULT_255_2_778
10
7.3917355
20
116.8013677
11
6.6921355
21
116.8013677
0
LINE
8
DEFAULT_255_2_778
10
6.6921355
20
116.8013677
11
6.6921355
21
115.7941677
0
LINE
8
DEFAULT_255_2_778
10
6.6921355
20
115.7941677
11
6.4815355
21
115.7941677
0
LINE
8
DEFAULT_255_2_778
10
6.4815355
20
115.7941677
11
6.4815355
21
117.9941677
0
LINE
8
DEFAULT_255_2_778
10
6.2928615
20
112.7942698
11
7.1736615
21
112.7942698
0
LINE
8
DEFAULT_255_2_778
10
7.1736615
20
112.7942698
11
7.1736615
21
112.5447698
0
LINE
8
DEFAULT_255_2_778
10
7.1736615
20
112.5447698
11
6.4886615
21
112.5447698
0
LINE
8
DEFAULT_255_2_778
10
6.4886615
20
112.5447698
11
6.4886615
21
111.8510698
0
LINE
8
DEFAULT_255_2_778
10
6.4886615
20
111.8510698
11
7.1381615
21
111.8510698
0
LINE
8
DEFAULT_255_2_778
10
7.1381615
20
111.8510698
11
7.1381615
21
111.6015698
0
LINE
8
DEFAULT_255_2_778
10
7.1381615
20
111.6015698
11
6.4886615
21
111.6015698
0
LINE
8
DEFAULT_255_2_778
10
6.4886615
20
111.6015698
11
6.4886615
21
110.5942698
0
LINE
8
DEFAULT_255_2_778
10
6.4886615
20
110.5942698
11
6.2930615
21
110.5942698
0
LINE
8
DEFAULT_255_2_778
10
6.2930615
20
110.5942698
11
6.2930615
21
112.7942698
0
LINE
8
DEFAULT_255_2_778
10
4.9905615
20
112.7942698
11
5.6035615
21
112.7820698
0
LINE
8
DEFAULT_255_2_778
10
5.6035615
20
112.7820698
11
5.7570615
21
112.7273698
0
LINE
8
DEFAULT_255_2_778
10
5.7570615
20
112.7273698
11
5.8552615
21
112.6468698
0
LINE
8
DEFAULT_255_2_778
10
5.8552615
20
112.6468698
11
5.9128615
21
112.5667698
0
LINE
8
DEFAULT_255_2_778
10
5.9128615
20
112.5667698
11
5.9411615
21
112.5047698
0
LINE
8
DEFAULT_255_2_778
10
5.9411615
20
112.5047698
11
5.9570615
21
112.4532698
0
LINE
8
DEFAULT_255_2_778
10
5.9570615
20
112.4532698
11
5.9647615
21
112.4180698
0
LINE
8
DEFAULT_255_2_778
10
5.9647615
20
112.4180698
11
5.9703615
21
112.3820698
0
LINE
8
DEFAULT_255_2_778
10
5.9703615
20
112.3820698
11
5.9703615
21
112.1312698
0
LINE
8
DEFAULT_255_2_778
10
5.9703615
20
112.1312698
11
5.9639615
21
112.0907698
0
LINE
8
DEFAULT_255_2_778
10
5.9639615
20
112.0907698
11
5.9549615
21
112.0507698
0
LINE
8
DEFAULT_255_2_778
10
5.9549615
20
112.0507698
11
5.9343615
21
111.9864698
0
LINE
8
DEFAULT_255_2_778
10
5.9343615
20
111.9864698
11
5.9004615
21
111.9158698
0
LINE
8
DEFAULT_255_2_778
10
5.9004615
20
111.9158698
11
5.8382615
21
111.8330698
0
LINE
8
DEFAULT_255_2_778
10
5.8382615
20
111.8330698
11
5.7506615
21
111.7660698
0
LINE
8
DEFAULT_255_2_778
10
5.7506615
20
111.7660698
11
5.7252615
21
111.7536698
0
LINE
8
DEFAULT_255_2_778
10
5.7252615
20
111.7536698
11
5.8287615
21
111.6991698
0
LINE
8
DEFAULT_255_2_778
10
5.8287615
20
111.6991698
11
5.9020615
21
111.6308698
0
LINE
8
DEFAULT_255_2_778
10
5.9020615
20
111.6308698
11
5.9546615
21
111.5525698
0
LINE
8
DEFAULT_255_2_778
10
5.9546615
20
111.5525698
11
5.9840615
21
111.4877698
0
LINE
8
DEFAULT_255_2_778
10
5.9840615
20
111.4877698
11
6.0020615
21
111.4311698
0
LINE
8
DEFAULT_255_2_778
10
6.0020615
20
111.4311698
11
6.0150615
21
111.3731698
0
LINE
8
DEFAULT_255_2_778
10
6.0150615
20
111.3731698
11
6.0192615
21
111.3472698
0
LINE
8
DEFAULT_255_2_778
10
6.0192615
20
111.3472698
11
6.0187615
21
111.0104698
0
LINE
8
DEFAULT_255_2_778
10
6.0187615
20
111.0104698
11
6.0113615
21
110.9715698
0
LINE
8
DEFAULT_255_2_778
10
6.0113615
20
110.9715698
11
5.9959615
21
110.9141698
0
LINE
8
DEFAULT_255_2_778
10
5.9959615
20
110.9141698
11
5.9684615
21
110.8450698
0
LINE
8
DEFAULT_255_2_778
10
5.9684615
20
110.8450698
11
5.9142615
21
110.7574698
0
LINE
8
DEFAULT_255_2_778
10
5.9142615
20
110.7574698
11
5.8308615
21
110.6759698
0
LINE
8
DEFAULT_255_2_778
10
5.8308615
20
110.6759698
11
5.7192615
21
110.6204698
0
LINE
8
DEFAULT_255_2_778
10
5.7192615
20
110.6204698
11
5.5271615
21
110.5937698
0
LINE
8
DEFAULT_255_2_778
10
5.5271615
20
110.5937698
11
4.9910615
21
110.5937698
0
LINE
8
DEFAULT_255_2_778
10
4.9910615
20
110.5937698
11
4.9905615
21
112.7942698
0
LINE
8
DEFAULT_255_2_778
10
5.5093615
20
110.8437698
11
5.6694615
21
110.8709698
0
LINE
8
DEFAULT_255_2_778
10
5.6694615
20
110.8709698
11
5.7522615
21
110.9289698
0
LINE
8
DEFAULT_255_2_778
10
5.7522615
20
110.9289698
11
5.7922615
21
110.9913698
0
LINE
8
DEFAULT_255_2_778
10
5.7922615
20
110.9913698
11
5.8131615
21
111.0487698
0
LINE
8
DEFAULT_255_2_778
10
5.8131615
20
111.0487698
11
5.8239615
21
111.0964698
0
LINE
8
DEFAULT_255_2_778
10
5.8239615
20
111.0964698
11
5.8290615
21
111.1294698
0
LINE
8
DEFAULT_255_2_778
10
5.8290615
20
111.1294698
11
5.8276615
21
111.3321698
0
LINE
8
DEFAULT_255_2_778
10
5.8276615
20
111.3321698
11
5.8202615
21
111.3694698
0
LINE
8
DEFAULT_255_2_778
10
5.8202615
20
111.3694698
11
5.8052615
21
111.4176698
0
LINE
8
DEFAULT_255_2_778
10
5.8052615
20
111.4176698
11
5.7639615
21
111.4903698
0
LINE
8
DEFAULT_255_2_778
10
5.7639615
20
111.4903698
11
5.6760615
21
111.5671698
0
LINE
8
DEFAULT_255_2_778
10
5.6760615
20
111.5671698
11
5.4779615
21
111.6091698
0
LINE
8
DEFAULT_255_2_778
10
5.4779615
20
111.6091698
11
5.1860615
21
111.6091698
0
LINE
8
DEFAULT_255_2_778
10
5.1860615
20
111.6091698
11
5.1860615
21
110.8437698
0
LINE
8
DEFAULT_255_2_778
10
5.1860615
20
110.8437698
11
5.5093615
21
110.8437698
0
LINE
8
DEFAULT_255_2_778
10
5.4535615
20
111.8650698
11
5.6160615
21
111.8920698
0
LINE
8
DEFAULT_255_2_778
10
5.6160615
20
111.8920698
11
5.7218615
21
111.9745698
0
LINE
8
DEFAULT_255_2_778
10
5.7218615
20
111.9745698
11
5.7546615
21
112.0309698
0
LINE
8
DEFAULT_255_2_778
10
5.7546615
20
112.0309698
11
5.7710615
21
112.0830698
0
LINE
8
DEFAULT_255_2_778
10
5.7710615
20
112.0830698
11
5.7768615
21
112.1155698
0
LINE
8
DEFAULT_255_2_778
10
5.7768615
20
112.1155698
11
5.7758615
21
112.2886698
0
LINE
8
DEFAULT_255_2_778
10
5.7758615
20
112.2886698
11
5.7660615
21
112.3344698
0
LINE
8
DEFAULT_255_2_778
10
5.7660615
20
112.3344698
11
5.7411615
21
112.3968698
0
LINE
8
DEFAULT_255_2_778
10
5.7411615
20
112.3968698
11
5.6729615
21
112.4804698
0
LINE
8
DEFAULT_255_2_778
10
5.6729615
20
112.4804698
11
5.5371615
21
112.5386698
0
LINE
8
DEFAULT_255_2_778
10
5.5371615
20
112.5386698
11
5.4535615
21
112.5447698
0
LINE
8
DEFAULT_255_2_778
10
5.4535615
20
112.5447698
11
5.1860615
21
112.5447698
0
LINE
8
DEFAULT_255_2_778
10
5.1860615
20
112.5447698
11
5.1860615
21
111.8650698
0
LINE
8
DEFAULT_255_2_778
10
5.1860615
20
111.8650698
11
5.4535615
21
111.8650698
0
LINE
8
DEFAULT_255_2_778
10
6.7630219
20
102.3943052
11
7.9174219
21
102.3943052
0
LINE
8
DEFAULT_255_2_778
10
7.9174219
20
102.3943052
11
7.9174219
21
102.1448052
0
LINE
8
DEFAULT_255_2_778
10
7.9174219
20
102.1448052
11
7.4379219
21
102.1448052
0
LINE
8
DEFAULT_255_2_778
10
7.4379219
20
102.1448052
11
7.4379219
21
100.1943052
0
LINE
8
DEFAULT_255_2_778
10
7.4379219
20
100.1943052
11
7.2424219
21
100.1943052
0
LINE
8
DEFAULT_255_2_778
10
7.2424219
20
100.1943052
11
7.2424219
21
102.1448052
0
LINE
8
DEFAULT_255_2_778
10
7.2424219
20
102.1448052
11
6.7630219
21
102.1448052
0
LINE
8
DEFAULT_255_2_778
10
6.7630219
20
102.1448052
11
6.7630219
21
102.3943052
0
LINE
8
DEFAULT_255_2_778
10
6.1915219
20
102.3943052
11
6.5087219
21
102.3943052
0
LINE
8
DEFAULT_255_2_778
10
6.5087219
20
102.3943052
11
6.5087219
21
100.1943052
0
LINE
8
DEFAULT_255_2_778
10
6.5087219
20
100.1943052
11
6.3132219
21
100.1943052
0
LINE
8
DEFAULT_255_2_778
10
6.3132219
20
100.1943052
11
6.3132219
21
102.1668052
0
LINE
8
DEFAULT_255_2_778
10
6.3132219
20
102.1668052
11
5.8541219
21
100.1943052
0
LINE
8
DEFAULT_255_2_778
10
5.8541219
20
100.1943052
11
5.6575219
21
100.1943052
0
LINE
8
DEFAULT_255_2_778
10
5.6575219
20
100.1943052
11
5.1863219
21
102.1636052
0
LINE
8
DEFAULT_255_2_778
10
5.1863219
20
102.1636052
11
5.1863219
21
100.1943052
0
LINE
8
DEFAULT_255_2_778
10
5.1863219
20
100.1943052
11
4.9908219
21
100.1943052
0
LINE
8
DEFAULT_255_2_778
10
4.9908219
20
100.1943052
11
4.9908219
21
102.3943052
0
LINE
8
DEFAULT_255_2_778
10
4.9908219
20
102.3943052
11
5.3080219
21
102.3943052
0
LINE
8
DEFAULT_255_2_778
10
5.3080219
20
102.3943052
11
5.7570219
21
100.5528052
0
LINE
8
DEFAULT_255_2_778
10
5.7570219
20
100.5528052
11
6.1917219
21
102.3943052
0
LINE
8
DEFAULT_255_2_778
10
7.3499459
20
91.9942771
11
7.5295459
21
91.9942771
0
LINE
8
DEFAULT_255_2_778
10
7.5295459
20
91.9942771
11
7.5295459
21
89.7942771
0
LINE
8
DEFAULT_255_2_778
10
7.5295459
20
89.7942771
11
7.2871459
21
89.7942771
0
LINE
8
DEFAULT_255_2_778
10
7.2871459
20
89.7942771
11
6.6500459
21
91.6185771
0
LINE
8
DEFAULT_255_2_778
10
6.6500459
20
91.6185771
11
6.6500459
21
89.7942771
0
LINE
8
DEFAULT_255_2_778
10
6.6500459
20
89.7942771
11
6.4704459
21
89.7942771
0
LINE
8
DEFAULT_255_2_778
10
6.4704459
20
89.7942771
11
6.4704459
21
91.9942771
0
LINE
8
DEFAULT_255_2_778
10
6.4704459
20
91.9942771
11
6.7051459
21
91.9942771
0
LINE
8
DEFAULT_255_2_778
10
6.7051459
20
91.9942771
11
7.3496459
21
90.1498771
0
LINE
8
DEFAULT_255_2_778
10
7.3496459
20
90.1498771
11
7.3496459
21
91.9942771
0
LINE
8
DEFAULT_255_2_778
10
6.0354459
20
90.0903771
11
6.0735459
21
90.1850771
0
LINE
8
DEFAULT_255_2_778
10
6.0735459
20
90.1850771
11
6.0944459
21
90.2498771
0
LINE
8
DEFAULT_255_2_778
10
6.0944459
20
90.2498771
11
6.1121459
21
90.3154771
0
LINE
8
DEFAULT_255_2_778
10
6.1121459
20
90.3154771
11
6.1227459
21
90.3604771
0
LINE
8
DEFAULT_255_2_778
10
6.1227459
20
90.3604771
11
6.1320459
21
90.4057771
0
LINE
8
DEFAULT_255_2_778
10
6.1320459
20
90.4057771
11
6.1402459
21
90.4509771
0
LINE
8
DEFAULT_255_2_778
10
6.1402459
20
90.4509771
11
6.1473459
21
90.4964771
0
LINE
8
DEFAULT_255_2_778
10
6.1473459
20
90.4964771
11
6.1534459
21
90.5422771
0
LINE
8
DEFAULT_255_2_778
10
6.1534459
20
90.5422771
11
6.1587459
21
90.5880771
0
LINE
8
DEFAULT_255_2_778
10
6.1587459
20
90.5880771
11
6.1637459
21
90.6411771
0
LINE
8
DEFAULT_255_2_778
10
6.1637459
20
90.6411771
11
6.1677459
21
90.6943771
0
LINE
8
DEFAULT_255_2_778
10
6.1677459
20
90.6943771
11
6.1706459
21
90.7475771
0
LINE
8
DEFAULT_255_2_778
10
6.1706459
20
90.7475771
11
6.1703459
21
91.0642771
0
LINE
8
DEFAULT_255_2_778
10
6.1703459
20
91.0642771
11
6.1674459
21
91.1163771
0
LINE
8
DEFAULT_255_2_778
10
6.1674459
20
91.1163771
11
6.1635459
21
91.1684771
0
LINE
8
DEFAULT_255_2_778
10
6.1635459
20
91.1684771
11
6.1584459
21
91.2206771
0
LINE
8
DEFAULT_255_2_778
10
6.1584459
20
91.2206771
11
6.1531459
21
91.2656771
0
LINE
8
DEFAULT_255_2_778
10
6.1531459
20
91.2656771
11
6.1468459
21
91.3103771
0
LINE
8
DEFAULT_255_2_778
10
6.1468459
20
91.3103771
11
6.1397459
21
91.3550771
0
LINE
8
DEFAULT_255_2_778
10
6.1397459
20
91.3550771
11
6.1312459
21
91.3994771
0
LINE
8
DEFAULT_255_2_778
10
6.1312459
20
91.3994771
11
6.1217459
21
91.4436771
0
LINE
8
DEFAULT_255_2_778
10
6.1217459
20
91.4436771
11
6.1021459
21
91.5201771
0
LINE
8
DEFAULT_255_2_778
10
6.1021459
20
91.5201771
11
6.0822459
21
91.5844771
0
LINE
8
DEFAULT_255_2_778
10
6.0822459
20
91.5844771
11
6.0590459
21
91.6473771
0
LINE
8
DEFAULT_255_2_778
10
6.0590459
20
91.6473771
11
6.0201459
21
91.7336771
0
LINE
8
DEFAULT_255_2_778
10
6.0201459
20
91.7336771
11
5.9796459
21
91.8050771
0
LINE
8
DEFAULT_255_2_778
10
5.9796459
20
91.8050771
11
5.9312459
21
91.8712771
0
LINE
8
DEFAULT_255_2_778
10
5.9312459
20
91.8712771
11
5.8518459
21
91.9479771
0
LINE
8
DEFAULT_255_2_778
10
5.8518459
20
91.9479771
11
5.7631459
21
92.0014771
0
LINE
8
DEFAULT_255_2_778
10
5.7631459
20
92.0014771
11
5.6444459
21
92.0339771
0
LINE
8
DEFAULT_255_2_778
10
5.6444459
20
92.0339771
11
5.5200459
21
92.0339771
0
LINE
8
DEFAULT_255_2_778
10
5.5200459
20
92.0339771
11
5.4004459
21
92.0014771
0
LINE
8
DEFAULT_255_2_778
10
5.4004459
20
92.0014771
11
5.3115459
21
91.9482771
0
LINE
8
DEFAULT_255_2_778
10
5.3115459
20
91.9482771
11
5.2501459
21
91.8921771
0
LINE
8
DEFAULT_255_2_778
10
5.2501459
20
91.8921771
11
5.1988459
21
91.8283771
0
LINE
8
DEFAULT_255_2_778
10
5.1988459
20
91.8283771
11
5.1559459
21
91.7587771
0
LINE
8
DEFAULT_255_2_778
10
5.1559459
20
91.7587771
11
5.1263459
21
91.6995771
0
LINE
8
DEFAULT_255_2_778
10
5.1263459
20
91.6995771
11
5.0977459
21
91.6309771
0
LINE
8
DEFAULT_255_2_778
10
5.0977459
20
91.6309771
11
5.0736459
21
91.5608771
0
LINE
8
DEFAULT_255_2_778
10
5.0736459
20
91.5608771
11
5.0535459
21
91.4894771
0
LINE
8
DEFAULT_255_2_778
10
5.0535459
20
91.4894771
11
5.0430459
21
91.4452771
0
LINE
8
DEFAULT_255_2_778
10
5.0430459
20
91.4452771
11
5.0337459
21
91.4008771
0
LINE
8
DEFAULT_255_2_778
10
5.0337459
20
91.4008771
11
5.0255459
21
91.3563771
0
LINE
8
DEFAULT_255_2_778
10
5.0255459
20
91.3563771
11
5.0183459
21
91.3116771
0
LINE
8
DEFAULT_255_2_778
10
5.0183459
20
91.3116771
11
5.0123459
21
91.2666771
0
LINE
8
DEFAULT_255_2_778
10
5.0123459
20
91.2666771
11
5.0070459
21
91.2216771
0
LINE
8
DEFAULT_255_2_778
10
5.0070459
20
91.2216771
11
5.0019459
21
91.1692771
0
LINE
8
DEFAULT_255_2_778
10
5.0019459
20
91.1692771
11
4.9980459
21
91.1169771
0
LINE
8
DEFAULT_255_2_778
10
4.9980459
20
91.1169771
11
4.9951459
21
91.0645771
0
LINE
8
DEFAULT_255_2_778
10
4.9951459
20
91.0645771
11
4.9948459
21
90.7470771
0
LINE
8
DEFAULT_255_2_778
10
4.9948459
20
90.7470771
11
4.9977459
21
90.6938771
0
LINE
8
DEFAULT_255_2_778
10
4.9977459
20
90.6938771
11
5.0017459
21
90.6406771
0
LINE
8
DEFAULT_255_2_778
10
5.0017459
20
90.6406771
11
5.0067459
21
90.5874771
0
LINE
8
DEFAULT_255_2_778
10
5.0067459
20
90.5874771
11
5.0120459
21
90.5417771
0
LINE
8
DEFAULT_255_2_778
10
5.0120459
20
90.5417771
11
5.0181459
21
90.4959771
0
LINE
8
DEFAULT_255_2_778
10
5.0181459
20
90.4959771
11
5.0252459
21
90.4504771
0
LINE
8
DEFAULT_255_2_778
10
5.0252459
20
90.4504771
11
5.0332459
21
90.4049771
0
LINE
8
DEFAULT_255_2_778
10
5.0332459
20
90.4049771
11
5.0424459
21
90.3596771
0
LINE
8
DEFAULT_255_2_778
10
5.0424459
20
90.3596771
11
5.0612459
21
90.2816771
0
LINE
8
DEFAULT_255_2_778
10
5.0612459
20
90.2816771
11
5.0805459
21
90.2162771
0
LINE
8
DEFAULT_255_2_778
10
5.0805459
20
90.2162771
11
5.1030459
21
90.1517771
0
LINE
8
DEFAULT_255_2_778
10
5.1030459
20
90.1517771
11
5.1411459
21
90.0633771
0
LINE
8
DEFAULT_255_2_778
10
5.1411459
20
90.0633771
11
5.1813459
21
89.9900771
0
LINE
8
DEFAULT_255_2_778
10
5.1813459
20
89.9900771
11
5.2297459
21
89.9217771
0
LINE
8
DEFAULT_255_2_778
10
5.2297459
20
89.9217771
11
5.2932459
21
89.8561771
0
LINE
8
DEFAULT_255_2_778
10
5.2932459
20
89.8561771
11
5.3803459
21
89.7968771
0
LINE
8
DEFAULT_255_2_778
10
5.3803459
20
89.7968771
11
5.4785459
21
89.7614771
0
LINE
8
DEFAULT_255_2_778
10
5.4785459
20
89.7614771
11
5.6041459
21
89.7505771
0
LINE
8
DEFAULT_255_2_778
10
5.6041459
20
89.7505771
11
5.7277459
21
89.7728771
0
LINE
8
DEFAULT_255_2_778
10
5.7277459
20
89.7728771
11
5.8219459
21
89.8185771
0
LINE
8
DEFAULT_255_2_778
10
5.8219459
20
89.8185771
11
5.9034459
21
89.8860771
0
LINE
8
DEFAULT_255_2_778
10
5.9034459
20
89.8860771
11
5.9534459
21
89.9448771
0
LINE
8
DEFAULT_255_2_778
10
5.9534459
20
89.9448771
11
5.9989459
21
90.0151771
0
LINE
8
DEFAULT_255_2_778
10
5.9989459
20
90.0151771
11
6.0354459
21
90.0903771
0
LINE
8
DEFAULT_255_2_778
10
5.2581459
20
90.2837771
11
5.2390459
21
90.3406771
0
LINE
8
DEFAULT_255_2_778
10
5.2390459
20
90.3406771
11
5.2231459
21
90.3982771
0
LINE
8
DEFAULT_255_2_778
10
5.2231459
20
90.3982771
11
5.2099459
21
90.4567771
0
LINE
8
DEFAULT_255_2_778
10
5.2099459
20
90.4567771
11
5.1975459
21
90.5252771
0
LINE
8
DEFAULT_255_2_778
10
5.1975459
20
90.5252771
11
5.1879459
21
90.5943771
0
LINE
8
DEFAULT_255_2_778
10
5.1879459
20
90.5943771
11
5.1842459
21
90.6290771
0
LINE
8
DEFAULT_255_2_778
10
5.1842459
20
90.6290771
11
5.1811459
21
90.6636771
0
LINE
8
DEFAULT_255_2_778
10
5.1811459
20
90.6636771
11
5.1774459
21
90.7118771
0
LINE
8
DEFAULT_255_2_778
10
5.1774459
20
90.7118771
11
5.1774459
21
91.0941771
0
LINE
8
DEFAULT_255_2_778
10
5.1774459
20
91.0941771
11
5.1811459
21
91.1415771
0
LINE
8
DEFAULT_255_2_778
10
5.1811459
20
91.1415771
11
5.1845459
21
91.1756771
0
LINE
8
DEFAULT_255_2_778
10
5.1845459
20
91.1756771
11
5.1930459
21
91.2436771
0
LINE
8
DEFAULT_255_2_778
10
5.1930459
20
91.2436771
11
5.2041459
21
91.3111771
0
LINE
8
DEFAULT_255_2_778
10
5.2041459
20
91.3111771
11
5.2173459
21
91.3735771
0
LINE
8
DEFAULT_255_2_778
10
5.2173459
20
91.3735771
11
5.2321459
21
91.4304771
0
LINE
8
DEFAULT_255_2_778
10
5.2321459
20
91.4304771
11
5.2501459
21
91.4865771
0
LINE
8
DEFAULT_255_2_778
10
5.2501459
20
91.4865771
11
5.2861459
21
91.5741771
0
LINE
8
DEFAULT_255_2_778
10
5.2861459
20
91.5741771
11
5.3179459
21
91.6309771
0
LINE
8
DEFAULT_255_2_778
10
5.3179459
20
91.6309771
11
5.3745459
21
91.7021771
0
LINE
8
DEFAULT_255_2_778
10
5.3745459
20
91.7021771
11
5.4501459
21
91.7579771
0
LINE
8
DEFAULT_255_2_778
10
5.4501459
20
91.7579771
11
5.5515459
21
91.7870771
0
LINE
8
DEFAULT_255_2_778
10
5.5515459
20
91.7870771
11
5.6576459
21
91.7791771
0
LINE
8
DEFAULT_255_2_778
10
5.6576459
20
91.7791771
11
5.7415459
21
91.7421771
0
LINE
8
DEFAULT_255_2_778
10
5.7415459
20
91.7421771
11
5.8118459
21
91.6788771
0
LINE
8
DEFAULT_255_2_778
10
5.8118459
20
91.6788771
11
5.8584459
21
91.6124771
0
LINE
8
DEFAULT_255_2_778
10
5.8584459
20
91.6124771
11
5.8965459
21
91.5344771
0
LINE
8
DEFAULT_255_2_778
10
5.8965459
20
91.5344771
11
5.9259459
21
91.4531771
0
LINE
8
DEFAULT_255_2_778
10
5.9259459
20
91.4531771
11
5.9478459
21
91.3719771
0
LINE
8
DEFAULT_255_2_778
10
5.9478459
20
91.3719771
11
5.9605459
21
91.3111771
0
LINE
8
DEFAULT_255_2_778
10
5.9605459
20
91.3111771
11
5.9716459
21
91.2436771
0
LINE
8
DEFAULT_255_2_778
10
5.9716459
20
91.2436771
11
5.9801459
21
91.1756771
0
LINE
8
DEFAULT_255_2_778
10
5.9801459
20
91.1756771
11
5.9835459
21
91.1415771
0
LINE
8
DEFAULT_255_2_778
10
5.9835459
20
91.1415771
11
5.9873459
21
91.0941771
0
LINE
8
DEFAULT_255_2_778
10
5.9873459
20
91.0941771
11
5.9873459
21
90.7112771
0
LINE
8
DEFAULT_255_2_778
10
5.9873459
20
90.7112771
11
5.9835459
21
90.6631771
0
LINE
8
DEFAULT_255_2_778
10
5.9835459
20
90.6631771
11
5.9804459
21
90.6284771
0
LINE
8
DEFAULT_255_2_778
10
5.9804459
20
90.6284771
11
5.9722459
21
90.5594771
0
LINE
8
DEFAULT_255_2_778
10
5.9722459
20
90.5594771
11
5.9613459
21
90.4906771
0
LINE
8
DEFAULT_255_2_778
10
5.9613459
20
90.4906771
11
5.9484459
21
90.4274771
0
LINE
8
DEFAULT_255_2_778
10
5.9484459
20
90.4274771
11
5.9338459
21
90.3694771
0
LINE
8
DEFAULT_255_2_778
10
5.9338459
20
90.3694771
11
5.9163459
21
90.3123771
0
LINE
8
DEFAULT_255_2_778
10
5.9163459
20
90.3123771
11
5.8899459
21
90.2427771
0
LINE
8
DEFAULT_255_2_778
10
5.8899459
20
90.2427771
11
5.8603459
21
90.1826771
0
LINE
8
DEFAULT_255_2_778
10
5.8603459
20
90.1826771
11
5.8028459
21
90.1016771
0
LINE
8
DEFAULT_255_2_778
10
5.8028459
20
90.1016771
11
5.7428459
21
90.0485771
0
LINE
8
DEFAULT_255_2_778
10
5.7428459
20
90.0485771
11
5.6507459
21
90.0083771
0
LINE
8
DEFAULT_255_2_778
10
5.6507459
20
90.0083771
11
5.5266459
21
90.0053771
0
LINE
8
DEFAULT_255_2_778
10
5.5266459
20
90.0053771
11
5.4348459
21
90.0397771
0
LINE
8
DEFAULT_255_2_778
10
5.4348459
20
90.0397771
11
5.3612459
21
90.1016771
0
LINE
8
DEFAULT_255_2_778
10
5.3612459
20
90.1016771
11
5.3155459
21
90.1633771
0
LINE
8
DEFAULT_255_2_778
10
5.3155459
20
90.1633771
11
5.2747459
21
90.2427771
0
LINE
8
DEFAULT_255_2_778
10
5.2747459
20
90.2427771
11
5.2581459
21
90.2837771
0
LINE
8
DEFAULT_255_2_778
10
19.1823074
20
85.9755791
11
19.3339074
21
85.9535791
0
LINE
8
DEFAULT_255_2_778
10
19.3339074
20
85.9535791
11
19.4681074
21
85.9805791
0
LINE
8
DEFAULT_255_2_778
10
19.4681074
20
85.9805791
11
19.5530074
21
86.0326791
0
LINE
8
DEFAULT_255_2_778
10
19.5530074
20
86.0326791
11
19.6112074
21
86.0988791
0
LINE
8
DEFAULT_255_2_778
10
19.6112074
20
86.0988791
11
19.6504074
21
86.1684791
0
LINE
8
DEFAULT_255_2_778
10
19.6504074
20
86.1684791
11
19.6742074
21
86.2311791
0
LINE
8
DEFAULT_255_2_778
10
19.6742074
20
86.2311791
11
19.6882074
21
86.2843791
0
LINE
8
DEFAULT_255_2_778
10
19.6882074
20
86.2843791
11
19.6980074
21
86.3385791
0
LINE
8
DEFAULT_255_2_778
10
19.6980074
20
86.3385791
11
19.7012074
21
86.3628791
0
LINE
8
DEFAULT_255_2_778
10
19.7012074
20
86.3628791
11
19.7036074
21
86.3872791
0
LINE
8
DEFAULT_255_2_778
10
19.7036074
20
86.3872791
11
19.7054074
21
86.4118791
0
LINE
8
DEFAULT_255_2_778
10
19.7054074
20
86.4118791
11
19.7078074
21
87.4939791
0
LINE
8
DEFAULT_255_2_778
10
19.7078074
20
87.4939791
11
19.9112074
21
87.4939791
0
LINE
8
DEFAULT_255_2_778
10
19.9112074
20
87.4939791
11
19.9099074
21
86.3779791
0
LINE
8
DEFAULT_255_2_778
10
19.9099074
20
86.3779791
11
19.9083074
21
86.3496791
0
LINE
8
DEFAULT_255_2_778
10
19.9083074
20
86.3496791
11
19.9060074
21
86.3213791
0
LINE
8
DEFAULT_255_2_778
10
19.9060074
20
86.3213791
11
19.9028074
21
86.2930791
0
LINE
8
DEFAULT_255_2_778
10
19.9028074
20
86.2930791
11
19.8988074
21
86.2647791
0
LINE
8
DEFAULT_255_2_778
10
19.8988074
20
86.2647791
11
19.8890074
21
86.2123791
0
LINE
8
DEFAULT_255_2_778
10
19.8890074
20
86.2123791
11
19.8769074
21
86.1639791
0
LINE
8
DEFAULT_255_2_778
10
19.8769074
20
86.1639791
11
19.8612074
21
86.1165791
0
LINE
8
DEFAULT_255_2_778
10
19.8612074
20
86.1165791
11
19.8324074
21
86.0498791
0
LINE
8
DEFAULT_255_2_778
10
19.8324074
20
86.0498791
11
19.7977074
21
85.9908791
0
LINE
8
DEFAULT_255_2_778
10
19.7977074
20
85.9908791
11
19.7411074
21
85.9205791
0
LINE
8
DEFAULT_255_2_778
10
19.7411074
20
85.9205791
11
19.6570074
21
85.8503791
0
LINE
8
DEFAULT_255_2_778
10
19.6570074
20
85.8503791
11
19.5570074
21
85.7998791
0
LINE
8
DEFAULT_255_2_778
10
19.5570074
20
85.7998791
11
19.4181074
21
85.7662791
0
LINE
8
DEFAULT_255_2_778
10
19.4181074
20
85.7662791
11
19.2424074
21
85.7636791
0
LINE
8
DEFAULT_255_2_778
10
19.2424074
20
85.7636791
11
19.0998074
21
85.7924791
0
LINE
8
DEFAULT_255_2_778
10
19.0998074
20
85.7924791
11
18.9971074
21
85.8387791
0
LINE
8
DEFAULT_255_2_778
10
18.9971074
20
85.8387791
11
18.9098074
21
85.9051791
0
LINE
8
DEFAULT_255_2_778
10
18.9098074
20
85.9051791
11
18.8508074
21
85.9723791
0
LINE
8
DEFAULT_255_2_778
10
18.8508074
20
85.9723791
11
18.8032074
21
86.0501791
0
LINE
8
DEFAULT_255_2_778
10
18.8032074
20
86.0501791
11
18.7743074
21
86.1168791
0
LINE
8
DEFAULT_255_2_778
10
18.7743074
20
86.1168791
11
18.7587074
21
86.1641791
0
LINE
8
DEFAULT_255_2_778
10
18.7587074
20
86.1641791
11
18.7466074
21
86.2126791
0
LINE
8
DEFAULT_255_2_778
10
18.7466074
20
86.2126791
11
18.7368074
21
86.2649791
0
LINE
8
DEFAULT_255_2_778
10
18.7368074
20
86.2649791
11
18.7328074
21
86.2933791
0
LINE
8
DEFAULT_255_2_778
10
18.7328074
20
86.2933791
11
18.7296074
21
86.3216791
0
LINE
8
DEFAULT_255_2_778
10
18.7296074
20
86.3216791
11
18.7272074
21
86.3499791
0
LINE
8
DEFAULT_255_2_778
10
18.7272074
20
86.3499791
11
18.7246074
21
86.4068791
0
LINE
8
DEFAULT_255_2_778
10
18.7246074
20
86.4068791
11
18.7243074
21
87.4942791
0
LINE
8
DEFAULT_255_2_778
10
18.7243074
20
87.4942791
11
18.9289074
21
87.4942791
0
LINE
8
DEFAULT_255_2_778
10
18.9289074
20
87.4942791
11
18.9312074
21
86.4123791
0
LINE
8
DEFAULT_255_2_778
10
18.9312074
20
86.4123791
11
18.9331074
21
86.3880791
0
LINE
8
DEFAULT_255_2_778
10
18.9331074
20
86.3880791
11
18.9357074
21
86.3636791
0
LINE
8
DEFAULT_255_2_778
10
18.9357074
20
86.3636791
11
18.9418074
21
86.3213791
0
LINE
8
DEFAULT_255_2_778
10
18.9418074
20
86.3213791
11
18.9529074
21
86.2673791
0
LINE
8
DEFAULT_255_2_778
10
18.9529074
20
86.2673791
11
18.9741074
21
86.1991791
0
LINE
8
DEFAULT_255_2_778
10
18.9741074
20
86.1991791
11
19.0093074
21
86.1252791
0
LINE
8
DEFAULT_255_2_778
10
19.0093074
20
86.1252791
11
19.0633074
21
86.0533791
0
LINE
8
DEFAULT_255_2_778
10
19.0633074
20
86.0533791
11
19.1437074
21
85.9927791
0
LINE
8
DEFAULT_255_2_778
10
19.1437074
20
85.9927791
11
19.1829074
21
85.9755791
0
LINE
8
DEFAULT_255_2_778
10
20.9508074
20
87.3093791
11
21.0831074
21
87.2151791
0
LINE
8
DEFAULT_255_2_778
10
21.0831074
20
87.2151791
11
21.1185074
21
87.1484791
0
LINE
8
DEFAULT_255_2_778
10
21.1185074
20
87.1484791
11
21.1304074
21
87.1010791
0
LINE
8
DEFAULT_255_2_778
10
21.1304074
20
87.1010791
11
21.1331074
21
87.0770791
0
LINE
8
DEFAULT_255_2_778
10
21.1331074
20
87.0770791
11
21.1336074
21
87.0690791
0
LINE
8
DEFAULT_255_2_778
10
21.1336074
20
87.0690791
11
21.3413074
21
87.0690791
0
LINE
8
DEFAULT_255_2_778
10
21.3413074
20
87.0690791
11
21.3400074
21
87.1410791
0
LINE
8
DEFAULT_255_2_778
10
21.3400074
20
87.1410791
11
21.3342074
21
87.1764791
0
LINE
8
DEFAULT_255_2_778
10
21.3342074
20
87.1764791
11
21.3252074
21
87.2111791
0
LINE
8
DEFAULT_255_2_778
10
21.3252074
20
87.2111791
11
21.3061074
21
87.2614791
0
LINE
8
DEFAULT_255_2_778
10
21.3061074
20
87.2614791
11
21.2715074
21
87.3241791
0
LINE
8
DEFAULT_255_2_778
10
21.2715074
20
87.3241791
11
21.2090074
21
87.3992791
0
LINE
8
DEFAULT_255_2_778
10
21.2090074
20
87.3992791
11
21.1323074
21
87.4587791
0
LINE
8
DEFAULT_255_2_778
10
21.1323074
20
87.4587791
11
21.0101074
21
87.5088791
0
LINE
8
DEFAULT_255_2_778
10
21.0101074
20
87.5088791
11
20.7965074
21
87.5278791
0
LINE
8
DEFAULT_255_2_778
10
20.7965074
20
87.5278791
11
20.6090074
21
87.5016791
0
LINE
8
DEFAULT_255_2_778
10
20.6090074
20
87.5016791
11
20.4661074
21
87.4400791
0
LINE
8
DEFAULT_255_2_778
10
20.4661074
20
87.4400791
11
20.3830074
21
87.3741791
0
LINE
8
DEFAULT_255_2_778
10
20.3830074
20
87.3741791
11
20.3282074
21
87.3056791
0
LINE
8
DEFAULT_255_2_778
10
20.3282074
20
87.3056791
11
20.2962074
21
87.2428791
0
LINE
8
DEFAULT_255_2_778
10
20.2962074
20
87.2428791
11
20.2790074
21
87.1928791
0
LINE
8
DEFAULT_255_2_778
10
20.2790074
20
87.1928791
11
20.2703074
21
87.1566791
0
LINE
8
DEFAULT_255_2_778
10
20.2703074
20
87.1566791
11
20.2642074
21
87.1198791
0
LINE
8
DEFAULT_255_2_778
10
20.2642074
20
87.1198791
11
20.2663074
21
86.9455791
0
LINE
8
DEFAULT_255_2_778
10
20.2663074
20
86.9455791
11
20.2772074
21
86.8962791
0
LINE
8
DEFAULT_255_2_778
10
20.2772074
20
86.8962791
11
20.3026074
21
86.8296791
0
LINE
8
DEFAULT_255_2_778
10
20.3026074
20
86.8296791
11
20.3536074
21
86.7534791
0
LINE
8
DEFAULT_255_2_778
10
20.3536074
20
86.7534791
11
20.4637074
21
86.6687791
0
LINE
8
DEFAULT_255_2_778
10
20.4637074
20
86.6687791
11
20.6386074
21
86.6007791
0
LINE
8
DEFAULT_255_2_778
10
20.6386074
20
86.6007791
11
21.0482074
21
86.4769791
0
LINE
8
DEFAULT_255_2_778
10
21.0482074
20
86.4769791
11
21.1320074
21
86.4081791
0
LINE
8
DEFAULT_255_2_778
10
21.1320074
20
86.4081791
11
21.1574074
21
86.3647791
0
LINE
8
DEFAULT_255_2_778
10
21.1574074
20
86.3647791
11
21.1691074
21
86.3266791
0
LINE
8
DEFAULT_255_2_778
10
21.1691074
20
86.3266791
11
21.1738074
21
86.2967791
0
LINE
8
DEFAULT_255_2_778
10
21.1738074
20
86.2967791
11
21.1723074
21
86.2059791
0
LINE
8
DEFAULT_255_2_778
10
21.1723074
20
86.2059791
11
21.1656074
21
86.1715791
0
LINE
8
DEFAULT_255_2_778
10
21.1656074
20
86.1715791
11
21.1508074
21
86.1276791
0
LINE
8
DEFAULT_255_2_778
10
21.1508074
20
86.1276791
11
21.1148074
21
86.0684791
0
LINE
8
DEFAULT_255_2_778
10
21.1148074
20
86.0684791
11
21.0344074
21
86.0004791
0
LINE
8
DEFAULT_255_2_778
10
21.0344074
20
86.0004791
11
20.8510074
21
85.9543791
0
LINE
8
DEFAULT_255_2_778
10
20.8510074
20
85.9543791
11
20.6142074
21
85.9908791
0
LINE
8
DEFAULT_255_2_778
10
20.6142074
20
85.9908791
11
20.5089074
21
86.0789791
0
LINE
8
DEFAULT_255_2_778
10
20.5089074
20
86.0789791
11
20.4632074
21
86.1628791
0
LINE
8
DEFAULT_255_2_778
10
20.4632074
20
86.1628791
11
20.4502074
21
86.2118791
0
LINE
8
DEFAULT_255_2_778
10
20.4502074
20
86.2118791
11
20.4481074
21
86.2874791
0
LINE
8
DEFAULT_255_2_778
10
20.4481074
20
86.2874791
11
20.2425074
21
86.2874791
0
LINE
8
DEFAULT_255_2_778
10
20.2425074
20
86.2874791
11
20.2438074
21
86.2263791
0
LINE
8
DEFAULT_255_2_778
10
20.2438074
20
86.2263791
11
20.2462074
21
86.2059791
0
LINE
8
DEFAULT_255_2_778
10
20.2462074
20
86.2059791
11
20.2534074
21
86.1655791
0
LINE
8
DEFAULT_255_2_778
10
20.2534074
20
86.1655791
11
20.2639074
21
86.1258791
0
LINE
8
DEFAULT_255_2_778
10
20.2639074
20
86.1258791
11
20.2856074
21
86.0678791
0
LINE
8
DEFAULT_255_2_778
10
20.2856074
20
86.0678791
11
20.3248074
21
85.9948791
0
LINE
8
DEFAULT_255_2_778
10
20.3248074
20
85.9948791
11
20.3872074
21
85.9152791
0
LINE
8
DEFAULT_255_2_778
10
20.3872074
20
85.9152791
11
20.4634074
21
85.8498791
0
LINE
8
DEFAULT_255_2_778
10
20.4634074
20
85.8498791
11
20.5703074
21
85.7956791
0
LINE
8
DEFAULT_255_2_778
10
20.5703074
20
85.7956791
11
20.7711074
21
85.7614791
0
LINE
8
DEFAULT_255_2_778
10
20.7711074
20
85.7614791
11
20.9413074
21
85.7702791
0
LINE
8
DEFAULT_255_2_778
10
20.9413074
20
85.7702791
11
21.0992074
21
85.8154791
0
LINE
8
DEFAULT_255_2_778
10
21.0992074
20
85.8154791
11
21.2098074
21
85.8837791
0
LINE
8
DEFAULT_255_2_778
10
21.2098074
20
85.8837791
11
21.2844074
21
85.9617791
0
LINE
8
DEFAULT_255_2_778
10
21.2844074
20
85.9617791
11
21.3228074
21
86.0239791
0
LINE
8
DEFAULT_255_2_778
10
21.3228074
20
86.0239791
11
21.3450074
21
86.0752791
0
LINE
8
DEFAULT_255_2_778
10
21.3450074
20
86.0752791
11
21.3614074
21
86.1287791
0
LINE
8
DEFAULT_255_2_778
10
21.3614074
20
86.1287791
11
21.3702074
21
86.1689791
0
LINE
8
DEFAULT_255_2_778
10
21.3702074
20
86.1689791
11
21.3760074
21
86.2096791
0
LINE
8
DEFAULT_255_2_778
10
21.3760074
20
86.2096791
11
21.3747074
21
86.3769791
0
LINE
8
DEFAULT_255_2_778
10
21.3747074
20
86.3769791
11
21.3673074
21
86.4171791
0
LINE
8
DEFAULT_255_2_778
10
21.3673074
20
86.4171791
11
21.3493074
21
86.4756791
0
LINE
8
DEFAULT_255_2_778
10
21.3493074
20
86.4756791
11
21.3096074
21
86.5499791
0
LINE
8
DEFAULT_255_2_778
10
21.3096074
20
86.5499791
11
21.2344074
21
86.6290791
0
LINE
8
DEFAULT_255_2_778
10
21.2344074
20
86.6290791
11
21.0508074
21
86.7224791
0
LINE
8
DEFAULT_255_2_778
10
21.0508074
20
86.7224791
11
20.5841074
21
86.8634791
0
LINE
8
DEFAULT_255_2_778
10
20.5841074
20
86.8634791
11
20.5071074
21
86.9285791
0
LINE
8
DEFAULT_255_2_778
10
20.5071074
20
86.9285791
11
20.4835074
21
86.9698791
0
LINE
8
DEFAULT_255_2_778
10
20.4835074
20
86.9698791
11
20.4727074
21
87.0063791
0
LINE
8
DEFAULT_255_2_778
10
20.4727074
20
87.0063791
11
20.4745074
21
87.1233791
0
LINE
8
DEFAULT_255_2_778
10
20.4745074
20
87.1233791
11
20.4880074
21
87.1651791
0
LINE
8
DEFAULT_255_2_778
10
20.4880074
20
87.1651791
11
20.5261074
21
87.2262791
0
LINE
8
DEFAULT_255_2_778
10
20.5261074
20
87.2262791
11
20.6182074
21
87.2918791
0
LINE
8
DEFAULT_255_2_778
10
20.6182074
20
87.2918791
11
20.8066074
21
87.3299791
0
LINE
8
DEFAULT_255_2_778
10
20.8066074
20
87.3299791
11
20.9508074
21
87.3090791
0
LINE
8
DEFAULT_255_2_778
10
22.6656074
20
87.4942791
11
22.8701074
21
87.4942791
0
LINE
8
DEFAULT_255_2_778
10
22.8701074
20
87.4942791
11
22.8701074
21
85.7943791
0
LINE
8
DEFAULT_255_2_778
10
22.8701074
20
85.7943791
11
22.6656074
21
85.7943791
0
LINE
8
DEFAULT_255_2_778
10
22.6656074
20
85.7943791
11
22.6656074
21
86.5703791
0
LINE
8
DEFAULT_255_2_778
10
22.6656074
20
86.5703791
11
21.8948074
21
86.5703791
0
LINE
8
DEFAULT_255_2_778
10
21.8948074
20
86.5703791
11
21.8948074
21
85.7943791
0
LINE
8
DEFAULT_255_2_778
10
21.8948074
20
85.7943791
11
21.6903074
21
85.7943791
0
LINE
8
DEFAULT_255_2_778
10
21.6903074
20
85.7943791
11
21.6903074
21
87.4942791
0
LINE
8
DEFAULT_255_2_778
10
21.6903074
20
87.4942791
11
21.8948074
21
87.4942791
0
LINE
8
DEFAULT_255_2_778
10
21.8948074
20
87.4942791
11
21.8948074
21
86.7677791
0
LINE
8
DEFAULT_255_2_778
10
21.8948074
20
86.7677791
11
22.6656074
21
86.7677791
0
LINE
8
DEFAULT_255_2_778
10
22.6656074
20
86.7677791
11
22.6656074
21
87.4942791
0
LINE
8
DEFAULT_255_2_778
10
18.1912074
20
87.4635791
11
18.3132074
21
87.4016791
0
LINE
8
DEFAULT_255_2_778
10
18.3132074
20
87.4016791
11
18.3854074
21
87.3354791
0
LINE
8
DEFAULT_255_2_778
10
18.3854074
20
87.3354791
11
18.4317074
21
87.2688791
0
LINE
8
DEFAULT_255_2_778
10
18.4317074
20
87.2688791
11
18.4590074
21
87.2077791
0
LINE
8
DEFAULT_255_2_778
10
18.4590074
20
87.2077791
11
18.4735074
21
87.1595791
0
LINE
8
DEFAULT_255_2_778
10
18.4735074
20
87.1595791
11
18.4812074
21
87.1225791
0
LINE
8
DEFAULT_255_2_778
10
18.4812074
20
87.1225791
11
18.4865074
21
87.0852791
0
LINE
8
DEFAULT_255_2_778
10
18.4865074
20
87.0852791
11
18.4844074
21
86.9140791
0
LINE
8
DEFAULT_255_2_778
10
18.4844074
20
86.9140791
11
18.4780074
21
86.8761791
0
LINE
8
DEFAULT_255_2_778
10
18.4780074
20
86.8761791
11
18.4650074
21
86.8248791
0
LINE
8
DEFAULT_255_2_778
10
18.4650074
20
86.8248791
11
18.4404074
21
86.7616791
0
LINE
8
DEFAULT_255_2_778
10
18.4404074
20
86.7616791
11
18.3973074
21
86.6915791
0
LINE
8
DEFAULT_255_2_778
10
18.3973074
20
86.6915791
11
18.3290074
21
86.6216791
0
LINE
8
DEFAULT_255_2_778
10
18.3290074
20
86.6216791
11
18.2272074
21
86.5602791
0
LINE
8
DEFAULT_255_2_778
10
18.2272074
20
86.5602791
11
18.0650074
21
86.5197791
0
LINE
8
DEFAULT_255_2_778
10
18.0650074
20
86.5197791
11
17.9848074
21
86.5158791
0
LINE
8
DEFAULT_255_2_778
10
17.9848074
20
86.5158791
11
17.6456074
21
86.5158791
0
LINE
8
DEFAULT_255_2_778
10
17.6456074
20
86.5158791
11
17.6456074
21
85.7940791
0
LINE
8
DEFAULT_255_2_778
10
17.6456074
20
85.7940791
11
17.4411074
21
85.7940791
0
LINE
8
DEFAULT_255_2_778
10
17.4411074
20
85.7940791
11
17.4411074
21
87.4939791
0
LINE
8
DEFAULT_255_2_778
10
17.4411074
20
87.4939791
11
18.1034074
21
87.4849791
0
LINE
8
DEFAULT_255_2_778
10
18.1034074
20
87.4849791
11
18.1912074
21
87.4635791
0
LINE
8
DEFAULT_255_2_778
10
18.1092074
20
87.2828791
11
18.2055074
21
87.2251791
0
LINE
8
DEFAULT_255_2_778
10
18.2055074
20
87.2251791
11
18.2513074
21
87.1645791
0
LINE
8
DEFAULT_255_2_778
10
18.2513074
20
87.1645791
11
18.2732074
21
87.1082791
0
LINE
8
DEFAULT_255_2_778
10
18.2732074
20
87.1082791
11
18.2801074
21
87.0759791
0
LINE
8
DEFAULT_255_2_778
10
18.2801074
20
87.0759791
11
18.2785074
21
86.9288791
0
LINE
8
DEFAULT_255_2_778
10
18.2785074
20
86.9288791
11
18.2674074
21
86.8865791
0
LINE
8
DEFAULT_255_2_778
10
18.2674074
20
86.8865791
11
18.2409074
21
86.8304791
0
LINE
8
DEFAULT_255_2_778
10
18.2409074
20
86.8304791
11
18.1745074
21
86.7608791
0
LINE
8
DEFAULT_255_2_778
10
18.1745074
20
86.7608791
11
18.0443074
21
86.7126791
0
LINE
8
DEFAULT_255_2_778
10
18.0443074
20
86.7126791
11
17.9840074
21
86.7087791
0
LINE
8
DEFAULT_255_2_778
10
17.9840074
20
86.7087791
11
17.6448074
21
86.7087791
0
LINE
8
DEFAULT_255_2_778
10
17.6448074
20
86.7087791
11
17.6448074
21
87.3013791
0
LINE
8
DEFAULT_255_2_778
10
17.6448074
20
87.3013791
11
18.0989074
21
87.2860791
0
LINE
8
DEFAULT_255_2_778
10
18.0989074
20
87.2860791
11
18.1092074
21
87.2828791
0
LINE
8
DEFAULT_255_2_778
10
6.9177677
20
80.4851739
11
7.0741677
21
80.4365739
0
LINE
8
DEFAULT_255_2_778
10
7.0741677
20
80.4365739
11
7.1720677
21
80.3703739
0
LINE
8
DEFAULT_255_2_778
10
7.1720677
20
80.3703739
11
7.2363677
21
80.2970739
0
LINE
8
DEFAULT_255_2_778
10
7.2363677
20
80.2970739
11
7.2688677
21
80.2391739
0
LINE
8
DEFAULT_255_2_778
10
7.2688677
20
80.2391739
11
7.2871677
21
80.1920739
0
LINE
8
DEFAULT_255_2_778
10
7.2871677
20
80.1920739
11
7.3006677
21
80.1412739
0
LINE
8
DEFAULT_255_2_778
10
7.3006677
20
80.1412739
11
7.3072677
21
80.1039739
0
LINE
8
DEFAULT_255_2_778
10
7.3072677
20
80.1039739
11
7.3075677
21
79.9139739
0
LINE
8
DEFAULT_255_2_778
10
7.3075677
20
79.9139739
11
7.3011677
21
79.8761739
0
LINE
8
DEFAULT_255_2_778
10
7.3011677
20
79.8761739
11
7.2876677
21
79.8245739
0
LINE
8
DEFAULT_255_2_778
10
7.2876677
20
79.8245739
11
7.2625677
21
79.7612739
0
LINE
8
DEFAULT_255_2_778
10
7.2625677
20
79.7612739
11
7.2183677
21
79.6911739
0
LINE
8
DEFAULT_255_2_778
10
7.2183677
20
79.6911739
11
7.1484677
21
79.6213739
0
LINE
8
DEFAULT_255_2_778
10
7.1484677
20
79.6213739
11
7.0442677
21
79.5599739
0
LINE
8
DEFAULT_255_2_778
10
7.0442677
20
79.5599739
11
6.8783677
21
79.5194739
0
LINE
8
DEFAULT_255_2_778
10
6.8783677
20
79.5194739
11
6.7966677
21
79.5154739
0
LINE
8
DEFAULT_255_2_778
10
6.7966677
20
79.5154739
11
6.4497677
21
79.5154739
0
LINE
8
DEFAULT_255_2_778
10
6.4497677
20
79.5154739
11
6.4497677
21
78.7937739
0
LINE
8
DEFAULT_255_2_778
10
6.4497677
20
78.7937739
11
6.2404677
21
78.7937739
0
LINE
8
DEFAULT_255_2_778
10
6.2404677
20
78.7937739
11
6.2404677
21
80.4936739
0
LINE
8
DEFAULT_255_2_778
10
6.2404677
20
80.4936739
11
6.9177677
21
80.4851739
0
LINE
8
DEFAULT_255_2_778
10
6.8577677
20
80.2978739
11
6.9900677
21
80.2512739
0
LINE
8
DEFAULT_255_2_778
10
6.9900677
20
80.2512739
11
7.0521677
21
80.1920739
0
LINE
8
DEFAULT_255_2_778
10
7.0521677
20
80.1920739
11
7.0823677
21
80.1369739
0
LINE
8
DEFAULT_255_2_778
10
7.0823677
20
80.1369739
11
7.0945677
21
80.0983739
0
LINE
8
DEFAULT_255_2_778
10
7.0945677
20
80.0983739
11
7.1008677
21
80.0644739
0
LINE
8
DEFAULT_255_2_778
10
7.1008677
20
80.0644739
11
7.0992677
21
79.9382739
0
LINE
8
DEFAULT_255_2_778
10
7.0992677
20
79.9382739
11
7.0894677
21
79.8959739
0
LINE
8
DEFAULT_255_2_778
10
7.0894677
20
79.8959739
11
7.0651677
21
79.8398739
0
LINE
8
DEFAULT_255_2_778
10
7.0651677
20
79.8398739
11
7.0080677
21
79.7731739
0
LINE
8
DEFAULT_255_2_778
10
7.0080677
20
79.7731739
11
6.8828677
21
79.7165739
0
LINE
8
DEFAULT_255_2_778
10
6.8828677
20
79.7165739
11
6.7968677
21
79.7086739
0
LINE
8
DEFAULT_255_2_778
10
6.7968677
20
79.7086739
11
6.4499677
21
79.7086739
0
LINE
8
DEFAULT_255_2_778
10
6.4499677
20
79.7086739
11
6.4499677
21
80.3012739
0
LINE
8
DEFAULT_255_2_778
10
6.4499677
20
80.3012739
11
6.8577677
21
80.2978739
0
LINE
8
DEFAULT_255_2_778
10
8.2366917
20
75.2845739
11
8.0630917
21
75.2845739
0
LINE
8
DEFAULT_255_2_778
10
8.0630917
20
75.2845739
11
7.8760917
21
75.1223739
0
LINE
8
DEFAULT_255_2_778
10
7.8760917
20
75.1223739
11
7.6966917
21
75.0228739
0
LINE
8
DEFAULT_255_2_778
10
7.6966917
20
75.0228739
11
7.6966917
21
74.8109739
0
LINE
8
DEFAULT_255_2_778
10
7.6966917
20
74.8109739
11
7.9988917
21
74.9924739
0
LINE
8
DEFAULT_255_2_778
10
7.9988917
20
74.9924739
11
8.0316917
21
75.0218739
0
LINE
8
DEFAULT_255_2_778
10
8.0316917
20
75.0218739
11
8.0316917
21
73.5941739
0
LINE
8
DEFAULT_255_2_778
10
8.0316917
20
73.5941739
11
8.2366917
21
73.5941739
0
LINE
8
DEFAULT_255_2_778
10
8.2366917
20
73.5941739
11
8.2366917
21
75.2845739
0
LINE
8
DEFAULT_255_2_778
10
6.8370917
20
75.2930739
11
7.0079917
21
75.2633739
0
LINE
8
DEFAULT_255_2_778
10
7.0079917
20
75.2633739
11
7.1325917
21
75.2014739
0
LINE
8
DEFAULT_255_2_778
10
7.1325917
20
75.2014739
11
7.2063917
21
75.1353739
0
LINE
8
DEFAULT_255_2_778
10
7.2063917
20
75.1353739
11
7.2537917
21
75.0686739
0
LINE
8
DEFAULT_255_2_778
10
7.2537917
20
75.0686739
11
7.2817917
21
75.0075739
0
LINE
8
DEFAULT_255_2_778
10
7.2817917
20
75.0075739
11
7.2966917
21
74.9593739
0
LINE
8
DEFAULT_255_2_778
10
7.2966917
20
74.9593739
11
7.3045917
21
74.9223739
0
LINE
8
DEFAULT_255_2_778
10
7.3045917
20
74.9223739
11
7.3098917
21
74.8850739
0
LINE
8
DEFAULT_255_2_778
10
7.3098917
20
74.8850739
11
7.3077917
21
74.7138739
0
LINE
8
DEFAULT_255_2_778
10
7.3077917
20
74.7138739
11
7.3013917
21
74.6760739
0
LINE
8
DEFAULT_255_2_778
10
7.3013917
20
74.6760739
11
7.2878917
21
74.6244739
0
LINE
8
DEFAULT_255_2_778
10
7.2878917
20
74.6244739
11
7.2627917
21
74.5611739
0
LINE
8
DEFAULT_255_2_778
10
7.2627917
20
74.5611739
11
7.2185917
21
74.4910739
0
LINE
8
DEFAULT_255_2_778
10
7.2185917
20
74.4910739
11
7.1486917
21
74.4212739
0
LINE
8
DEFAULT_255_2_778
10
7.1486917
20
74.4212739
11
7.0444917
21
74.3598739
0
LINE
8
DEFAULT_255_2_778
10
7.0444917
20
74.3598739
11
6.8785917
21
74.3193739
0
LINE
8
DEFAULT_255_2_778
10
6.8785917
20
74.3193739
11
6.7968917
21
74.3153739
0
LINE
8
DEFAULT_255_2_778
10
6.7968917
20
74.3153739
11
6.4499917
21
74.3153739
0
LINE
8
DEFAULT_255_2_778
10
6.4499917
20
74.3153739
11
6.4499917
21
73.5936739
0
LINE
8
DEFAULT_255_2_778
10
6.4499917
20
73.5936739
11
6.2406917
21
73.5936739
0
LINE
8
DEFAULT_255_2_778
10
6.2406917
20
73.5936739
11
6.2406917
21
75.2935739
0
LINE
8
DEFAULT_255_2_778
10
6.2406917
20
75.2935739
11
6.8370917
21
75.2930739
0
LINE
8
DEFAULT_255_2_778
10
6.8087917
20
75.1009739
11
6.9727917
21
75.0612739
0
LINE
8
DEFAULT_255_2_778
10
6.9727917
20
75.0612739
11
7.0455917
21
75.0003739
0
LINE
8
DEFAULT_255_2_778
10
7.0455917
20
75.0003739
11
7.0822917
21
74.9366739
0
LINE
8
DEFAULT_255_2_778
10
7.0822917
20
74.9366739
11
7.0944917
21
74.8979739
0
LINE
8
DEFAULT_255_2_778
10
7.0944917
20
74.8979739
11
7.1008917
21
74.8641739
0
LINE
8
DEFAULT_255_2_778
10
7.1008917
20
74.8641739
11
7.0992917
21
74.7379739
0
LINE
8
DEFAULT_255_2_778
10
7.0992917
20
74.7379739
11
7.0894917
21
74.6955739
0
LINE
8
DEFAULT_255_2_778
10
7.0894917
20
74.6955739
11
7.0650917
21
74.6395739
0
LINE
8
DEFAULT_255_2_778
10
7.0650917
20
74.6395739
11
7.0079917
21
74.5728739
0
LINE
8
DEFAULT_255_2_778
10
7.0079917
20
74.5728739
11
6.8827917
21
74.5162739
0
LINE
8
DEFAULT_255_2_778
10
6.8827917
20
74.5162739
11
6.7968917
21
74.5082739
0
LINE
8
DEFAULT_255_2_778
10
6.7968917
20
74.5082739
11
6.4499917
21
74.5082739
0
LINE
8
DEFAULT_255_2_778
10
6.4499917
20
74.5082739
11
6.4499917
21
75.1009739
0
LINE
8
DEFAULT_255_2_778
10
6.4499917
20
75.1009739
11
6.8087917
21
75.1009739
0
LINE
8
DEFAULT_255_2_778
10
13.3135896
20
75.2940739
11
13.4524896
21
75.2940739
0
LINE
8
DEFAULT_255_2_778
10
13.4524896
20
75.2940739
11
13.4524896
21
73.5941739
0
LINE
8
DEFAULT_255_2_778
10
13.4524896
20
73.5941739
11
13.2651896
21
73.5941739
0
LINE
8
DEFAULT_255_2_778
10
13.2651896
20
73.5941739
11
12.7727896
21
75.0038739
0
LINE
8
DEFAULT_255_2_778
10
12.7727896
20
75.0038739
11
12.7727896
21
73.5941739
0
LINE
8
DEFAULT_255_2_778
10
12.7727896
20
73.5941739
11
12.6338896
21
73.5941739
0
LINE
8
DEFAULT_255_2_778
10
12.6338896
20
73.5941739
11
12.6338896
21
75.2940739
0
LINE
8
DEFAULT_255_2_778
10
12.6338896
20
75.2940739
11
12.8153896
21
75.2940739
0
LINE
8
DEFAULT_255_2_778
10
12.8153896
20
75.2940739
11
13.3132896
21
73.8687739
0
LINE
8
DEFAULT_255_2_778
10
13.3132896
20
73.8687739
11
13.3132896
21
75.2940739
0
LINE
8
DEFAULT_255_2_778
10
12.2385823
20
75.2940739
11
12.3779823
21
75.2940739
0
LINE
8
DEFAULT_255_2_778
10
12.3779823
20
75.2940739
11
12.3779823
21
73.5941739
0
LINE
8
DEFAULT_255_2_778
10
12.3779823
20
73.5941739
11
12.2385823
21
73.5941739
0
LINE
8
DEFAULT_255_2_778
10
12.2385823
20
73.5941739
11
12.2385823
21
75.2940739
0
LINE
8
DEFAULT_255_2_778
10
14.2822146
20
75.2940739
11
14.4608146
21
75.2940739
0
LINE
8
DEFAULT_255_2_778
10
14.4608146
20
75.2940739
11
14.0168146
21
74.5362739
0
LINE
8
DEFAULT_255_2_778
10
14.0168146
20
74.5362739
11
14.4997146
21
73.5941739
0
LINE
8
DEFAULT_255_2_778
10
14.4997146
20
73.5941739
11
14.3153146
21
73.5941739
0
LINE
8
DEFAULT_255_2_778
10
14.3153146
20
73.5941739
11
13.8649146
21
74.5024739
0
LINE
8
DEFAULT_255_2_778
10
13.8649146
20
74.5024739
11
13.8649146
21
73.5941739
0
LINE
8
DEFAULT_255_2_778
10
13.8649146
20
73.5941739
11
13.7255146
21
73.5941739
0
LINE
8
DEFAULT_255_2_778
10
13.7255146
20
73.5941739
11
13.7255146
21
75.2940739
0
LINE
8
DEFAULT_255_2_778
10
13.7255146
20
75.2940739
11
13.8649146
21
75.2940739
0
LINE
8
DEFAULT_255_2_778
10
13.8649146
20
75.2940739
11
13.8649146
21
74.5555739
0
LINE
8
DEFAULT_255_2_778
10
13.8649146
20
74.5555739
11
14.2819146
21
75.2940739
0
LINE
8
DEFAULT_255_2_778
10
11.4406115
20
75.2941062
11
11.5800115
21
75.2941062
0
LINE
8
DEFAULT_255_2_778
10
11.5800115
20
75.2941062
11
11.5800115
21
73.7868062
0
LINE
8
DEFAULT_255_2_778
10
11.5800115
20
73.7868062
11
12.0616115
21
73.7868062
0
LINE
8
DEFAULT_255_2_778
10
12.0616115
20
73.7868062
11
12.0616115
21
73.5939062
0
LINE
8
DEFAULT_255_2_778
10
12.0616115
20
73.5939062
11
11.4406115
21
73.5939062
0
LINE
8
DEFAULT_255_2_778
10
11.4406115
20
73.5939062
11
11.4406115
21
75.2938062
0
LINE
8
DEFAULT_255_2_778
10
13.3135896
20
80.4941739
11
13.4524896
21
80.4941739
0
LINE
8
DEFAULT_255_2_778
10
13.4524896
20
80.4941739
11
13.4524896
21
78.7942739
0
LINE
8
DEFAULT_255_2_778
10
13.4524896
20
78.7942739
11
13.2651896
21
78.7942739
0
LINE
8
DEFAULT_255_2_778
10
13.2651896
20
78.7942739
11
12.7727896
21
80.2039739
0
LINE
8
DEFAULT_255_2_778
10
12.7727896
20
80.2039739
11
12.7727896
21
78.7942739
0
LINE
8
DEFAULT_255_2_778
10
12.7727896
20
78.7942739
11
12.6338896
21
78.7942739
0
LINE
8
DEFAULT_255_2_778
10
12.6338896
20
78.7942739
11
12.6338896
21
80.4941739
0
LINE
8
DEFAULT_255_2_778
10
12.6338896
20
80.4941739
11
12.8153896
21
80.4941739
0
LINE
8
DEFAULT_255_2_778
10
12.8153896
20
80.4941739
11
13.3132896
21
79.0688739
0
LINE
8
DEFAULT_255_2_778
10
13.3132896
20
79.0688739
11
13.3132896
21
80.4941739
0
LINE
8
DEFAULT_255_2_778
10
12.2385823
20
80.4941739
11
12.3779823
21
80.4941739
0
LINE
8
DEFAULT_255_2_778
10
12.3779823
20
80.4941739
11
12.3779823
21
78.7942739
0
LINE
8
DEFAULT_255_2_778
10
12.3779823
20
78.7942739
11
12.2385823
21
78.7942739
0
LINE
8
DEFAULT_255_2_778
10
12.2385823
20
78.7942739
11
12.2385823
21
80.4941739
0
LINE
8
DEFAULT_255_2_778
10
14.2822146
20
80.4941739
11
14.4608146
21
80.4941739
0
LINE
8
DEFAULT_255_2_778
10
14.4608146
20
80.4941739
11
14.0168146
21
79.7363739
0
LINE
8
DEFAULT_255_2_778
10
14.0168146
20
79.7363739
11
14.4997146
21
78.7942739
0
LINE
8
DEFAULT_255_2_778
10
14.4997146
20
78.7942739
11
14.3153146
21
78.7942739
0
LINE
8
DEFAULT_255_2_778
10
14.3153146
20
78.7942739
11
13.8649146
21
79.7025739
0
LINE
8
DEFAULT_255_2_778
10
13.8649146
20
79.7025739
11
13.8649146
21
78.7942739
0
LINE
8
DEFAULT_255_2_778
10
13.8649146
20
78.7942739
11
13.7255146
21
78.7942739
0
LINE
8
DEFAULT_255_2_778
10
13.7255146
20
78.7942739
11
13.7255146
21
80.4941739
0
LINE
8
DEFAULT_255_2_778
10
13.7255146
20
80.4941739
11
13.8649146
21
80.4941739
0
LINE
8
DEFAULT_255_2_778
10
13.8649146
20
80.4941739
11
13.8649146
21
79.7556739
0
LINE
8
DEFAULT_255_2_778
10
13.8649146
20
79.7556739
11
14.2819146
21
80.4941739
0
LINE
8
DEFAULT_255_2_778
10
11.4406115
20
80.4942062
11
11.5800115
21
80.4942062
0
LINE
8
DEFAULT_255_2_778
10
11.5800115
20
80.4942062
11
11.5800115
21
78.9869062
0
LINE
8
DEFAULT_255_2_778
10
11.5800115
20
78.9869062
11
12.0616115
21
78.9869062
0
LINE
8
DEFAULT_255_2_778
10
12.0616115
20
78.9869062
11
12.0616115
21
78.7940062
0
LINE
8
DEFAULT_255_2_778
10
12.0616115
20
78.7940062
11
11.4406115
21
78.7940062
0
LINE
8
DEFAULT_255_2_778
10
11.4406115
20
78.7940062
11
11.4406115
21
80.4939062
0
LINE
8
DEFAULT_255_2_778
10
23.3208833
20
75.2940739
11
23.4814833
21
75.2940739
0
LINE
8
DEFAULT_255_2_778
10
23.4814833
20
75.2940739
11
23.1377833
21
74.4796739
0
LINE
8
DEFAULT_255_2_778
10
23.1377833
20
74.4796739
11
23.5158833
21
73.5941739
0
LINE
8
DEFAULT_255_2_778
10
23.5158833
20
73.5941739
11
23.3433833
21
73.5941739
0
LINE
8
DEFAULT_255_2_778
10
23.3433833
20
73.5941739
11
23.0491833
21
74.3182739
0
LINE
8
DEFAULT_255_2_778
10
23.0491833
20
74.3182739
11
22.7620833
21
73.5941739
0
LINE
8
DEFAULT_255_2_778
10
22.7620833
20
73.5941739
11
22.5972833
21
73.5941739
0
LINE
8
DEFAULT_255_2_778
10
22.5972833
20
73.5941739
11
22.9697833
21
74.4844739
0
LINE
8
DEFAULT_255_2_778
10
22.9697833
20
74.4844739
11
22.6300833
21
75.2940739
0
LINE
8
DEFAULT_255_2_778
10
22.6300833
20
75.2940739
11
22.7985833
21
75.2940739
0
LINE
8
DEFAULT_255_2_778
10
22.7985833
20
75.2940739
11
23.0605833
21
74.6339739
0
LINE
8
DEFAULT_255_2_778
10
23.0605833
20
74.6339739
11
23.3211833
21
75.2940739
0
LINE
8
DEFAULT_255_2_778
10
20.9189833
20
75.2940739
11
21.0795833
21
75.2940739
0
LINE
8
DEFAULT_255_2_778
10
21.0795833
20
75.2940739
11
20.7358833
21
74.4796739
0
LINE
8
DEFAULT_255_2_778
10
20.7358833
20
74.4796739
11
21.1139833
21
73.5941739
0
LINE
8
DEFAULT_255_2_778
10
21.1139833
20
73.5941739
11
20.9414833
21
73.5941739
0
LINE
8
DEFAULT_255_2_778
10
20.9414833
20
73.5941739
11
20.6472833
21
74.3182739
0
LINE
8
DEFAULT_255_2_778
10
20.6472833
20
74.3182739
11
20.3601833
21
73.5941739
0
LINE
8
DEFAULT_255_2_778
10
20.3601833
20
73.5941739
11
20.1953833
21
73.5941739
0
LINE
8
DEFAULT_255_2_778
10
20.1953833
20
73.5941739
11
20.5678833
21
74.4844739
0
LINE
8
DEFAULT_255_2_778
10
20.5678833
20
74.4844739
11
20.2281833
21
75.2940739
0
LINE
8
DEFAULT_255_2_778
10
20.2281833
20
75.2940739
11
20.3966833
21
75.2940739
0
LINE
8
DEFAULT_255_2_778
10
20.3966833
20
75.2940739
11
20.6586833
21
74.6339739
0
LINE
8
DEFAULT_255_2_778
10
20.6586833
20
74.6339739
11
20.9192833
21
75.2940739
0
LINE
8
DEFAULT_255_2_778
10
21.6926667
20
75.2941062
11
22.4885667
21
75.2941062
0
LINE
8
DEFAULT_255_2_778
10
22.4885667
20
75.2941062
11
22.4885667
21
75.1012062
0
LINE
8
DEFAULT_255_2_778
10
22.4885667
20
75.1012062
11
22.1580667
21
75.1012062
0
LINE
8
DEFAULT_255_2_778
10
22.1580667
20
75.1012062
11
22.1580667
21
73.5939062
0
LINE
8
DEFAULT_255_2_778
10
22.1580667
20
73.5939062
11
22.0231667
21
73.5939062
0
LINE
8
DEFAULT_255_2_778
10
22.0231667
20
73.5939062
11
22.0231667
21
75.1012062
0
LINE
8
DEFAULT_255_2_778
10
22.0231667
20
75.1012062
11
21.6926667
21
75.1012062
0
LINE
8
DEFAULT_255_2_778
10
21.6926667
20
75.1012062
11
21.6926667
21
75.2941062
0
LINE
8
DEFAULT_255_2_778
10
21.5444823
20
75.2940708
11
21.6240823
21
75.2940708
0
LINE
8
DEFAULT_255_2_778
10
21.6240823
20
75.2940708
11
21.3102823
21
73.4663708
0
LINE
8
DEFAULT_255_2_778
10
21.3102823
20
73.4663708
11
21.2306823
21
73.4663708
0
LINE
8
DEFAULT_255_2_778
10
21.2306823
20
73.4663708
11
21.5444823
21
75.2940708
0
LINE
8
DEFAULT_255_2_778
10
19.6974156
20
75.1006739
11
19.8366156
21
75.0564739
0
LINE
8
DEFAULT_255_2_778
10
19.8366156
20
75.0564739
11
19.8845156
21
74.9945739
0
LINE
8
DEFAULT_255_2_778
10
19.8845156
20
74.9945739
11
19.9030156
21
74.9450739
0
LINE
8
DEFAULT_255_2_778
10
19.9030156
20
74.9450739
11
19.9120156
21
74.9014739
0
LINE
8
DEFAULT_255_2_778
10
19.9120156
20
74.9014739
11
19.9099156
21
74.7122739
0
LINE
8
DEFAULT_255_2_778
10
19.9099156
20
74.7122739
11
19.8919156
21
74.6574739
0
LINE
8
DEFAULT_255_2_778
10
19.8919156
20
74.6574739
11
19.8448156
21
74.5918739
0
LINE
8
DEFAULT_255_2_778
10
19.8448156
20
74.5918739
11
19.7101156
21
74.5481739
0
LINE
8
DEFAULT_255_2_778
10
19.7101156
20
74.5481739
11
19.4754156
21
74.5481739
0
LINE
8
DEFAULT_255_2_778
10
19.4754156
20
74.5481739
11
19.4754156
21
75.1011739
0
LINE
8
DEFAULT_255_2_778
10
19.4754156
20
75.1011739
11
19.6974156
21
75.1006739
0
LINE
8
DEFAULT_255_2_778
10
19.7699156
20
75.2921739
11
19.3405156
21
75.2940739
0
LINE
8
DEFAULT_255_2_778
10
19.3405156
20
75.2940739
11
19.3405156
21
73.5941739
0
LINE
8
DEFAULT_255_2_778
10
19.3405156
20
73.5941739
11
19.4754156
21
73.5941739
0
LINE
8
DEFAULT_255_2_778
10
19.4754156
20
73.5941739
11
19.4754156
21
74.3555739
0
LINE
8
DEFAULT_255_2_778
10
19.4754156
20
74.3555739
11
19.7998156
21
74.3256739
0
LINE
8
DEFAULT_255_2_778
10
19.7998156
20
74.3256739
11
19.8496156
21
74.2531739
0
LINE
8
DEFAULT_255_2_778
10
19.8496156
20
74.2531739
11
19.8681156
21
74.1862739
0
LINE
8
DEFAULT_255_2_778
10
19.8681156
20
74.1862739
11
19.8778156
21
74.1216739
0
LINE
8
DEFAULT_255_2_778
10
19.8778156
20
74.1216739
11
19.8911156
21
73.9769739
0
LINE
8
DEFAULT_255_2_778
10
19.8911156
20
73.9769739
11
19.9120156
21
73.7605739
0
LINE
8
DEFAULT_255_2_778
10
19.9120156
20
73.7605739
11
19.9189156
21
73.7131739
0
LINE
8
DEFAULT_255_2_778
10
19.9189156
20
73.7131739
11
19.9361156
21
73.6247739
0
LINE
8
DEFAULT_255_2_778
10
19.9361156
20
73.6247739
11
19.9379156
21
73.5951739
0
LINE
8
DEFAULT_255_2_778
10
19.9379156
20
73.5951739
11
20.0811156
21
73.5951739
0
LINE
8
DEFAULT_255_2_778
10
20.0811156
20
73.5951739
11
20.0607156
21
73.6882739
0
LINE
8
DEFAULT_255_2_778
10
20.0607156
20
73.6882739
11
20.0483156
21
73.7891739
0
LINE
8
DEFAULT_255_2_778
10
20.0483156
20
73.7891739
11
20.0289156
21
73.9848739
0
LINE
8
DEFAULT_255_2_778
10
20.0289156
20
73.9848739
11
20.0131156
21
74.1629739
0
LINE
8
DEFAULT_255_2_778
10
20.0131156
20
74.1629739
11
20.0059156
21
74.2209739
0
LINE
8
DEFAULT_255_2_778
10
20.0059156
20
74.2209739
11
19.9943156
21
74.2838739
0
LINE
8
DEFAULT_255_2_778
10
19.9943156
20
74.2838739
11
19.9710156
21
74.3574739
0
LINE
8
DEFAULT_255_2_778
10
19.9710156
20
74.3574739
11
19.9361156
21
74.4076739
0
LINE
8
DEFAULT_255_2_778
10
19.9361156
20
74.4076739
11
19.8583156
21
74.4447739
0
LINE
8
DEFAULT_255_2_778
10
19.8583156
20
74.4447739
11
19.9469156
21
74.5135739
0
LINE
8
DEFAULT_255_2_778
10
19.9469156
20
74.5135739
11
19.9938156
21
74.5804739
0
LINE
8
DEFAULT_255_2_778
10
19.9938156
20
74.5804739
11
20.0186156
21
74.6352739
0
LINE
8
DEFAULT_255_2_778
10
20.0186156
20
74.6352739
11
20.0332156
21
74.6815739
0
LINE
8
DEFAULT_255_2_778
10
20.0332156
20
74.6815739
11
20.0432156
21
74.7289739
0
LINE
8
DEFAULT_255_2_778
10
20.0432156
20
74.7289739
11
20.0485156
21
74.7654739
0
LINE
8
DEFAULT_255_2_778
10
20.0485156
20
74.7654739
11
20.0483156
21
74.9559739
0
LINE
8
DEFAULT_255_2_778
10
20.0483156
20
74.9559739
11
20.0424156
21
74.9948739
0
LINE
8
DEFAULT_255_2_778
10
20.0424156
20
74.9948739
11
20.0316156
21
75.0440739
0
LINE
8
DEFAULT_255_2_778
10
20.0316156
20
75.0440739
11
20.0160156
21
75.0919739
0
LINE
8
DEFAULT_255_2_778
10
20.0160156
20
75.0919739
11
19.9890156
21
75.1474739
0
LINE
8
DEFAULT_255_2_778
10
19.9890156
20
75.1474739
11
19.9295156
21
75.2215739
0
LINE
8
DEFAULT_255_2_778
10
19.9295156
20
75.2215739
11
19.8440156
21
75.2744739
0
LINE
8
DEFAULT_255_2_778
10
19.8440156
20
75.2744739
11
19.7699156
21
75.2921739
0
LINE
8
DEFAULT_255_2_778
10
23.3208833
20
80.4941739
11
23.4814833
21
80.4941739
0
LINE
8
DEFAULT_255_2_778
10
23.4814833
20
80.4941739
11
23.1377833
21
79.6797739
0
LINE
8
DEFAULT_255_2_778
10
23.1377833
20
79.6797739
11
23.5158833
21
78.7942739
0
LINE
8
DEFAULT_255_2_778
10
23.5158833
20
78.7942739
11
23.3433833
21
78.7942739
0
LINE
8
DEFAULT_255_2_778
10
23.3433833
20
78.7942739
11
23.0491833
21
79.5183739
0
LINE
8
DEFAULT_255_2_778
10
23.0491833
20
79.5183739
11
22.7620833
21
78.7942739
0
LINE
8
DEFAULT_255_2_778
10
22.7620833
20
78.7942739
11
22.5972833
21
78.7942739
0
LINE
8
DEFAULT_255_2_778
10
22.5972833
20
78.7942739
11
22.9697833
21
79.6845739
0
LINE
8
DEFAULT_255_2_778
10
22.9697833
20
79.6845739
11
22.6300833
21
80.4941739
0
LINE
8
DEFAULT_255_2_778
10
22.6300833
20
80.4941739
11
22.7985833
21
80.4941739
0
LINE
8
DEFAULT_255_2_778
10
22.7985833
20
80.4941739
11
23.0605833
21
79.8340739
0
LINE
8
DEFAULT_255_2_778
10
23.0605833
20
79.8340739
11
23.3211833
21
80.4941739
0
LINE
8
DEFAULT_255_2_778
10
20.9189833
20
80.4941739
11
21.0795833
21
80.4941739
0
LINE
8
DEFAULT_255_2_778
10
21.0795833
20
80.4941739
11
20.7358833
21
79.6797739
0
LINE
8
DEFAULT_255_2_778
10
20.7358833
20
79.6797739
11
21.1139833
21
78.7942739
0
LINE
8
DEFAULT_255_2_778
10
21.1139833
20
78.7942739
11
20.9414833
21
78.7942739
0
LINE
8
DEFAULT_255_2_778
10
20.9414833
20
78.7942739
11
20.6472833
21
79.5183739
0
LINE
8
DEFAULT_255_2_778
10
20.6472833
20
79.5183739
11
20.3601833
21
78.7942739
0
LINE
8
DEFAULT_255_2_778
10
20.3601833
20
78.7942739
11
20.1953833
21
78.7942739
0
LINE
8
DEFAULT_255_2_778
10
20.1953833
20
78.7942739
11
20.5678833
21
79.6845739
0
LINE
8
DEFAULT_255_2_778
10
20.5678833
20
79.6845739
11
20.2281833
21
80.4941739
0
LINE
8
DEFAULT_255_2_778
10
20.2281833
20
80.4941739
11
20.3966833
21
80.4941739
0
LINE
8
DEFAULT_255_2_778
10
20.3966833
20
80.4941739
11
20.6586833
21
79.8340739
0
LINE
8
DEFAULT_255_2_778
10
20.6586833
20
79.8340739
11
20.9192833
21
80.4941739
0
LINE
8
DEFAULT_255_2_778
10
21.6926667
20
80.4942062
11
22.4885667
21
80.4942062
0
LINE
8
DEFAULT_255_2_778
10
22.4885667
20
80.4942062
11
22.4885667
21
80.3013062
0
LINE
8
DEFAULT_255_2_778
10
22.4885667
20
80.3013062
11
22.1580667
21
80.3013062
0
LINE
8
DEFAULT_255_2_778
10
22.1580667
20
80.3013062
11
22.1580667
21
78.7940062
0
LINE
8
DEFAULT_255_2_778
10
22.1580667
20
78.7940062
11
22.0231667
21
78.7940062
0
LINE
8
DEFAULT_255_2_778
10
22.0231667
20
78.7940062
11
22.0231667
21
80.3013062
0
LINE
8
DEFAULT_255_2_778
10
22.0231667
20
80.3013062
11
21.6926667
21
80.3013062
0
LINE
8
DEFAULT_255_2_778
10
21.6926667
20
80.3013062
11
21.6926667
21
80.4942062
0
LINE
8
DEFAULT_255_2_778
10
21.5444823
20
80.4941708
11
21.6240823
21
80.4941708
0
LINE
8
DEFAULT_255_2_778
10
21.6240823
20
80.4941708
11
21.3102823
21
78.6664708
0
LINE
8
DEFAULT_255_2_778
10
21.3102823
20
78.6664708
11
21.2306823
21
78.6664708
0
LINE
8
DEFAULT_255_2_778
10
21.2306823
20
78.6664708
11
21.5444823
21
80.4941708
0
LINE
8
DEFAULT_255_2_778
10
19.7514156
20
80.2944739
11
19.8480156
21
80.2465739
0
LINE
8
DEFAULT_255_2_778
10
19.8480156
20
80.2465739
11
19.8845156
21
80.1946739
0
LINE
8
DEFAULT_255_2_778
10
19.8845156
20
80.1946739
11
19.9030156
21
80.1452739
0
LINE
8
DEFAULT_255_2_778
10
19.9030156
20
80.1452739
11
19.9120156
21
80.1015739
0
LINE
8
DEFAULT_255_2_778
10
19.9120156
20
80.1015739
11
19.9099156
21
79.9123739
0
LINE
8
DEFAULT_255_2_778
10
19.9099156
20
79.9123739
11
19.8919156
21
79.8575739
0
LINE
8
DEFAULT_255_2_778
10
19.8919156
20
79.8575739
11
19.8448156
21
79.7919739
0
LINE
8
DEFAULT_255_2_778
10
19.8448156
20
79.7919739
11
19.7101156
21
79.7483739
0
LINE
8
DEFAULT_255_2_778
10
19.7101156
20
79.7483739
11
19.4754156
21
79.7483739
0
LINE
8
DEFAULT_255_2_778
10
19.4754156
20
79.7483739
11
19.4754156
21
80.3013739
0
LINE
8
DEFAULT_255_2_778
10
19.4754156
20
80.3013739
11
19.7514156
21
80.2944739
0
LINE
8
DEFAULT_255_2_778
10
19.8064156
20
80.4865739
11
19.7331156
21
80.4944739
0
LINE
8
DEFAULT_255_2_778
10
19.7331156
20
80.4944739
11
19.3405156
21
80.4944739
0
LINE
8
DEFAULT_255_2_778
10
19.3405156
20
80.4944739
11
19.3405156
21
78.7945739
0
LINE
8
DEFAULT_255_2_778
10
19.3405156
20
78.7945739
11
19.4754156
21
78.7945739
0
LINE
8
DEFAULT_255_2_778
10
19.4754156
20
78.7945739
11
19.4754156
21
79.5559739
0
LINE
8
DEFAULT_255_2_778
10
19.4754156
20
79.5559739
11
19.7998156
21
79.5260739
0
LINE
8
DEFAULT_255_2_778
10
19.7998156
20
79.5260739
11
19.8496156
21
79.4535739
0
LINE
8
DEFAULT_255_2_778
10
19.8496156
20
79.4535739
11
19.8681156
21
79.3866739
0
LINE
8
DEFAULT_255_2_778
10
19.8681156
20
79.3866739
11
19.8778156
21
79.3220739
0
LINE
8
DEFAULT_255_2_778
10
19.8778156
20
79.3220739
11
19.8911156
21
79.1773739
0
LINE
8
DEFAULT_255_2_778
10
19.8911156
20
79.1773739
11
19.9120156
21
78.9609739
0
LINE
8
DEFAULT_255_2_778
10
19.9120156
20
78.9609739
11
19.9189156
21
78.9135739
0
LINE
8
DEFAULT_255_2_778
10
19.9189156
20
78.9135739
11
19.9361156
21
78.8251739
0
LINE
8
DEFAULT_255_2_778
10
19.9361156
20
78.8251739
11
19.9379156
21
78.7955739
0
LINE
8
DEFAULT_255_2_778
10
19.9379156
20
78.7955739
11
20.0811156
21
78.7955739
0
LINE
8
DEFAULT_255_2_778
10
20.0811156
20
78.7955739
11
20.0607156
21
78.8886739
0
LINE
8
DEFAULT_255_2_778
10
20.0607156
20
78.8886739
11
20.0483156
21
78.9895739
0
LINE
8
DEFAULT_255_2_778
10
20.0483156
20
78.9895739
11
20.0289156
21
79.1852739
0
LINE
8
DEFAULT_255_2_778
10
20.0289156
20
79.1852739
11
20.0131156
21
79.3633739
0
LINE
8
DEFAULT_255_2_778
10
20.0131156
20
79.3633739
11
20.0059156
21
79.4213739
0
LINE
8
DEFAULT_255_2_778
10
20.0059156
20
79.4213739
11
19.9943156
21
79.4842739
0
LINE
8
DEFAULT_255_2_778
10
19.9943156
20
79.4842739
11
19.9710156
21
79.5578739
0
LINE
8
DEFAULT_255_2_778
10
19.9710156
20
79.5578739
11
19.9361156
21
79.6080739
0
LINE
8
DEFAULT_255_2_778
10
19.9361156
20
79.6080739
11
19.8583156
21
79.6451739
0
LINE
8
DEFAULT_255_2_778
10
19.8583156
20
79.6451739
11
19.9469156
21
79.7139739
0
LINE
8
DEFAULT_255_2_778
10
19.9469156
20
79.7139739
11
19.9938156
21
79.7808739
0
LINE
8
DEFAULT_255_2_778
10
19.9938156
20
79.7808739
11
20.0186156
21
79.8356739
0
LINE
8
DEFAULT_255_2_778
10
20.0186156
20
79.8356739
11
20.0332156
21
79.8819739
0
LINE
8
DEFAULT_255_2_778
10
20.0332156
20
79.8819739
11
20.0432156
21
79.9293739
0
LINE
8
DEFAULT_255_2_778
10
20.0432156
20
79.9293739
11
20.0485156
21
79.9658739
0
LINE
8
DEFAULT_255_2_778
10
20.0485156
20
79.9658739
11
20.0483156
21
80.1563739
0
LINE
8
DEFAULT_255_2_778
10
20.0483156
20
80.1563739
11
20.0424156
21
80.1952739
0
LINE
8
DEFAULT_255_2_778
10
20.0424156
20
80.1952739
11
20.0316156
21
80.2444739
0
LINE
8
DEFAULT_255_2_778
10
20.0316156
20
80.2444739
11
20.0160156
21
80.2923739
0
LINE
8
DEFAULT_255_2_778
10
20.0160156
20
80.2923739
11
19.9890156
21
80.3478739
0
LINE
8
DEFAULT_255_2_778
10
19.9890156
20
80.3478739
11
19.9295156
21
80.4219739
0
LINE
8
DEFAULT_255_2_778
10
19.9295156
20
80.4219739
11
19.8440156
21
80.4748739
0
LINE
8
DEFAULT_255_2_778
10
19.8440156
20
80.4748739
11
19.8064156
21
80.4865739
0
LINE
8
DEFAULT_255_2_778
10
13.308045
20
43.8687479
11
13.167545
21
43.9094479
0
LINE
8
DEFAULT_255_2_778
10
13.167545
20
43.9094479
11
13.012445
21
43.9340479
0
LINE
8
DEFAULT_255_2_778
10
13.012445
20
43.9340479
11
12.850345
21
43.9417479
0
LINE
8
DEFAULT_255_2_778
10
12.850345
20
43.9417479
11
12.684145
21
43.9330479
0
LINE
8
DEFAULT_255_2_778
10
12.684145
20
43.9330479
11
12.533545
21
43.9073479
0
LINE
8
DEFAULT_255_2_778
10
12.533545
20
43.9073479
11
12.413445
21
43.8713479
0
LINE
8
DEFAULT_255_2_778
10
12.413445
20
43.8713479
11
12.293645
21
43.8179479
0
LINE
8
DEFAULT_255_2_778
10
12.293645
20
43.8179479
11
12.211845
21
43.7687479
0
LINE
8
DEFAULT_255_2_778
10
12.211845
20
43.7687479
11
12.075845
21
43.6549479
0
LINE
8
DEFAULT_255_2_778
10
12.075845
20
43.6549479
11
11.985645
21
43.5438479
0
LINE
8
DEFAULT_255_2_778
10
11.985645
20
43.5438479
11
11.934545
21
43.4546479
0
LINE
8
DEFAULT_255_2_778
10
11.934545
20
43.4546479
11
11.902345
21
43.3787479
0
LINE
8
DEFAULT_255_2_778
10
11.902345
20
43.3787479
11
11.877445
21
43.2998479
0
LINE
8
DEFAULT_255_2_778
10
11.877445
20
43.2998479
11
11.862345
21
43.2331479
0
LINE
8
DEFAULT_255_2_778
10
11.862345
20
43.2331479
11
11.854945
21
43.1882479
0
LINE
8
DEFAULT_255_2_778
10
11.854945
20
43.1882479
11
11.849645
21
43.1432479
0
LINE
8
DEFAULT_255_2_778
10
11.849645
20
43.1432479
11
11.847745
21
43.1207479
0
LINE
8
DEFAULT_255_2_778
10
11.847745
20
43.1207479
11
11.845445
21
43.0757479
0
LINE
8
DEFAULT_255_2_778
10
11.845445
20
43.0757479
11
11.845145
21
43.0307479
0
LINE
8
DEFAULT_255_2_778
10
11.845145
20
43.0307479
11
12.260245
21
43.0307479
0
LINE
8
DEFAULT_255_2_778
10
12.260245
20
43.0307479
11
12.261345
21
43.0773479
0
LINE
8
DEFAULT_255_2_778
10
12.261345
20
43.0773479
11
12.263145
21
43.1006479
0
LINE
8
DEFAULT_255_2_778
10
12.263145
20
43.1006479
11
12.265845
21
43.1239479
0
LINE
8
DEFAULT_255_2_778
10
12.265845
20
43.1239479
11
12.269245
21
43.1472479
0
LINE
8
DEFAULT_255_2_778
10
12.269245
20
43.1472479
11
12.278545
21
43.1935479
0
LINE
8
DEFAULT_255_2_778
10
12.278545
20
43.1935479
11
12.290145
21
43.2345479
0
LINE
8
DEFAULT_255_2_778
10
12.290145
20
43.2345479
11
12.313245
21
43.2940479
0
LINE
8
DEFAULT_255_2_778
10
12.313245
20
43.2940479
11
12.343345
21
43.3496479
0
LINE
8
DEFAULT_255_2_778
10
12.343345
20
43.3496479
11
12.393645
21
43.4157479
0
LINE
8
DEFAULT_255_2_778
10
12.393645
20
43.4157479
11
12.471145
21
43.4858479
0
LINE
8
DEFAULT_255_2_778
10
12.471145
20
43.4858479
11
12.581745
21
43.5483479
0
LINE
8
DEFAULT_255_2_778
10
12.581745
20
43.5483479
11
12.731745
21
43.5893479
0
LINE
8
DEFAULT_255_2_778
10
12.731745
20
43.5893479
11
12.931545
21
43.5943479
0
LINE
8
DEFAULT_255_2_778
10
12.931545
20
43.5943479
11
13.112245
21
43.5557479
0
LINE
8
DEFAULT_255_2_778
10
13.112245
20
43.5557479
11
13.230745
21
43.4956479
0
LINE
8
DEFAULT_255_2_778
10
13.230745
20
43.4956479
11
13.312745
21
43.4268479
0
LINE
8
DEFAULT_255_2_778
10
13.312745
20
43.4268479
11
13.363545
21
43.3631479
0
LINE
8
DEFAULT_255_2_778
10
13.363545
20
43.3631479
11
13.393245
21
43.3093479
0
LINE
8
DEFAULT_255_2_778
10
13.393245
20
43.3093479
11
13.415445
21
43.2519479
0
LINE
8
DEFAULT_255_2_778
10
13.415445
20
43.2519479
11
13.426845
21
43.2104479
0
LINE
8
DEFAULT_255_2_778
10
13.426845
20
43.2104479
11
13.435045
21
43.1659479
0
LINE
8
DEFAULT_255_2_778
10
13.435045
20
43.1659479
11
13.435545
21
43.0149479
0
LINE
8
DEFAULT_255_2_778
10
13.435545
20
43.0149479
11
13.430845
21
42.9844479
0
LINE
8
DEFAULT_255_2_778
10
13.430845
20
42.9844479
11
13.424445
21
42.9543479
0
LINE
8
DEFAULT_255_2_778
10
13.424445
20
42.9543479
11
13.408045
21
42.8947479
0
LINE
8
DEFAULT_255_2_778
10
13.408045
20
42.8947479
11
13.387145
21
42.8363479
0
LINE
8
DEFAULT_255_2_778
10
13.387145
20
42.8363479
11
13.362845
21
42.7791479
0
LINE
8
DEFAULT_255_2_778
10
13.362845
20
42.7791479
11
13.319145
21
42.6923479
0
LINE
8
DEFAULT_255_2_778
10
13.319145
20
42.6923479
11
13.243745
21
42.5682479
0
LINE
8
DEFAULT_255_2_778
10
13.243745
20
42.5682479
11
13.129945
21
42.4119479
0
LINE
8
DEFAULT_255_2_778
10
13.129945
20
42.4119479
11
12.969845
21
42.2187479
0
LINE
8
DEFAULT_255_2_778
10
12.969845
20
42.2187479
11
12.741845
21
41.9740479
0
LINE
8
DEFAULT_255_2_778
10
12.741845
20
41.9740479
11
12.505045
21
41.7427479
0
LINE
8
DEFAULT_255_2_778
10
12.505045
20
41.7427479
11
12.254745
21
41.5165479
0
LINE
8
DEFAULT_255_2_778
10
12.254745
20
41.5165479
11
11.991245
21
41.2948479
0
LINE
8
DEFAULT_255_2_778
10
11.991245
20
41.2948479
11
11.714445
21
41.0781479
0
LINE
8
DEFAULT_255_2_778
10
11.714445
20
41.0781479
11
11.714445
21
40.6947479
0
LINE
8
DEFAULT_255_2_778
10
11.714445
20
40.6947479
11
13.921045
21
40.6947479
0
LINE
8
DEFAULT_255_2_778
10
13.921045
20
40.6947479
11
13.921045
21
41.0440479
0
LINE
8
DEFAULT_255_2_778
10
13.921045
20
41.0440479
11
12.235945
21
41.0440479
0
LINE
8
DEFAULT_255_2_778
10
12.235945
20
41.0440479
11
12.895545
21
41.5835479
0
LINE
8
DEFAULT_255_2_778
10
12.895545
20
41.5835479
11
13.057245
21
41.7263479
0
LINE
8
DEFAULT_255_2_778
10
13.057245
20
41.7263479
11
13.239245
21
41.9031479
0
LINE
8
DEFAULT_255_2_778
10
13.239245
20
41.9031479
11
13.386045
21
42.0647479
0
LINE
8
DEFAULT_255_2_778
10
13.386045
20
42.0647479
11
13.477145
21
42.1780479
0
LINE
8
DEFAULT_255_2_778
10
13.477145
20
42.1780479
11
13.561745
21
42.2960479
0
LINE
8
DEFAULT_255_2_778
10
13.561745
20
42.2960479
11
13.639245
21
42.4196479
0
LINE
8
DEFAULT_255_2_778
10
13.639245
20
42.4196479
11
13.698045
21
42.5275479
0
LINE
8
DEFAULT_255_2_778
10
13.698045
20
42.5275479
11
13.740645
21
42.6175479
0
LINE
8
DEFAULT_255_2_778
10
13.740645
20
42.6175479
11
13.777945
21
42.7098479
0
LINE
8
DEFAULT_255_2_778
10
13.777945
20
42.7098479
11
13.794345
21
42.7566479
0
LINE
8
DEFAULT_255_2_778
10
13.794345
20
42.7566479
11
13.809145
21
42.8040479
0
LINE
8
DEFAULT_255_2_778
10
13.809145
20
42.8040479
11
13.822145
21
42.8516479
0
LINE
8
DEFAULT_255_2_778
10
13.822145
20
42.8516479
11
13.832945
21
42.8998479
0
LINE
8
DEFAULT_255_2_778
10
13.832945
20
42.8998479
11
13.841945
21
42.9482479
0
LINE
8
DEFAULT_255_2_778
10
13.841945
20
42.9482479
11
13.848545
21
42.9969479
0
LINE
8
DEFAULT_255_2_778
10
13.848545
20
42.9969479
11
13.853045
21
43.0456479
0
LINE
8
DEFAULT_255_2_778
10
13.853045
20
43.0456479
11
13.852245
21
43.1810479
0
LINE
8
DEFAULT_255_2_778
10
13.852245
20
43.1810479
11
13.847745
21
43.2242479
0
LINE
8
DEFAULT_255_2_778
10
13.847745
20
43.2242479
11
13.841145
21
43.2670479
0
LINE
8
DEFAULT_255_2_778
10
13.841145
20
43.2670479
11
13.832445
21
43.3096479
0
LINE
8
DEFAULT_255_2_778
10
13.832445
20
43.3096479
11
13.821345
21
43.3517479
0
LINE
8
DEFAULT_255_2_778
10
13.821345
20
43.3517479
11
13.809145
21
43.3895479
0
LINE
8
DEFAULT_255_2_778
10
13.809145
20
43.3895479
11
13.795145
21
43.4268479
0
LINE
8
DEFAULT_255_2_778
10
13.795145
20
43.4268479
11
13.761245
21
43.4988479
0
LINE
8
DEFAULT_255_2_778
10
13.761245
20
43.4988479
11
13.719745
21
43.5665479
0
LINE
8
DEFAULT_255_2_778
10
13.719745
20
43.5665479
11
13.669745
21
43.6298479
0
LINE
8
DEFAULT_255_2_778
10
13.669745
20
43.6298479
11
13.613045
21
43.6872479
0
LINE
8
DEFAULT_255_2_778
10
13.613045
20
43.6872479
11
13.550945
21
43.7388479
0
LINE
8
DEFAULT_255_2_778
10
13.550945
20
43.7388479
11
13.475245
21
43.7901479
0
LINE
8
DEFAULT_255_2_778
10
13.475245
20
43.7901479
11
13.353245
21
43.8523479
0
LINE
8
DEFAULT_255_2_778
10
13.353245
20
43.8523479
11
13.308045
21
43.8700479
0
LINE
8
DEFAULT_255_2_778
10
23.148645
20
43.8941479
11
23.858545
21
43.8941479
0
LINE
8
DEFAULT_255_2_778
10
23.858545
20
43.8941479
11
23.858545
21
40.6942479
0
LINE
8
DEFAULT_255_2_778
10
23.858545
20
40.6942479
11
23.420945
21
40.6942479
0
LINE
8
DEFAULT_255_2_778
10
23.420945
20
40.6942479
11
23.420945
21
43.5631479
0
LINE
8
DEFAULT_255_2_778
10
23.420945
20
43.5631479
11
22.393545
21
40.6942479
0
LINE
8
DEFAULT_255_2_778
10
22.393545
20
40.6942479
11
21.953545
21
40.6942479
0
LINE
8
DEFAULT_255_2_778
10
21.953545
20
40.6942479
11
20.898945
21
43.5586479
0
LINE
8
DEFAULT_255_2_778
10
20.898945
20
43.5586479
11
20.898945
21
40.6942479
0
LINE
8
DEFAULT_255_2_778
10
20.898945
20
40.6942479
11
20.461345
21
40.6942479
0
LINE
8
DEFAULT_255_2_778
10
20.461345
20
40.6942479
11
20.461345
21
43.8941479
0
LINE
8
DEFAULT_255_2_778
10
20.461345
20
43.8941479
11
21.171145
21
43.8941479
0
LINE
8
DEFAULT_255_2_778
10
21.171145
20
43.8941479
11
22.175845
21
41.2157479
0
LINE
8
DEFAULT_255_2_778
10
22.175845
20
41.2157479
11
23.148645
21
43.8941479
0
LINE
8
DEFAULT_255_2_778
10
7.0421365
20
43.8941354
11
9.6252365
21
43.8941354
0
LINE
8
DEFAULT_255_2_778
10
9.6252365
20
43.8941354
11
9.6252365
21
43.5314354
0
LINE
8
DEFAULT_255_2_778
10
9.6252365
20
43.5314354
11
8.5526365
21
43.5314354
0
LINE
8
DEFAULT_255_2_778
10
8.5526365
20
43.5314354
11
8.5526365
21
40.6942354
0
LINE
8
DEFAULT_255_2_778
10
8.5526365
20
40.6942354
11
8.1150365
21
40.6942354
0
LINE
8
DEFAULT_255_2_778
10
8.1150365
20
40.6942354
11
8.1150365
21
43.5314354
0
LINE
8
DEFAULT_255_2_778
10
8.1150365
20
43.5314354
11
7.0424365
21
43.5314354
0
LINE
8
DEFAULT_255_2_778
10
7.0424365
20
43.5314354
11
7.0424365
21
43.8941354
0
LINE
8
DEFAULT_255_2_778
10
4.6404888
20
43.8941958
11
6.5909888
21
43.8941958
0
LINE
8
DEFAULT_255_2_778
10
6.5909888
20
43.8941958
11
6.5909888
21
43.5313958
0
LINE
8
DEFAULT_255_2_778
10
6.5909888
20
43.5313958
11
5.0783888
21
43.5313958
0
LINE
8
DEFAULT_255_2_778
10
5.0783888
20
43.5313958
11
5.0783888
21
42.5222958
0
LINE
8
DEFAULT_255_2_778
10
5.0783888
20
42.5222958
11
6.5319888
21
42.5222958
0
LINE
8
DEFAULT_255_2_778
10
6.5319888
20
42.5222958
11
6.5319888
21
42.1595958
0
LINE
8
DEFAULT_255_2_778
10
6.5319888
20
42.1595958
11
5.0783888
21
42.1595958
0
LINE
8
DEFAULT_255_2_778
10
5.0783888
20
42.1595958
11
5.0783888
21
41.0572958
0
LINE
8
DEFAULT_255_2_778
10
5.0783888
20
41.0572958
11
6.6319888
21
41.0572958
0
LINE
8
DEFAULT_255_2_778
10
6.6319888
20
41.0572958
11
6.6319888
21
40.6945958
0
LINE
8
DEFAULT_255_2_778
10
6.6319888
20
40.6945958
11
4.6404888
21
40.6945958
0
LINE
8
DEFAULT_255_2_778
10
4.6404888
20
40.6945958
11
4.6404888
21
43.8943958
0
LINE
8
DEFAULT_255_2_778
10
16.0807888
20
43.8822958
11
15.9413888
21
43.9195958
0
LINE
8
DEFAULT_255_2_778
10
15.9413888
20
43.9195958
11
15.7979888
21
43.9383958
0
LINE
8
DEFAULT_255_2_778
10
15.7979888
20
43.9383958
11
15.6047888
21
43.9383958
0
LINE
8
DEFAULT_255_2_778
10
15.6047888
20
43.9383958
11
15.4616888
21
43.9195958
0
LINE
8
DEFAULT_255_2_778
10
15.4616888
20
43.9195958
11
15.3224888
21
43.8824958
0
LINE
8
DEFAULT_255_2_778
10
15.3224888
20
43.8824958
11
15.2258888
21
43.8433958
0
LINE
8
DEFAULT_255_2_778
10
15.2258888
20
43.8433958
11
15.1335888
21
43.7943958
0
LINE
8
DEFAULT_255_2_778
10
15.1335888
20
43.7943958
11
15.0467888
21
43.7361958
0
LINE
8
DEFAULT_255_2_778
10
15.0467888
20
43.7361958
11
14.9687888
21
43.6716958
0
LINE
8
DEFAULT_255_2_778
10
14.9687888
20
43.6716958
11
14.8991888
21
43.6022958
0
LINE
8
DEFAULT_255_2_778
10
14.8991888
20
43.6022958
11
14.8356888
21
43.5274958
0
LINE
8
DEFAULT_255_2_778
10
14.8356888
20
43.5274958
11
14.7776888
21
43.4477958
0
LINE
8
DEFAULT_255_2_778
10
14.7776888
20
43.4477958
11
14.7134888
21
43.3437958
0
LINE
8
DEFAULT_255_2_778
10
14.7134888
20
43.3437958
11
14.6599888
21
43.2413958
0
LINE
8
DEFAULT_255_2_778
10
14.6599888
20
43.2413958
11
14.6136888
21
43.1358958
0
LINE
8
DEFAULT_255_2_778
10
14.6136888
20
43.1358958
11
14.5930888
21
43.0818958
0
LINE
8
DEFAULT_255_2_778
10
14.5930888
20
43.0818958
11
14.5723888
21
43.0217958
0
LINE
8
DEFAULT_255_2_778
10
14.5723888
20
43.0217958
11
14.5538888
21
42.9609958
0
LINE
8
DEFAULT_255_2_778
10
14.5538888
20
42.9609958
11
14.5371888
21
42.8995958
0
LINE
8
DEFAULT_255_2_778
10
14.5371888
20
42.8995958
11
14.5223888
21
42.8376958
0
LINE
8
DEFAULT_255_2_778
10
14.5223888
20
42.8376958
11
14.5094888
21
42.7754958
0
LINE
8
DEFAULT_255_2_778
10
14.5094888
20
42.7754958
11
14.4982888
21
42.7127958
0
LINE
8
DEFAULT_255_2_778
10
14.4982888
20
42.7127958
11
14.4882888
21
42.6442958
0
LINE
8
DEFAULT_255_2_778
10
14.4882888
20
42.6442958
11
14.4803888
21
42.5754958
0
LINE
8
DEFAULT_255_2_778
10
14.4803888
20
42.5754958
11
14.4742888
21
42.5066958
0
LINE
8
DEFAULT_255_2_778
10
14.4742888
20
42.5066958
11
14.4699888
21
42.4375958
0
LINE
8
DEFAULT_255_2_778
10
14.4699888
20
42.4375958
11
14.4697888
21
42.1587958
0
LINE
8
DEFAULT_255_2_778
10
14.4697888
20
42.1587958
11
14.4739888
21
42.0886958
0
LINE
8
DEFAULT_255_2_778
10
14.4739888
20
42.0886958
11
14.4800888
21
42.0184958
0
LINE
8
DEFAULT_255_2_778
10
14.4800888
20
42.0184958
11
14.4879888
21
41.9486958
0
LINE
8
DEFAULT_255_2_778
10
14.4879888
20
41.9486958
11
14.4977888
21
41.8790958
0
LINE
8
DEFAULT_255_2_778
10
14.4977888
20
41.8790958
11
14.5086888
21
41.8155958
0
LINE
8
DEFAULT_255_2_778
10
14.5086888
20
41.8155958
11
14.5213888
21
41.7523958
0
LINE
8
DEFAULT_255_2_778
10
14.5213888
20
41.7523958
11
14.5358888
21
41.6893958
0
LINE
8
DEFAULT_255_2_778
10
14.5358888
20
41.6893958
11
14.5522888
21
41.6269958
0
LINE
8
DEFAULT_255_2_778
10
14.5522888
20
41.6269958
11
14.5705888
21
41.5649958
0
LINE
8
DEFAULT_255_2_778
10
14.5705888
20
41.5649958
11
14.5908888
21
41.5038958
0
LINE
8
DEFAULT_255_2_778
10
14.5908888
20
41.5038958
11
14.6120888
21
41.4469958
0
LINE
8
DEFAULT_255_2_778
10
14.6120888
20
41.4469958
11
14.6599888
21
41.3353958
0
LINE
8
DEFAULT_255_2_778
10
14.6599888
20
41.3353958
11
14.7155888
21
41.2271958
0
LINE
8
DEFAULT_255_2_778
10
14.7155888
20
41.2271958
11
14.7729888
21
41.1321958
0
LINE
8
DEFAULT_255_2_778
10
14.7729888
20
41.1321958
11
14.8306888
21
41.0501958
0
LINE
8
DEFAULT_255_2_778
10
14.8306888
20
41.0501958
11
14.8941888
21
40.9725958
0
LINE
8
DEFAULT_255_2_778
10
14.8941888
20
40.9725958
11
14.9639888
21
40.9006958
0
LINE
8
DEFAULT_255_2_778
10
14.9639888
20
40.9006958
11
15.0369888
21
40.8379958
0
LINE
8
DEFAULT_255_2_778
10
15.0369888
20
40.8379958
11
15.1518888
21
40.7603958
0
LINE
8
DEFAULT_255_2_778
10
15.1518888
20
40.7603958
11
15.2761888
21
40.6992958
0
LINE
8
DEFAULT_255_2_778
10
15.2761888
20
40.6992958
11
15.4119888
21
40.6550958
0
LINE
8
DEFAULT_255_2_778
10
15.4119888
20
40.6550958
11
15.5550888
21
40.6294958
0
LINE
8
DEFAULT_255_2_778
10
15.5550888
20
40.6294958
11
15.7005888
21
40.6212958
0
LINE
8
DEFAULT_255_2_778
10
15.7005888
20
40.6212958
11
15.8466888
21
40.6291958
0
LINE
8
DEFAULT_255_2_778
10
15.8466888
20
40.6291958
11
15.9900888
21
40.6548958
0
LINE
8
DEFAULT_255_2_778
10
15.9900888
20
40.6548958
11
16.1260888
21
40.6990958
0
LINE
8
DEFAULT_255_2_778
10
16.1260888
20
40.6990958
11
16.2503888
21
40.7601958
0
LINE
8
DEFAULT_255_2_778
10
16.2503888
20
40.7601958
11
16.3651888
21
40.8376958
0
LINE
8
DEFAULT_255_2_778
10
16.3651888
20
40.8376958
11
16.4382888
21
40.9003958
0
LINE
8
DEFAULT_255_2_778
10
16.4382888
20
40.9003958
11
16.5078888
21
40.9723958
0
LINE
8
DEFAULT_255_2_778
10
16.5078888
20
40.9723958
11
16.5710888
21
41.0498958
0
LINE
8
DEFAULT_255_2_778
10
16.5710888
20
41.0498958
11
16.6284888
21
41.1318958
0
LINE
8
DEFAULT_255_2_778
10
16.6284888
20
41.1318958
11
16.6858888
21
41.2271958
0
LINE
8
DEFAULT_255_2_778
10
16.6858888
20
41.2271958
11
16.7414888
21
41.3355958
0
LINE
8
DEFAULT_255_2_778
10
16.7414888
20
41.3355958
11
16.7893888
21
41.4477958
0
LINE
8
DEFAULT_255_2_778
10
16.7893888
20
41.4477958
11
16.8104888
21
41.5049958
0
LINE
8
DEFAULT_255_2_778
10
16.8104888
20
41.5049958
11
16.8308888
21
41.5660958
0
LINE
8
DEFAULT_255_2_778
10
16.8308888
20
41.5660958
11
16.8491888
21
41.6279958
0
LINE
8
DEFAULT_255_2_778
10
16.8491888
20
41.6279958
11
16.8655888
21
41.6904958
0
LINE
8
DEFAULT_255_2_778
10
16.8655888
20
41.6904958
11
16.8800888
21
41.7533958
0
LINE
8
DEFAULT_255_2_778
10
16.8800888
20
41.7533958
11
16.8927888
21
41.8166958
0
LINE
8
DEFAULT_255_2_778
10
16.8927888
20
41.8166958
11
16.9036888
21
41.8801958
0
LINE
8
DEFAULT_255_2_778
10
16.9036888
20
41.8801958
11
16.9134888
21
41.9494958
0
LINE
8
DEFAULT_255_2_778
10
16.9134888
20
41.9494958
11
16.9213888
21
42.0190958
0
LINE
8
DEFAULT_255_2_778
10
16.9213888
20
42.0190958
11
16.9274888
21
42.0888958
0
LINE
8
DEFAULT_255_2_778
10
16.9274888
20
42.0888958
11
16.9316888
21
42.1589958
0
LINE
8
DEFAULT_255_2_778
10
16.9316888
20
42.1589958
11
16.9314888
21
42.4375958
0
LINE
8
DEFAULT_255_2_778
10
16.9314888
20
42.4375958
11
16.9271888
21
42.5066958
0
LINE
8
DEFAULT_255_2_778
10
16.9271888
20
42.5066958
11
16.9210888
21
42.5754958
0
LINE
8
DEFAULT_255_2_778
10
16.9210888
20
42.5754958
11
16.9131888
21
42.6442958
0
LINE
8
DEFAULT_255_2_778
10
16.9131888
20
42.6442958
11
16.9030888
21
42.7127958
0
LINE
8
DEFAULT_255_2_778
10
16.9030888
20
42.7127958
11
16.8919888
21
42.7754958
0
LINE
8
DEFAULT_255_2_778
10
16.8919888
20
42.7754958
11
16.8790888
21
42.8376958
0
LINE
8
DEFAULT_255_2_778
10
16.8790888
20
42.8376958
11
16.8641888
21
42.8995958
0
LINE
8
DEFAULT_255_2_778
10
16.8641888
20
42.8995958
11
16.8475888
21
42.9609958
0
LINE
8
DEFAULT_255_2_778
10
16.8475888
20
42.9609958
11
16.8290888
21
43.0217958
0
LINE
8
DEFAULT_255_2_778
10
16.8290888
20
43.0217958
11
16.8083888
21
43.0818958
0
LINE
8
DEFAULT_255_2_778
10
16.8083888
20
43.0818958
11
16.7869888
21
43.1382958
0
LINE
8
DEFAULT_255_2_778
10
16.7869888
20
43.1382958
11
16.7382888
21
43.2482958
0
LINE
8
DEFAULT_255_2_778
10
16.7382888
20
43.2482958
11
16.6819888
21
43.3548958
0
LINE
8
DEFAULT_255_2_778
10
16.6819888
20
43.3548958
11
16.6239888
21
43.4477958
0
LINE
8
DEFAULT_255_2_778
10
16.6239888
20
43.4477958
11
16.5662888
21
43.5274958
0
LINE
8
DEFAULT_255_2_778
10
16.5662888
20
43.5274958
11
16.5030888
21
43.6022958
0
LINE
8
DEFAULT_255_2_778
10
16.5030888
20
43.6022958
11
16.4337888
21
43.6716958
0
LINE
8
DEFAULT_255_2_778
10
16.4337888
20
43.6716958
11
16.3559888
21
43.7361958
0
LINE
8
DEFAULT_255_2_778
10
16.3559888
20
43.7361958
11
16.2691888
21
43.7943958
0
LINE
8
DEFAULT_255_2_778
10
16.2691888
20
43.7943958
11
16.1768888
21
43.8433958
0
LINE
8
DEFAULT_255_2_778
10
16.1768888
20
43.8433958
11
16.0807888
21
43.8822958
0
LINE
8
DEFAULT_255_2_778
10
15.9029888
20
43.5512958
11
15.9971888
21
43.5149958
0
LINE
8
DEFAULT_255_2_778
10
15.9971888
20
43.5149958
11
16.0828888
21
43.4644958
0
LINE
8
DEFAULT_255_2_778
10
16.0828888
20
43.4644958
11
16.1601888
21
43.4014958
0
LINE
8
DEFAULT_255_2_778
10
16.1601888
20
43.4014958
11
16.2093888
21
43.3501958
0
LINE
8
DEFAULT_255_2_778
10
16.2093888
20
43.3501958
11
16.2564888
21
43.2908958
0
LINE
8
DEFAULT_255_2_778
10
16.2564888
20
43.2908958
11
16.2982888
21
43.2276958
0
LINE
8
DEFAULT_255_2_778
10
16.2982888
20
43.2276958
11
16.3567888
21
43.1173958
0
LINE
8
DEFAULT_255_2_778
10
16.3567888
20
43.1173958
11
16.3958888
21
43.0252958
0
LINE
8
DEFAULT_255_2_778
10
16.3958888
20
43.0252958
11
16.4286888
21
42.9307958
0
LINE
8
DEFAULT_255_2_778
10
16.4286888
20
42.9307958
11
16.4427888
21
42.8828958
0
LINE
8
DEFAULT_255_2_778
10
16.4427888
20
42.8828958
11
16.4570888
21
42.8281958
0
LINE
8
DEFAULT_255_2_778
10
16.4570888
20
42.8281958
11
16.4694888
21
42.7728958
0
LINE
8
DEFAULT_255_2_778
10
16.4694888
20
42.7728958
11
16.4802888
21
42.7172958
0
LINE
8
DEFAULT_255_2_778
10
16.4802888
20
42.7172958
11
16.4895888
21
42.6614958
0
LINE
8
DEFAULT_255_2_778
10
16.4895888
20
42.6614958
11
16.4972888
21
42.6053958
0
LINE
8
DEFAULT_255_2_778
10
16.4972888
20
42.6053958
11
16.5041888
21
42.5434958
0
LINE
8
DEFAULT_255_2_778
10
16.5041888
20
42.5434958
11
16.5091888
21
42.4815958
0
LINE
8
DEFAULT_255_2_778
10
16.5091888
20
42.4815958
11
16.5125888
21
42.4193958
0
LINE
8
DEFAULT_255_2_778
10
16.5125888
20
42.4193958
11
16.5125888
21
42.1687958
0
LINE
8
DEFAULT_255_2_778
10
16.5125888
20
42.1687958
11
16.5091888
21
42.1058958
0
LINE
8
DEFAULT_255_2_778
10
16.5091888
20
42.1058958
11
16.5041888
21
42.0428958
0
LINE
8
DEFAULT_255_2_778
10
16.5041888
20
42.0428958
11
16.4974888
21
41.9801958
0
LINE
8
DEFAULT_255_2_778
10
16.4974888
20
41.9801958
11
16.4898888
21
41.9232958
0
LINE
8
DEFAULT_255_2_778
10
16.4898888
20
41.9232958
11
16.4808888
21
41.8666958
0
LINE
8
DEFAULT_255_2_778
10
16.4808888
20
41.8666958
11
16.4702888
21
41.8102958
0
LINE
8
DEFAULT_255_2_778
10
16.4702888
20
41.8102958
11
16.4577888
21
41.7541958
0
LINE
8
DEFAULT_255_2_778
10
16.4577888
20
41.7541958
11
16.4437888
21
41.6986958
0
LINE
8
DEFAULT_255_2_778
10
16.4437888
20
41.6986958
11
16.4292888
21
41.6475958
0
LINE
8
DEFAULT_255_2_778
10
16.4292888
20
41.6475958
11
16.4130888
21
41.5970958
0
LINE
8
DEFAULT_255_2_778
10
16.4130888
20
41.5970958
11
16.3757888
21
41.4977958
0
LINE
8
DEFAULT_255_2_778
10
16.3757888
20
41.4977958
11
16.3376888
21
41.4141958
0
LINE
8
DEFAULT_255_2_778
10
16.3376888
20
41.4141958
11
16.3009888
21
41.3459958
0
LINE
8
DEFAULT_255_2_778
10
16.3009888
20
41.3459958
11
16.2590888
21
41.2808958
0
LINE
8
DEFAULT_255_2_778
10
16.2590888
20
41.2808958
11
16.2120888
21
41.2197958
0
LINE
8
DEFAULT_255_2_778
10
16.2120888
20
41.2197958
11
16.1376888
21
41.1440958
0
LINE
8
DEFAULT_255_2_778
10
16.1376888
20
41.1440958
11
16.0572888
21
41.0831958
0
LINE
8
DEFAULT_255_2_778
10
16.0572888
20
41.0831958
11
15.9685888
21
41.0358958
0
LINE
8
DEFAULT_255_2_778
10
15.9685888
20
41.0358958
11
15.8714888
21
41.0038958
0
LINE
8
DEFAULT_255_2_778
10
15.8714888
20
41.0038958
11
15.7357888
21
40.9850958
0
LINE
8
DEFAULT_255_2_778
10
15.7357888
20
40.9850958
11
15.5984888
21
40.9911958
0
LINE
8
DEFAULT_255_2_778
10
15.5984888
20
40.9911958
11
15.4981888
21
41.0128958
0
LINE
8
DEFAULT_255_2_778
10
15.4981888
20
41.0128958
11
15.4036888
21
41.0501958
0
LINE
8
DEFAULT_255_2_778
10
15.4036888
20
41.0501958
11
15.3174888
21
41.1022958
0
LINE
8
DEFAULT_255_2_778
10
15.3174888
20
41.1022958
11
15.2399888
21
41.1670958
0
LINE
8
DEFAULT_255_2_778
10
15.2399888
20
41.1670958
11
15.1904888
21
41.2199958
0
LINE
8
DEFAULT_255_2_778
10
15.1904888
20
41.2199958
11
15.1433888
21
41.2810958
0
LINE
8
DEFAULT_255_2_778
10
15.1433888
20
41.2810958
11
15.1015888
21
41.3461958
0
LINE
8
DEFAULT_255_2_778
10
15.1015888
20
41.3461958
11
15.0647888
21
41.4144958
0
LINE
8
DEFAULT_255_2_778
10
15.0647888
20
41.4144958
11
15.0266888
21
41.4980958
0
LINE
8
DEFAULT_255_2_778
10
15.0266888
20
41.4980958
11
14.9893888
21
41.5972958
0
LINE
8
DEFAULT_255_2_778
10
14.9893888
20
41.5972958
11
14.9732888
21
41.6478958
0
LINE
8
DEFAULT_255_2_778
10
14.9732888
20
41.6478958
11
14.9586888
21
41.6988958
0
LINE
8
DEFAULT_255_2_778
10
14.9586888
20
41.6988958
11
14.9446888
21
41.7544958
0
LINE
8
DEFAULT_255_2_778
10
14.9446888
20
41.7544958
11
14.9322888
21
41.8105958
0
LINE
8
DEFAULT_255_2_778
10
14.9322888
20
41.8105958
11
14.9216888
21
41.8668958
0
LINE
8
DEFAULT_255_2_778
10
14.9216888
20
41.8668958
11
14.9126888
21
41.9235958
0
LINE
8
DEFAULT_255_2_778
10
14.9126888
20
41.9235958
11
14.9049888
21
41.9803958
0
LINE
8
DEFAULT_255_2_778
10
14.9049888
20
41.9803958
11
14.8983888
21
42.0430958
0
LINE
8
DEFAULT_255_2_778
10
14.8983888
20
42.0430958
11
14.8933888
21
42.1060958
0
LINE
8
DEFAULT_255_2_778
10
14.8933888
20
42.1060958
11
14.8898888
21
42.1690958
0
LINE
8
DEFAULT_255_2_778
10
14.8898888
20
42.1690958
11
14.8898888
21
42.4195958
0
LINE
8
DEFAULT_255_2_778
10
14.8898888
20
42.4195958
11
14.8933888
21
42.4817958
0
LINE
8
DEFAULT_255_2_778
10
14.8933888
20
42.4817958
11
14.8983888
21
42.5436958
0
LINE
8
DEFAULT_255_2_778
10
14.8983888
20
42.5436958
11
14.9052888
21
42.6055958
0
LINE
8
DEFAULT_255_2_778
10
14.9052888
20
42.6055958
11
14.9128888
21
42.6616958
0
LINE
8
DEFAULT_255_2_778
10
14.9128888
20
42.6616958
11
14.9221888
21
42.7175958
0
LINE
8
DEFAULT_255_2_778
10
14.9221888
20
42.7175958
11
14.9330888
21
42.7730958
0
LINE
8
DEFAULT_255_2_778
10
14.9330888
20
42.7730958
11
14.9454888
21
42.8283958
0
LINE
8
DEFAULT_255_2_778
10
14.9454888
20
42.8283958
11
14.9597888
21
42.8831958
0
LINE
8
DEFAULT_255_2_778
10
14.9597888
20
42.8831958
11
14.9745888
21
42.9331958
0
LINE
8
DEFAULT_255_2_778
10
14.9745888
20
42.9331958
11
14.9909888
21
42.9826958
0
LINE
8
DEFAULT_255_2_778
10
14.9909888
20
42.9826958
11
15.0287888
21
43.0799958
0
LINE
8
DEFAULT_255_2_778
10
15.0287888
20
43.0799958
11
15.0674888
21
43.1614958
0
LINE
8
DEFAULT_255_2_778
10
15.0674888
20
43.1614958
11
15.1044888
21
43.2276958
0
LINE
8
DEFAULT_255_2_778
10
15.1044888
20
43.2276958
11
15.1462888
21
43.2908958
0
LINE
8
DEFAULT_255_2_778
10
15.1462888
20
43.2908958
11
15.1933888
21
43.3501958
0
LINE
8
DEFAULT_255_2_778
10
15.1933888
20
43.3501958
11
15.2674888
21
43.4236958
0
LINE
8
DEFAULT_255_2_778
10
15.2674888
20
43.4236958
11
15.3478888
21
43.4826958
0
LINE
8
DEFAULT_255_2_778
10
15.3478888
20
43.4826958
11
15.4359888
21
43.5284958
0
LINE
8
DEFAULT_255_2_778
10
15.4359888
20
43.5284958
11
15.5328888
21
43.5596958
0
LINE
8
DEFAULT_255_2_778
10
15.5328888
20
43.5596958
11
15.6677888
21
43.5779958
0
LINE
8
DEFAULT_255_2_778
10
15.6677888
20
43.5779958
11
15.8042888
21
43.5721958
0
LINE
8
DEFAULT_255_2_778
10
15.8042888
20
43.5721958
11
15.9029888
21
43.5512958
0
LINE
8
DEFAULT_255_2_778
10
19.0414888
20
43.8639958
11
18.9001888
21
43.9092958
0
LINE
8
DEFAULT_255_2_778
10
18.9001888
20
43.9092958
11
18.7578888
21
43.9340958
0
LINE
8
DEFAULT_255_2_778
10
18.7578888
20
43.9340958
11
18.5646888
21
43.9409958
0
LINE
8
DEFAULT_255_2_778
10
18.5646888
20
43.9409958
11
18.4207888
21
43.9277958
0
LINE
8
DEFAULT_255_2_778
10
18.4207888
20
43.9277958
11
18.2799888
21
43.8967958
0
LINE
8
DEFAULT_255_2_778
10
18.2799888
20
43.8967958
11
18.1852888
21
43.8639958
0
LINE
8
DEFAULT_255_2_778
10
18.1852888
20
43.8639958
11
18.0905888
21
43.8197958
0
LINE
8
DEFAULT_255_2_778
10
18.0905888
20
43.8197958
11
18.0008888
21
43.7660958
0
LINE
8
DEFAULT_255_2_778
10
18.0008888
20
43.7660958
11
17.9172888
21
43.7036958
0
LINE
8
DEFAULT_255_2_778
10
17.9172888
20
43.7036958
11
17.8447888
21
43.6374958
0
LINE
8
DEFAULT_255_2_778
10
17.8447888
20
43.6374958
11
17.7783888
21
43.5652958
0
LINE
8
DEFAULT_255_2_778
10
17.7783888
20
43.5652958
11
17.7177888
21
43.4877958
0
LINE
8
DEFAULT_255_2_778
10
17.7177888
20
43.4877958
11
17.6545888
21
43.3932958
0
LINE
8
DEFAULT_255_2_778
10
17.6545888
20
43.3932958
11
17.5976888
21
43.2927958
0
LINE
8
DEFAULT_255_2_778
10
17.5976888
20
43.2927958
11
17.5478888
21
43.1887958
0
LINE
8
DEFAULT_255_2_778
10
17.5478888
20
43.1887958
11
17.5050888
21
43.0815958
0
LINE
8
DEFAULT_255_2_778
10
17.5050888
20
43.0815958
11
17.4843888
21
43.0215958
0
LINE
8
DEFAULT_255_2_778
10
17.4843888
20
43.0215958
11
17.4658888
21
42.9606958
0
LINE
8
DEFAULT_255_2_778
10
17.4658888
20
42.9606958
11
17.4491888
21
42.8992958
0
LINE
8
DEFAULT_255_2_778
10
17.4491888
20
42.8992958
11
17.4343888
21
42.8373958
0
LINE
8
DEFAULT_255_2_778
10
17.4343888
20
42.8373958
11
17.4214888
21
42.7751958
0
LINE
8
DEFAULT_255_2_778
10
17.4214888
20
42.7751958
11
17.4102888
21
42.7124958
0
LINE
8
DEFAULT_255_2_778
10
17.4102888
20
42.7124958
11
17.4002888
21
42.6439958
0
LINE
8
DEFAULT_255_2_778
10
17.4002888
20
42.6439958
11
17.3923888
21
42.5751958
0
LINE
8
DEFAULT_255_2_778
10
17.3923888
20
42.5751958
11
17.3862888
21
42.5063958
0
LINE
8
DEFAULT_255_2_778
10
17.3862888
20
42.5063958
11
17.3819888
21
42.4373958
0
LINE
8
DEFAULT_255_2_778
10
17.3819888
20
42.4373958
11
17.3817888
21
42.1584958
0
LINE
8
DEFAULT_255_2_778
10
17.3817888
20
42.1584958
11
17.3859888
21
42.0883958
0
LINE
8
DEFAULT_255_2_778
10
17.3859888
20
42.0883958
11
17.3920888
21
42.0182958
0
LINE
8
DEFAULT_255_2_778
10
17.3920888
20
42.0182958
11
17.3999888
21
41.9483958
0
LINE
8
DEFAULT_255_2_778
10
17.3999888
20
41.9483958
11
17.4097888
21
41.8787958
0
LINE
8
DEFAULT_255_2_778
10
17.4097888
20
41.8787958
11
17.4206888
21
41.8152958
0
LINE
8
DEFAULT_255_2_778
10
17.4206888
20
41.8152958
11
17.4333888
21
41.7520958
0
LINE
8
DEFAULT_255_2_778
10
17.4333888
20
41.7520958
11
17.4478888
21
41.6890958
0
LINE
8
DEFAULT_255_2_778
10
17.4478888
20
41.6890958
11
17.4642888
21
41.6266958
0
LINE
8
DEFAULT_255_2_778
10
17.4642888
20
41.6266958
11
17.4825888
21
41.5647958
0
LINE
8
DEFAULT_255_2_778
10
17.4825888
20
41.5647958
11
17.5029888
21
41.5036958
0
LINE
8
DEFAULT_255_2_778
10
17.5029888
20
41.5036958
11
17.5240888
21
41.4467958
0
LINE
8
DEFAULT_255_2_778
10
17.5240888
20
41.4467958
11
17.5719888
21
41.3350958
0
LINE
8
DEFAULT_255_2_778
10
17.5719888
20
41.3350958
11
17.6275888
21
41.2268958
0
LINE
8
DEFAULT_255_2_778
10
17.6275888
20
41.2268958
11
17.6849888
21
41.1318958
0
LINE
8
DEFAULT_255_2_778
10
17.6849888
20
41.1318958
11
17.7426888
21
41.0498958
0
LINE
8
DEFAULT_255_2_778
10
17.7426888
20
41.0498958
11
17.8061888
21
40.9723958
0
LINE
8
DEFAULT_255_2_778
10
17.8061888
20
40.9723958
11
17.8759888
21
40.9003958
0
LINE
8
DEFAULT_255_2_778
10
17.8759888
20
40.9003958
11
17.9489888
21
40.8376958
0
LINE
8
DEFAULT_255_2_778
10
17.9489888
20
40.8376958
11
18.0638888
21
40.7601958
0
LINE
8
DEFAULT_255_2_778
10
18.0638888
20
40.7601958
11
18.1881888
21
40.6990958
0
LINE
8
DEFAULT_255_2_778
10
18.1881888
20
40.6990958
11
18.3239888
21
40.6548958
0
LINE
8
DEFAULT_255_2_778
10
18.3239888
20
40.6548958
11
18.4670888
21
40.6291958
0
LINE
8
DEFAULT_255_2_778
10
18.4670888
20
40.6291958
11
18.6125888
21
40.6209958
0
LINE
8
DEFAULT_255_2_778
10
18.6125888
20
40.6209958
11
18.7586888
21
40.6288958
0
LINE
8
DEFAULT_255_2_778
10
18.7586888
20
40.6288958
11
18.9020888
21
40.6545958
0
LINE
8
DEFAULT_255_2_778
10
18.9020888
20
40.6545958
11
19.0380888
21
40.6987958
0
LINE
8
DEFAULT_255_2_778
10
19.0380888
20
40.6987958
11
19.1623888
21
40.7598958
0
LINE
8
DEFAULT_255_2_778
10
19.1623888
20
40.7598958
11
19.2771888
21
40.8373958
0
LINE
8
DEFAULT_255_2_778
10
19.2771888
20
40.8373958
11
19.3502888
21
40.9000958
0
LINE
8
DEFAULT_255_2_778
10
19.3502888
20
40.9000958
11
19.4198888
21
40.9720958
0
LINE
8
DEFAULT_255_2_778
10
19.4198888
20
40.9720958
11
19.4830888
21
41.0495958
0
LINE
8
DEFAULT_255_2_778
10
19.4830888
20
41.0495958
11
19.5404888
21
41.1316958
0
LINE
8
DEFAULT_255_2_778
10
19.5404888
20
41.1316958
11
19.5978888
21
41.2268958
0
LINE
8
DEFAULT_255_2_778
10
19.5978888
20
41.2268958
11
19.6534888
21
41.3353958
0
LINE
8
DEFAULT_255_2_778
10
19.6534888
20
41.3353958
11
19.7013888
21
41.4475958
0
LINE
8
DEFAULT_255_2_778
10
19.7013888
20
41.4475958
11
19.7224888
21
41.5046958
0
LINE
8
DEFAULT_255_2_778
10
19.7224888
20
41.5046958
11
19.7428888
21
41.5657958
0
LINE
8
DEFAULT_255_2_778
10
19.7428888
20
41.5657958
11
19.7611888
21
41.6276958
0
LINE
8
DEFAULT_255_2_778
10
19.7611888
20
41.6276958
11
19.7775888
21
41.6901958
0
LINE
8
DEFAULT_255_2_778
10
19.7775888
20
41.6901958
11
19.7920888
21
41.7531958
0
LINE
8
DEFAULT_255_2_778
10
19.7920888
20
41.7531958
11
19.8047888
21
41.8163958
0
LINE
8
DEFAULT_255_2_778
10
19.8047888
20
41.8163958
11
19.8156888
21
41.8798958
0
LINE
8
DEFAULT_255_2_778
10
19.8156888
20
41.8798958
11
19.8254888
21
41.9491958
0
LINE
8
DEFAULT_255_2_778
10
19.8254888
20
41.9491958
11
19.8333888
21
42.0187958
0
LINE
8
DEFAULT_255_2_778
10
19.8333888
20
42.0187958
11
19.8394888
21
42.0886958
0
LINE
8
DEFAULT_255_2_778
10
19.8394888
20
42.0886958
11
19.8436888
21
42.1587958
0
LINE
8
DEFAULT_255_2_778
10
19.8436888
20
42.1587958
11
19.8434888
21
42.4373958
0
LINE
8
DEFAULT_255_2_778
10
19.8434888
20
42.4373958
11
19.8391888
21
42.5063958
0
LINE
8
DEFAULT_255_2_778
10
19.8391888
20
42.5063958
11
19.8330888
21
42.5751958
0
LINE
8
DEFAULT_255_2_778
10
19.8330888
20
42.5751958
11
19.8251888
21
42.6439958
0
LINE
8
DEFAULT_255_2_778
10
19.8251888
20
42.6439958
11
19.8150888
21
42.7124958
0
LINE
8
DEFAULT_255_2_778
10
19.8150888
20
42.7124958
11
19.8039888
21
42.7751958
0
LINE
8
DEFAULT_255_2_778
10
19.8039888
20
42.7751958
11
19.7910888
21
42.8373958
0
LINE
8
DEFAULT_255_2_778
10
19.7910888
20
42.8373958
11
19.7762888
21
42.8992958
0
LINE
8
DEFAULT_255_2_778
10
19.7762888
20
42.8992958
11
19.7595888
21
42.9606958
0
LINE
8
DEFAULT_255_2_778
10
19.7595888
20
42.9606958
11
19.7410888
21
43.0215958
0
LINE
8
DEFAULT_255_2_778
10
19.7410888
20
43.0215958
11
19.7203888
21
43.0815958
0
LINE
8
DEFAULT_255_2_778
10
19.7203888
20
43.0815958
11
19.6989888
21
43.1379958
0
LINE
8
DEFAULT_255_2_778
10
19.6989888
20
43.1379958
11
19.6502888
21
43.2480958
0
LINE
8
DEFAULT_255_2_778
10
19.6502888
20
43.2480958
11
19.5939888
21
43.3546958
0
LINE
8
DEFAULT_255_2_778
10
19.5939888
20
43.3546958
11
19.5359888
21
43.4475958
0
LINE
8
DEFAULT_255_2_778
10
19.5359888
20
43.4475958
11
19.4782888
21
43.5271958
0
LINE
8
DEFAULT_255_2_778
10
19.4782888
20
43.5271958
11
19.4150888
21
43.6020958
0
LINE
8
DEFAULT_255_2_778
10
19.4150888
20
43.6020958
11
19.3457888
21
43.6713958
0
LINE
8
DEFAULT_255_2_778
10
19.3457888
20
43.6713958
11
19.2679888
21
43.7358958
0
LINE
8
DEFAULT_255_2_778
10
19.2679888
20
43.7358958
11
19.1811888
21
43.7941958
0
LINE
8
DEFAULT_255_2_778
10
19.1811888
20
43.7941958
11
19.0888888
21
43.8430958
0
LINE
8
DEFAULT_255_2_778
10
19.0888888
20
43.8430958
11
19.0414888
21
43.8639958
0
LINE
8
DEFAULT_255_2_778
10
18.8147888
20
43.5512958
11
18.9088888
21
43.5149958
0
LINE
8
DEFAULT_255_2_778
10
18.9088888
20
43.5149958
11
18.9946888
21
43.4644958
0
LINE
8
DEFAULT_255_2_778
10
18.9946888
20
43.4644958
11
19.0718888
21
43.4014958
0
LINE
8
DEFAULT_255_2_778
10
19.0718888
20
43.4014958
11
19.1210888
21
43.3501958
0
LINE
8
DEFAULT_255_2_778
10
19.1210888
20
43.3501958
11
19.1681888
21
43.2908958
0
LINE
8
DEFAULT_255_2_778
10
19.1681888
20
43.2908958
11
19.2099888
21
43.2276958
0
LINE
8
DEFAULT_255_2_778
10
19.2099888
20
43.2276958
11
19.2684888
21
43.1173958
0
LINE
8
DEFAULT_255_2_778
10
19.2684888
20
43.1173958
11
19.3076888
21
43.0252958
0
LINE
8
DEFAULT_255_2_778
10
19.3076888
20
43.0252958
11
19.3404888
21
42.9307958
0
LINE
8
DEFAULT_255_2_778
10
19.3404888
20
42.9307958
11
19.3544888
21
42.8828958
0
LINE
8
DEFAULT_255_2_778
10
19.3544888
20
42.8828958
11
19.3687888
21
42.8281958
0
LINE
8
DEFAULT_255_2_778
10
19.3687888
20
42.8281958
11
19.3811888
21
42.7728958
0
LINE
8
DEFAULT_255_2_778
10
19.3811888
20
42.7728958
11
19.3920888
21
42.7172958
0
LINE
8
DEFAULT_255_2_778
10
19.3920888
20
42.7172958
11
19.4012888
21
42.6614958
0
LINE
8
DEFAULT_255_2_778
10
19.4012888
20
42.6614958
11
19.4089888
21
42.6053958
0
LINE
8
DEFAULT_255_2_778
10
19.4089888
20
42.6053958
11
19.4158888
21
42.5434958
0
LINE
8
DEFAULT_255_2_778
10
19.4158888
20
42.5434958
11
19.4208888
21
42.4815958
0
LINE
8
DEFAULT_255_2_778
10
19.4208888
20
42.4815958
11
19.4243888
21
42.4193958
0
LINE
8
DEFAULT_255_2_778
10
19.4243888
20
42.4193958
11
19.4243888
21
42.1687958
0
LINE
8
DEFAULT_255_2_778
10
19.4243888
20
42.1687958
11
19.4208888
21
42.1058958
0
LINE
8
DEFAULT_255_2_778
10
19.4208888
20
42.1058958
11
19.4158888
21
42.0428958
0
LINE
8
DEFAULT_255_2_778
10
19.4158888
20
42.0428958
11
19.4092888
21
41.9801958
0
LINE
8
DEFAULT_255_2_778
10
19.4092888
20
41.9801958
11
19.4015888
21
41.9232958
0
LINE
8
DEFAULT_255_2_778
10
19.4015888
20
41.9232958
11
19.3925888
21
41.8666958
0
LINE
8
DEFAULT_255_2_778
10
19.3925888
20
41.8666958
11
19.3819888
21
41.8102958
0
LINE
8
DEFAULT_255_2_778
10
19.3819888
20
41.8102958
11
19.3695888
21
41.7541958
0
LINE
8
DEFAULT_255_2_778
10
19.3695888
20
41.7541958
11
19.3555888
21
41.6986958
0
LINE
8
DEFAULT_255_2_778
10
19.3555888
20
41.6986958
11
19.3409888
21
41.6475958
0
LINE
8
DEFAULT_255_2_778
10
19.3409888
20
41.6475958
11
19.3248888
21
41.5970958
0
LINE
8
DEFAULT_255_2_778
10
19.3248888
20
41.5970958
11
19.2875888
21
41.4977958
0
LINE
8
DEFAULT_255_2_778
10
19.2875888
20
41.4977958
11
19.2494888
21
41.4141958
0
LINE
8
DEFAULT_255_2_778
10
19.2494888
20
41.4141958
11
19.2126888
21
41.3459958
0
LINE
8
DEFAULT_255_2_778
10
19.2126888
20
41.3459958
11
19.1708888
21
41.2808958
0
LINE
8
DEFAULT_255_2_778
10
19.1708888
20
41.2808958
11
19.1237888
21
41.2197958
0
LINE
8
DEFAULT_255_2_778
10
19.1237888
20
41.2197958
11
19.0493888
21
41.1440958
0
LINE
8
DEFAULT_255_2_778
10
19.0493888
20
41.1440958
11
18.9689888
21
41.0831958
0
LINE
8
DEFAULT_255_2_778
10
18.9689888
20
41.0831958
11
18.8803888
21
41.0358958
0
LINE
8
DEFAULT_255_2_778
10
18.8803888
20
41.0358958
11
18.7832888
21
41.0038958
0
LINE
8
DEFAULT_255_2_778
10
18.7832888
20
41.0038958
11
18.6474888
21
40.9850958
0
LINE
8
DEFAULT_255_2_778
10
18.6474888
20
40.9850958
11
18.5101888
21
40.9911958
0
LINE
8
DEFAULT_255_2_778
10
18.5101888
20
40.9911958
11
18.4098888
21
41.0128958
0
LINE
8
DEFAULT_255_2_778
10
18.4098888
20
41.0128958
11
18.3154888
21
41.0501958
0
LINE
8
DEFAULT_255_2_778
10
18.3154888
20
41.0501958
11
18.2291888
21
41.1022958
0
LINE
8
DEFAULT_255_2_778
10
18.2291888
20
41.1022958
11
18.1516888
21
41.1670958
0
LINE
8
DEFAULT_255_2_778
10
18.1516888
20
41.1670958
11
18.1021888
21
41.2199958
0
LINE
8
DEFAULT_255_2_778
10
18.1021888
20
41.2199958
11
18.0550888
21
41.2810958
0
LINE
8
DEFAULT_255_2_778
10
18.0550888
20
41.2810958
11
18.0132888
21
41.3461958
0
LINE
8
DEFAULT_255_2_778
10
18.0132888
20
41.3461958
11
17.9765888
21
41.4144958
0
LINE
8
DEFAULT_255_2_778
10
17.9765888
20
41.4144958
11
17.9384888
21
41.4980958
0
LINE
8
DEFAULT_255_2_778
10
17.9384888
20
41.4980958
11
17.9011888
21
41.5972958
0
LINE
8
DEFAULT_255_2_778
10
17.9011888
20
41.5972958
11
17.8849888
21
41.6478958
0
LINE
8
DEFAULT_255_2_778
10
17.8849888
20
41.6478958
11
17.8704888
21
41.6988958
0
LINE
8
DEFAULT_255_2_778
10
17.8704888
20
41.6988958
11
17.8563888
21
41.7544958
0
LINE
8
DEFAULT_255_2_778
10
17.8563888
20
41.7544958
11
17.8439888
21
41.8105958
0
LINE
8
DEFAULT_255_2_778
10
17.8439888
20
41.8105958
11
17.8333888
21
41.8668958
0
LINE
8
DEFAULT_255_2_778
10
17.8333888
20
41.8668958
11
17.8243888
21
41.9235958
0
LINE
8
DEFAULT_255_2_778
10
17.8243888
20
41.9235958
11
17.8166888
21
41.9803958
0
LINE
8
DEFAULT_255_2_778
10
17.8166888
20
41.9803958
11
17.8100888
21
42.0430958
0
LINE
8
DEFAULT_255_2_778
10
17.8100888
20
42.0430958
11
17.8050888
21
42.1060958
0
LINE
8
DEFAULT_255_2_778
10
17.8050888
20
42.1060958
11
17.8016888
21
42.1690958
0
LINE
8
DEFAULT_255_2_778
10
17.8016888
20
42.1690958
11
17.8016888
21
42.4195958
0
LINE
8
DEFAULT_255_2_778
10
17.8016888
20
42.4195958
11
17.8050888
21
42.4817958
0
LINE
8
DEFAULT_255_2_778
10
17.8050888
20
42.4817958
11
17.8100888
21
42.5436958
0
LINE
8
DEFAULT_255_2_778
10
17.8100888
20
42.5436958
11
17.8169888
21
42.6055958
0
LINE
8
DEFAULT_255_2_778
10
17.8169888
20
42.6055958
11
17.8246888
21
42.6616958
0
LINE
8
DEFAULT_255_2_778
10
17.8246888
20
42.6616958
11
17.8338888
21
42.7175958
0
LINE
8
DEFAULT_255_2_778
10
17.8338888
20
42.7175958
11
17.8447888
21
42.7730958
0
LINE
8
DEFAULT_255_2_778
10
17.8447888
20
42.7730958
11
17.8571888
21
42.8283958
0
LINE
8
DEFAULT_255_2_778
10
17.8571888
20
42.8283958
11
17.8714888
21
42.8831958
0
LINE
8
DEFAULT_255_2_778
10
17.8714888
20
42.8831958
11
17.8862888
21
42.9331958
0
LINE
8
DEFAULT_255_2_778
10
17.8862888
20
42.9331958
11
17.9026888
21
42.9826958
0
LINE
8
DEFAULT_255_2_778
10
17.9026888
20
42.9826958
11
17.9405888
21
43.0799958
0
LINE
8
DEFAULT_255_2_778
10
17.9405888
20
43.0799958
11
17.9791888
21
43.1614958
0
LINE
8
DEFAULT_255_2_778
10
17.9791888
20
43.1614958
11
18.0161888
21
43.2276958
0
LINE
8
DEFAULT_255_2_778
10
18.0161888
20
43.2276958
11
18.0579888
21
43.2908958
0
LINE
8
DEFAULT_255_2_778
10
18.0579888
20
43.2908958
11
18.1050888
21
43.3501958
0
LINE
8
DEFAULT_255_2_778
10
18.1050888
20
43.3501958
11
18.1791888
21
43.4236958
0
LINE
8
DEFAULT_255_2_778
10
18.1791888
20
43.4236958
11
18.2596888
21
43.4826958
0
LINE
8
DEFAULT_255_2_778
10
18.2596888
20
43.4826958
11
18.3477888
21
43.5284958
0
LINE
8
DEFAULT_255_2_778
10
18.3477888
20
43.5284958
11
18.4445888
21
43.5596958
0
LINE
8
DEFAULT_255_2_778
10
18.4445888
20
43.5596958
11
18.5794888
21
43.5779958
0
LINE
8
DEFAULT_255_2_778
10
18.5794888
20
43.5779958
11
18.7160888
21
43.5721958
0
LINE
8
DEFAULT_255_2_778
10
18.7160888
20
43.5721958
11
18.8147888
21
43.5512958
0
LINE
8
DEFAULT_255_2_778
10
5.667919
20
49.9478093
11
5.470819
21
49.9182093
0
LINE
8
DEFAULT_255_2_778
10
5.470819
20
49.9182093
11
5.289019
21
49.8671093
0
LINE
8
DEFAULT_255_2_778
10
5.289019
20
49.8671093
11
5.130219
21
49.7976093
0
LINE
8
DEFAULT_255_2_778
10
5.130219
20
49.7976093
11
4.997219
21
49.7134093
0
LINE
8
DEFAULT_255_2_778
10
4.997219
20
49.7134093
11
4.916219
21
49.6446093
0
LINE
8
DEFAULT_255_2_778
10
4.916219
20
49.6446093
11
4.845019
21
49.5660093
0
LINE
8
DEFAULT_255_2_778
10
4.845019
20
49.5660093
11
4.805619
21
49.5107093
0
LINE
8
DEFAULT_255_2_778
10
4.805619
20
49.5107093
11
4.771219
21
49.4520093
0
LINE
8
DEFAULT_255_2_778
10
4.771219
20
49.4520093
11
4.742119
21
49.3904093
0
LINE
8
DEFAULT_255_2_778
10
4.742119
20
49.3904093
11
4.718619
21
49.3266093
0
LINE
8
DEFAULT_255_2_778
10
4.718619
20
49.3266093
11
4.708219
21
49.2919093
0
LINE
8
DEFAULT_255_2_778
10
4.708219
20
49.2919093
11
4.699519
21
49.2567093
0
LINE
8
DEFAULT_255_2_778
10
4.699519
20
49.2567093
11
4.692419
21
49.2213093
0
LINE
8
DEFAULT_255_2_778
10
4.692419
20
49.2213093
11
4.686519
21
49.1856093
0
LINE
8
DEFAULT_255_2_778
10
4.686519
20
49.1856093
11
4.687619
21
48.8853093
0
LINE
8
DEFAULT_255_2_778
10
4.687619
20
48.8853093
11
4.696919
21
48.8361093
0
LINE
8
DEFAULT_255_2_778
10
4.696919
20
48.8361093
11
4.708519
21
48.7898093
0
LINE
8
DEFAULT_255_2_778
10
4.708519
20
48.7898093
11
4.730519
21
48.7249093
0
LINE
8
DEFAULT_255_2_778
10
4.730519
20
48.7249093
11
4.758819
21
48.6625093
0
LINE
8
DEFAULT_255_2_778
10
4.758819
20
48.6625093
11
4.805919
21
48.5850093
0
LINE
8
DEFAULT_255_2_778
10
4.805919
20
48.5850093
11
4.878919
21
48.4987093
0
LINE
8
DEFAULT_255_2_778
10
4.878919
20
48.4987093
11
5.002419
21
48.4011093
0
LINE
8
DEFAULT_255_2_778
10
5.002419
20
48.4011093
11
5.196719
21
48.3029093
0
LINE
8
DEFAULT_255_2_778
10
5.196719
20
48.3029093
11
5.488219
21
48.2116093
0
LINE
8
DEFAULT_255_2_778
10
5.488219
20
48.2116093
11
6.262719
21
48.0201093
0
LINE
8
DEFAULT_255_2_778
10
6.262719
20
48.0201093
11
6.444719
21
47.9333093
0
LINE
8
DEFAULT_255_2_778
10
6.444719
20
47.9333093
11
6.533619
21
47.8608093
0
LINE
8
DEFAULT_255_2_778
10
6.533619
20
47.8608093
11
6.579619
21
47.8015093
0
LINE
8
DEFAULT_255_2_778
10
6.579619
20
47.8015093
11
6.604819
21
47.7513093
0
LINE
8
DEFAULT_255_2_778
10
6.604819
20
47.7513093
11
6.616919
21
47.7156093
0
LINE
8
DEFAULT_255_2_778
10
6.616919
20
47.7156093
11
6.625919
21
47.6785093
0
LINE
8
DEFAULT_255_2_778
10
6.625919
20
47.6785093
11
6.632019
21
47.6404093
0
LINE
8
DEFAULT_255_2_778
10
6.632019
20
47.6404093
11
6.630719
21
47.4827093
0
LINE
8
DEFAULT_255_2_778
10
6.630719
20
47.4827093
11
6.627019
21
47.4592093
0
LINE
8
DEFAULT_255_2_778
10
6.627019
20
47.4592093
11
6.616419
21
47.4129093
0
LINE
8
DEFAULT_255_2_778
10
6.616419
20
47.4129093
11
6.602119
21
47.3679093
0
LINE
8
DEFAULT_255_2_778
10
6.602119
20
47.3679093
11
6.583919
21
47.3248093
0
LINE
8
DEFAULT_255_2_778
10
6.583919
20
47.3248093
11
6.549219
21
47.2639093
0
LINE
8
DEFAULT_255_2_778
10
6.549219
20
47.2639093
11
6.493119
21
47.1959093
0
LINE
8
DEFAULT_255_2_778
10
6.493119
20
47.1959093
11
6.407419
21
47.1250093
0
LINE
8
DEFAULT_255_2_778
10
6.407419
20
47.1250093
11
6.289619
21
47.0615093
0
LINE
8
DEFAULT_255_2_778
10
6.289619
20
47.0615093
11
6.132519
21
47.0149093
0
LINE
8
DEFAULT_255_2_778
10
6.132519
20
47.0149093
11
5.795119
21
46.9948093
0
LINE
8
DEFAULT_255_2_778
10
5.795119
20
46.9948093
11
5.580619
21
47.0178093
0
LINE
8
DEFAULT_255_2_778
10
5.580619
20
47.0178093
11
5.402019
21
47.0798093
0
LINE
8
DEFAULT_255_2_778
10
5.402019
20
47.0798093
11
5.263619
21
47.1755093
0
LINE
8
DEFAULT_255_2_778
10
5.263619
20
47.1755093
11
5.167319
21
47.2856093
0
LINE
8
DEFAULT_255_2_778
10
5.167319
20
47.2856093
11
5.122319
21
47.3650093
0
LINE
8
DEFAULT_255_2_778
10
5.122319
20
47.3650093
11
5.095619
21
47.4362093
0
LINE
8
DEFAULT_255_2_778
10
5.095619
20
47.4362093
11
5.085019
21
47.4809093
0
LINE
8
DEFAULT_255_2_778
10
5.085019
20
47.4809093
11
5.080219
21
47.5113093
0
LINE
8
DEFAULT_255_2_778
10
5.080219
20
47.5113093
11
5.079419
21
47.6219093
0
LINE
8
DEFAULT_255_2_778
10
5.079419
20
47.6219093
11
4.640519
21
47.6219093
0
LINE
8
DEFAULT_255_2_778
10
4.640519
20
47.6219093
11
4.641619
21
47.5417093
0
LINE
8
DEFAULT_255_2_778
10
4.641619
20
47.5417093
11
4.645019
21
47.5023093
0
LINE
8
DEFAULT_255_2_778
10
4.645019
20
47.5023093
11
4.650319
21
47.4631093
0
LINE
8
DEFAULT_255_2_778
10
4.650319
20
47.4631093
11
4.657419
21
47.4245093
0
LINE
8
DEFAULT_255_2_778
10
4.657419
20
47.4245093
11
4.666219
21
47.3864093
0
LINE
8
DEFAULT_255_2_778
10
4.666219
20
47.3864093
11
4.676719
21
47.3488093
0
LINE
8
DEFAULT_255_2_778
10
4.676719
20
47.3488093
11
4.702719
21
47.2753093
0
LINE
8
DEFAULT_255_2_778
10
4.702719
20
47.2753093
11
4.735019
21
47.2044093
0
LINE
8
DEFAULT_255_2_778
10
4.735019
20
47.2044093
11
4.773119
21
47.1364093
0
LINE
8
DEFAULT_255_2_778
10
4.773119
20
47.1364093
11
4.816419
21
47.0716093
0
LINE
8
DEFAULT_255_2_778
10
4.816419
20
47.0716093
11
4.871519
21
47.0025093
0
LINE
8
DEFAULT_255_2_778
10
4.871519
20
47.0025093
11
4.932319
21
46.9385093
0
LINE
8
DEFAULT_255_2_778
10
4.932319
20
46.9385093
11
5.033419
21
46.8527093
0
LINE
8
DEFAULT_255_2_778
10
5.033419
20
46.8527093
11
5.144019
21
46.7808093
0
LINE
8
DEFAULT_255_2_778
10
5.144019
20
46.7808093
11
5.261719
21
46.7244093
0
LINE
8
DEFAULT_255_2_778
10
5.261719
20
46.7244093
11
5.426319
21
46.6731093
0
LINE
8
DEFAULT_255_2_778
10
5.426319
20
46.6731093
11
5.640619
21
46.6395093
0
LINE
8
DEFAULT_255_2_778
10
5.640619
20
46.6395093
11
5.913919
21
46.6321093
0
LINE
8
DEFAULT_255_2_778
10
5.913919
20
46.6321093
11
6.134119
21
46.6488093
0
LINE
8
DEFAULT_255_2_778
10
6.134119
20
46.6488093
11
6.332219
21
46.6879093
0
LINE
8
DEFAULT_255_2_778
10
6.332219
20
46.6879093
11
6.471919
21
46.7339093
0
LINE
8
DEFAULT_255_2_778
10
6.471919
20
46.7339093
11
6.594219
21
46.7908093
0
LINE
8
DEFAULT_255_2_778
10
6.594219
20
46.7908093
11
6.708519
21
46.8625093
0
LINE
8
DEFAULT_255_2_778
10
6.708519
20
46.8625093
11
6.792419
21
46.9308093
0
LINE
8
DEFAULT_255_2_778
10
6.792419
20
46.9308093
11
6.867219
21
47.0086093
0
LINE
8
DEFAULT_255_2_778
10
6.867219
20
47.0086093
11
6.911219
21
47.0655093
0
LINE
8
DEFAULT_255_2_778
10
6.911219
20
47.0655093
11
6.949519
21
47.1258093
0
LINE
8
DEFAULT_255_2_778
10
6.949519
20
47.1258093
11
6.982619
21
47.1896093
0
LINE
8
DEFAULT_255_2_778
10
6.982619
20
47.1896093
11
7.010419
21
47.2557093
0
LINE
8
DEFAULT_255_2_778
10
7.010419
20
47.2557093
11
7.032919
21
47.3240093
0
LINE
8
DEFAULT_255_2_778
10
7.032919
20
47.3240093
11
7.042919
21
47.3615093
0
LINE
8
DEFAULT_255_2_778
10
7.042919
20
47.3615093
11
7.051419
21
47.3994093
0
LINE
8
DEFAULT_255_2_778
10
7.051419
20
47.3994093
11
7.058519
21
47.4375093
0
LINE
8
DEFAULT_255_2_778
10
7.058519
20
47.4375093
11
7.064119
21
47.4758093
0
LINE
8
DEFAULT_255_2_778
10
7.064119
20
47.4758093
11
7.068319
21
47.5145093
0
LINE
8
DEFAULT_255_2_778
10
7.068319
20
47.5145093
11
7.068119
21
47.7402093
0
LINE
8
DEFAULT_255_2_778
10
7.068119
20
47.7402093
11
7.065119
21
47.7656093
0
LINE
8
DEFAULT_255_2_778
10
7.065119
20
47.7656093
11
7.056919
21
47.8161093
0
LINE
8
DEFAULT_255_2_778
10
7.056919
20
47.8161093
11
7.045619
21
47.8661093
0
LINE
8
DEFAULT_255_2_778
10
7.045619
20
47.8661093
11
7.024419
21
47.9333093
0
LINE
8
DEFAULT_255_2_778
10
7.024419
20
47.9333093
11
6.996619
21
47.9981093
0
LINE
8
DEFAULT_255_2_778
10
6.996619
20
47.9981093
11
6.949519
21
48.0794093
0
LINE
8
DEFAULT_255_2_778
10
6.949519
20
48.0794093
11
6.875219
21
48.1701093
0
LINE
8
DEFAULT_255_2_778
10
6.875219
20
48.1701093
11
6.782319
21
48.2505093
0
LINE
8
DEFAULT_255_2_778
10
6.782319
20
48.2505093
11
6.643119
21
48.3349093
0
LINE
8
DEFAULT_255_2_778
10
6.643119
20
48.3349093
11
6.431719
21
48.4212093
0
LINE
8
DEFAULT_255_2_778
10
6.431719
20
48.4212093
11
6.227219
21
48.4786093
0
LINE
8
DEFAULT_255_2_778
10
6.227219
20
48.4786093
11
5.463119
21
48.6675093
0
LINE
8
DEFAULT_255_2_778
10
5.463119
20
48.6675093
11
5.295919
21
48.7495093
0
LINE
8
DEFAULT_255_2_778
10
5.295919
20
48.7495093
11
5.214419
21
48.8186093
0
LINE
8
DEFAULT_255_2_778
10
5.214419
20
48.8186093
11
5.172019
21
48.8747093
0
LINE
8
DEFAULT_255_2_778
10
5.172019
20
48.8747093
11
5.148219
21
48.9231093
0
LINE
8
DEFAULT_255_2_778
10
5.148219
20
48.9231093
11
5.136619
21
48.9575093
0
LINE
8
DEFAULT_255_2_778
10
5.136619
20
48.9575093
11
5.128119
21
48.9930093
0
LINE
8
DEFAULT_255_2_778
10
5.128119
20
48.9930093
11
5.122819
21
49.0292093
0
LINE
8
DEFAULT_255_2_778
10
5.122819
20
49.0292093
11
5.124719
21
49.1438093
0
LINE
8
DEFAULT_255_2_778
10
5.124719
20
49.1438093
11
5.131619
21
49.1821093
0
LINE
8
DEFAULT_255_2_778
10
5.131619
20
49.1821093
11
5.141919
21
49.2197093
0
LINE
8
DEFAULT_255_2_778
10
5.141919
20
49.2197093
11
5.164119
21
49.2755093
0
LINE
8
DEFAULT_255_2_778
10
5.164119
20
49.2755093
11
5.194519
21
49.3285093
0
LINE
8
DEFAULT_255_2_778
10
5.194519
20
49.3285093
11
5.245619
21
49.3904093
0
LINE
8
DEFAULT_255_2_778
10
5.245619
20
49.3904093
11
5.354919
21
49.4716093
0
LINE
8
DEFAULT_255_2_778
10
5.354919
20
49.4716093
11
5.516019
21
49.5388093
0
LINE
8
DEFAULT_255_2_778
10
5.516019
20
49.5388093
11
5.716619
21
49.5774093
0
LINE
8
DEFAULT_255_2_778
10
5.716619
20
49.5774093
11
5.987219
21
49.5795093
0
LINE
8
DEFAULT_255_2_778
10
5.987219
20
49.5795093
11
6.205019
21
49.5272093
0
LINE
8
DEFAULT_255_2_778
10
6.205019
20
49.5272093
11
6.375419
21
49.4277093
0
LINE
8
DEFAULT_255_2_778
10
6.375419
20
49.4277093
11
6.454719
21
49.3451093
0
LINE
8
DEFAULT_255_2_778
10
6.454719
20
49.3451093
11
6.500319
21
49.2697093
0
LINE
8
DEFAULT_255_2_778
10
6.500319
20
49.2697093
11
6.525919
21
49.2030093
0
LINE
8
DEFAULT_255_2_778
10
6.525919
20
49.2030093
11
6.536019
21
49.1623093
0
LINE
8
DEFAULT_255_2_778
10
6.536019
20
49.1623093
11
6.540719
21
49.1348093
0
LINE
8
DEFAULT_255_2_778
10
6.540719
20
49.1348093
11
6.543619
21
49.1070093
0
LINE
8
DEFAULT_255_2_778
10
6.543619
20
49.1070093
11
6.544419
21
49.0930093
0
LINE
8
DEFAULT_255_2_778
10
6.544419
20
49.0930093
11
6.988919
21
49.0930093
0
LINE
8
DEFAULT_255_2_778
10
6.988919
20
49.0930093
11
6.987919
21
49.1993093
0
LINE
8
DEFAULT_255_2_778
10
6.987919
20
49.1993093
11
6.983919
21
49.2337093
0
LINE
8
DEFAULT_255_2_778
10
6.983919
20
49.2337093
11
6.978419
21
49.2676093
0
LINE
8
DEFAULT_255_2_778
10
6.978419
20
49.2676093
11
6.971219
21
49.3009093
0
LINE
8
DEFAULT_255_2_778
10
6.971219
20
49.3009093
11
6.962519
21
49.3337093
0
LINE
8
DEFAULT_255_2_778
10
6.962519
20
49.3337093
11
6.940319
21
49.3975093
0
LINE
8
DEFAULT_255_2_778
10
6.940319
20
49.3975093
11
6.912219
21
49.4589093
0
LINE
8
DEFAULT_255_2_778
10
6.912219
20
49.4589093
11
6.878919
21
49.5174093
0
LINE
8
DEFAULT_255_2_778
10
6.878919
20
49.5174093
11
6.840819
21
49.5729093
0
LINE
8
DEFAULT_255_2_778
10
6.840819
20
49.5729093
11
6.790519
21
49.6338093
0
LINE
8
DEFAULT_255_2_778
10
6.790519
20
49.6338093
11
6.705019
21
49.7161093
0
LINE
8
DEFAULT_255_2_778
10
6.705019
20
49.7161093
11
6.609519
21
49.7867093
0
LINE
8
DEFAULT_255_2_778
10
6.609519
20
49.7867093
11
6.506119
21
49.8447093
0
LINE
8
DEFAULT_255_2_778
10
6.506119
20
49.8447093
11
6.357119
21
49.9015093
0
LINE
8
DEFAULT_255_2_778
10
6.357119
20
49.9015093
11
6.160519
21
49.9420093
0
LINE
8
DEFAULT_255_2_778
10
6.160519
20
49.9420093
11
5.878019
21
49.9571093
0
LINE
8
DEFAULT_255_2_778
10
5.878019
20
49.9571093
11
5.667119
21
49.9473093
0
LINE
8
DEFAULT_255_2_778
10
19.574619
20
49.8941093
11
20.012319
21
49.8941093
0
LINE
8
DEFAULT_255_2_778
10
20.012319
20
49.8941093
11
20.012319
21
46.6943093
0
LINE
8
DEFAULT_255_2_778
10
20.012319
20
46.6943093
11
19.574619
21
46.6943093
0
LINE
8
DEFAULT_255_2_778
10
19.574619
20
46.6943093
11
19.574619
21
49.8941093
0
LINE
8
DEFAULT_255_2_778
10
16.3996365
20
49.8941354
11
18.9827365
21
49.8941354
0
LINE
8
DEFAULT_255_2_778
10
18.9827365
20
49.8941354
11
18.9827365
21
49.5314354
0
LINE
8
DEFAULT_255_2_778
10
18.9827365
20
49.5314354
11
17.9101365
21
49.5314354
0
LINE
8
DEFAULT_255_2_778
10
17.9101365
20
49.5314354
11
17.9101365
21
46.6942354
0
LINE
8
DEFAULT_255_2_778
10
17.9101365
20
46.6942354
11
17.4725365
21
46.6942354
0
LINE
8
DEFAULT_255_2_778
10
17.4725365
20
46.6942354
11
17.4725365
21
49.5314354
0
LINE
8
DEFAULT_255_2_778
10
17.4725365
20
49.5314354
11
16.3999365
21
49.5314354
0
LINE
8
DEFAULT_255_2_778
10
16.3999365
20
49.5314354
11
16.3999365
21
49.8941354
0
LINE
8
DEFAULT_255_2_778
10
22.9726773
20
49.7782187
11
22.8136773
21
49.8528187
0
LINE
8
DEFAULT_255_2_778
10
22.8136773
20
49.8528187
11
22.6636773
21
49.9010187
0
LINE
8
DEFAULT_255_2_778
10
22.6636773
20
49.9010187
11
22.4963773
21
49.9354187
0
LINE
8
DEFAULT_255_2_778
10
22.4963773
20
49.9354187
11
22.3085773
21
49.9547187
0
LINE
8
DEFAULT_255_2_778
10
22.3085773
20
49.9547187
11
22.0709773
21
49.9544187
0
LINE
8
DEFAULT_255_2_778
10
22.0709773
20
49.9544187
11
21.9042773
21
49.9372187
0
LINE
8
DEFAULT_255_2_778
10
21.9042773
20
49.9372187
11
21.7404773
21
49.9028187
0
LINE
8
DEFAULT_255_2_778
10
21.7404773
20
49.9028187
11
21.5973773
21
49.8550187
0
LINE
8
DEFAULT_255_2_778
10
21.5973773
20
49.8550187
11
21.4610773
21
49.7904187
0
LINE
8
DEFAULT_255_2_778
10
21.4610773
20
49.7904187
11
21.3753773
21
49.7380187
0
LINE
8
DEFAULT_255_2_778
10
21.3753773
20
49.7380187
11
21.2951773
21
49.6787187
0
LINE
8
DEFAULT_255_2_778
10
21.2951773
20
49.6787187
11
21.2203773
21
49.6126187
0
LINE
8
DEFAULT_255_2_778
10
21.2203773
20
49.6126187
11
21.1509773
21
49.5406187
0
LINE
8
DEFAULT_255_2_778
10
21.1509773
20
49.5406187
11
21.0874773
21
49.4634187
0
LINE
8
DEFAULT_255_2_778
10
21.0874773
20
49.4634187
11
21.0255773
21
49.3750187
0
LINE
8
DEFAULT_255_2_778
10
21.0255773
20
49.3750187
11
20.9705773
21
49.2821187
0
LINE
8
DEFAULT_255_2_778
10
20.9705773
20
49.2821187
11
20.9223773
21
49.1856187
0
LINE
8
DEFAULT_255_2_778
10
20.9223773
20
49.1856187
11
20.8795773
21
49.0816187
0
LINE
8
DEFAULT_255_2_778
10
20.8795773
20
49.0816187
11
20.8599773
21
49.0263187
0
LINE
8
DEFAULT_255_2_778
10
20.8599773
20
49.0263187
11
20.8422773
21
48.9702187
0
LINE
8
DEFAULT_255_2_778
10
20.8422773
20
48.9702187
11
20.8263773
21
48.9136187
0
LINE
8
DEFAULT_255_2_778
10
20.8263773
20
48.9136187
11
20.8123773
21
48.8567187
0
LINE
8
DEFAULT_255_2_778
10
20.8123773
20
48.8567187
11
20.7998773
21
48.7993187
0
LINE
8
DEFAULT_255_2_778
10
20.7998773
20
48.7993187
11
20.7890773
21
48.7416187
0
LINE
8
DEFAULT_255_2_778
10
20.7890773
20
48.7416187
11
20.7787773
21
48.6760187
0
LINE
8
DEFAULT_255_2_778
10
20.7787773
20
48.6760187
11
20.7702773
21
48.6104187
0
LINE
8
DEFAULT_255_2_778
10
20.7702773
20
48.6104187
11
20.7633773
21
48.5445187
0
LINE
8
DEFAULT_255_2_778
10
20.7633773
20
48.5445187
11
20.7583773
21
48.4783187
0
LINE
8
DEFAULT_255_2_778
10
20.7583773
20
48.4783187
11
20.7548773
21
48.4122187
0
LINE
8
DEFAULT_255_2_778
10
20.7548773
20
48.4122187
11
20.7548773
21
48.1479187
0
LINE
8
DEFAULT_255_2_778
10
20.7548773
20
48.1479187
11
20.7586773
21
48.0820187
0
LINE
8
DEFAULT_255_2_778
10
20.7586773
20
48.0820187
11
20.7638773
21
48.0164187
0
LINE
8
DEFAULT_255_2_778
10
20.7638773
20
48.0164187
11
20.7707773
21
47.9510187
0
LINE
8
DEFAULT_255_2_778
10
20.7707773
20
47.9510187
11
20.7795773
21
47.8857187
0
LINE
8
DEFAULT_255_2_778
10
20.7795773
20
47.8857187
11
20.7900773
21
47.8206187
0
LINE
8
DEFAULT_255_2_778
10
20.7900773
20
47.8206187
11
20.8009773
21
47.7634187
0
LINE
8
DEFAULT_255_2_778
10
20.8009773
20
47.7634187
11
20.8133773
21
47.7065187
0
LINE
8
DEFAULT_255_2_778
10
20.8133773
20
47.7065187
11
20.8276773
21
47.6502187
0
LINE
8
DEFAULT_255_2_778
10
20.8276773
20
47.6502187
11
20.8435773
21
47.5941187
0
LINE
8
DEFAULT_255_2_778
10
20.8435773
20
47.5941187
11
20.8612773
21
47.5385187
0
LINE
8
DEFAULT_255_2_778
10
20.8612773
20
47.5385187
11
20.8808773
21
47.4838187
0
LINE
8
DEFAULT_255_2_778
10
20.8808773
20
47.4838187
11
20.9239773
21
47.3808187
0
LINE
8
DEFAULT_255_2_778
10
20.9239773
20
47.3808187
11
20.9723773
21
47.2853187
0
LINE
8
DEFAULT_255_2_778
10
20.9723773
20
47.2853187
11
21.0276773
21
47.1938187
0
LINE
8
DEFAULT_255_2_778
10
21.0276773
20
47.1938187
11
21.0901773
21
47.1070187
0
LINE
8
DEFAULT_255_2_778
10
21.0901773
20
47.1070187
11
21.1536773
21
47.0324187
0
LINE
8
DEFAULT_255_2_778
10
21.1536773
20
47.0324187
11
21.2226773
21
46.9631187
0
LINE
8
DEFAULT_255_2_778
10
21.2226773
20
46.9631187
11
21.2972773
21
46.8996187
0
LINE
8
DEFAULT_255_2_778
10
21.2972773
20
46.8996187
11
21.4192773
21
46.8165187
0
LINE
8
DEFAULT_255_2_778
10
21.4192773
20
46.8165187
11
21.5526773
21
46.7490187
0
LINE
8
DEFAULT_255_2_778
10
21.5526773
20
46.7490187
11
21.6931773
21
46.6977187
0
LINE
8
DEFAULT_255_2_778
10
21.6931773
20
46.6977187
11
21.8500773
21
46.6598187
0
LINE
8
DEFAULT_255_2_778
10
21.8500773
20
46.6598187
11
22.0159773
21
46.6379187
0
LINE
8
DEFAULT_255_2_778
10
22.0159773
20
46.6379187
11
22.2445773
21
46.6321187
0
LINE
8
DEFAULT_255_2_778
10
22.2445773
20
46.6321187
11
22.4278773
21
46.6458187
0
LINE
8
DEFAULT_255_2_778
10
22.4278773
20
46.6458187
11
22.5990773
21
46.6765187
0
LINE
8
DEFAULT_255_2_778
10
22.5990773
20
46.6765187
11
22.7607773
21
46.7249187
0
LINE
8
DEFAULT_255_2_778
10
22.7607773
20
46.7249187
11
22.9070773
21
46.7890187
0
LINE
8
DEFAULT_255_2_778
10
22.9070773
20
46.7890187
11
23.0342773
21
46.8649187
0
LINE
8
DEFAULT_255_2_778
10
23.0342773
20
46.8649187
11
23.1324773
21
46.9411187
0
LINE
8
DEFAULT_255_2_778
10
23.1324773
20
46.9411187
11
23.1917773
21
46.9988187
0
LINE
8
DEFAULT_255_2_778
10
23.1917773
20
46.9988187
11
23.2430773
21
47.0599187
0
LINE
8
DEFAULT_255_2_778
10
23.2430773
20
47.0599187
11
23.2866773
21
47.1239187
0
LINE
8
DEFAULT_255_2_778
10
23.2866773
20
47.1239187
11
23.3240773
21
47.1919187
0
LINE
8
DEFAULT_255_2_778
10
23.3240773
20
47.1919187
11
23.3544773
21
47.2634187
0
LINE
8
DEFAULT_255_2_778
10
23.3544773
20
47.2634187
11
23.3676773
21
47.3020187
0
LINE
8
DEFAULT_255_2_778
10
23.3676773
20
47.3020187
11
23.3790773
21
47.3411187
0
LINE
8
DEFAULT_255_2_778
10
23.3790773
20
47.3411187
11
23.3885773
21
47.3808187
0
LINE
8
DEFAULT_255_2_778
10
23.3885773
20
47.3808187
11
23.3959773
21
47.4211187
0
LINE
8
DEFAULT_255_2_778
10
23.3959773
20
47.4211187
11
23.4012773
21
47.4615187
0
LINE
8
DEFAULT_255_2_778
10
23.4012773
20
47.4615187
11
23.4044773
21
47.5023187
0
LINE
8
DEFAULT_255_2_778
10
23.4044773
20
47.5023187
11
23.4054773
21
47.5430187
0
LINE
8
DEFAULT_255_2_778
10
23.4054773
20
47.5430187
11
22.9564773
21
47.5430187
0
LINE
8
DEFAULT_255_2_778
10
22.9564773
20
47.5430187
11
22.9527773
21
47.5142187
0
LINE
8
DEFAULT_255_2_778
10
22.9527773
20
47.5142187
11
22.9475773
21
47.4853187
0
LINE
8
DEFAULT_255_2_778
10
22.9475773
20
47.4853187
11
22.9408773
21
47.4568187
0
LINE
8
DEFAULT_255_2_778
10
22.9408773
20
47.4568187
11
22.9234773
21
47.4007187
0
LINE
8
DEFAULT_255_2_778
10
22.9234773
20
47.4007187
11
22.9011773
21
47.3483187
0
LINE
8
DEFAULT_255_2_778
10
22.9011773
20
47.3483187
11
22.8747773
21
47.3001187
0
LINE
8
DEFAULT_255_2_778
10
22.8747773
20
47.3001187
11
22.8263773
21
47.2337187
0
LINE
8
DEFAULT_255_2_778
10
22.8263773
20
47.2337187
11
22.7659773
21
47.1742187
0
LINE
8
DEFAULT_255_2_778
10
22.7659773
20
47.1742187
11
22.6704773
21
47.1073187
0
LINE
8
DEFAULT_255_2_778
10
22.6704773
20
47.1073187
11
22.5556773
21
47.0533187
0
LINE
8
DEFAULT_255_2_778
10
22.5556773
20
47.0533187
11
22.3924773
21
47.0109187
0
LINE
8
DEFAULT_255_2_778
10
22.3924773
20
47.0109187
11
22.2079773
21
46.9969187
0
LINE
8
DEFAULT_255_2_778
10
22.2079773
20
46.9969187
11
22.0248773
21
47.0104187
0
LINE
8
DEFAULT_255_2_778
10
22.0248773
20
47.0104187
11
21.8820773
21
47.0438187
0
LINE
8
DEFAULT_255_2_778
10
21.8820773
20
47.0438187
11
21.7769773
21
47.0850187
0
LINE
8
DEFAULT_255_2_778
10
21.7769773
20
47.0850187
11
21.6782773
21
47.1401187
0
LINE
8
DEFAULT_255_2_778
10
21.6782773
20
47.1401187
11
21.5909773
21
47.2065187
0
LINE
8
DEFAULT_255_2_778
10
21.5909773
20
47.2065187
11
21.5174773
21
47.2795187
0
LINE
8
DEFAULT_255_2_778
10
21.5174773
20
47.2795187
11
21.4526773
21
47.3607187
0
LINE
8
DEFAULT_255_2_778
10
21.4526773
20
47.3607187
11
21.3936773
21
47.4531187
0
LINE
8
DEFAULT_255_2_778
10
21.3936773
20
47.4531187
11
21.3562773
21
47.5242187
0
LINE
8
DEFAULT_255_2_778
10
21.3562773
20
47.5242187
11
21.3237773
21
47.5978187
0
LINE
8
DEFAULT_255_2_778
10
21.3237773
20
47.5978187
11
21.2957773
21
47.6732187
0
LINE
8
DEFAULT_255_2_778
10
21.2957773
20
47.6732187
11
21.2798773
21
47.7229187
0
LINE
8
DEFAULT_255_2_778
10
21.2798773
20
47.7229187
11
21.2658773
21
47.7732187
0
LINE
8
DEFAULT_255_2_778
10
21.2658773
20
47.7732187
11
21.2533773
21
47.8240187
0
LINE
8
DEFAULT_255_2_778
10
21.2533773
20
47.8240187
11
21.2425773
21
47.8751187
0
LINE
8
DEFAULT_255_2_778
10
21.2425773
20
47.8751187
11
21.2330773
21
47.9264187
0
LINE
8
DEFAULT_255_2_778
10
21.2330773
20
47.9264187
11
21.2247773
21
47.9780187
0
LINE
8
DEFAULT_255_2_778
10
21.2247773
20
47.9780187
11
21.2171773
21
48.0367187
0
LINE
8
DEFAULT_255_2_778
10
21.2171773
20
48.0367187
11
21.2110773
21
48.0957187
0
LINE
8
DEFAULT_255_2_778
10
21.2110773
20
48.0957187
11
21.2065773
21
48.1547187
0
LINE
8
DEFAULT_255_2_778
10
21.2065773
20
48.1547187
11
21.2033773
21
48.2140187
0
LINE
8
DEFAULT_255_2_778
10
21.2033773
20
48.2140187
11
21.2038773
21
48.4476187
0
LINE
8
DEFAULT_255_2_778
10
21.2038773
20
48.4476187
11
21.2073773
21
48.5050187
0
LINE
8
DEFAULT_255_2_778
10
21.2073773
20
48.5050187
11
21.2120773
21
48.5622187
0
LINE
8
DEFAULT_255_2_778
10
21.2120773
20
48.5622187
11
21.2187773
21
48.6193187
0
LINE
8
DEFAULT_255_2_778
10
21.2187773
20
48.6193187
11
21.2269773
21
48.6762187
0
LINE
8
DEFAULT_255_2_778
10
21.2269773
20
48.6762187
11
21.2343773
21
48.7191187
0
LINE
8
DEFAULT_255_2_778
10
21.2343773
20
48.7191187
11
21.2427773
21
48.7617187
0
LINE
8
DEFAULT_255_2_778
10
21.2427773
20
48.7617187
11
21.2634773
21
48.8461187
0
LINE
8
DEFAULT_255_2_778
10
21.2634773
20
48.8461187
11
21.2890773
21
48.9289187
0
LINE
8
DEFAULT_255_2_778
10
21.2890773
20
48.9289187
11
21.3187773
21
49.0062187
0
LINE
8
DEFAULT_255_2_778
10
21.3187773
20
49.0062187
11
21.3517773
21
49.0776187
0
LINE
8
DEFAULT_255_2_778
10
21.3517773
20
49.0776187
11
21.3896773
21
49.1467187
0
LINE
8
DEFAULT_255_2_778
10
21.3896773
20
49.1467187
11
21.4520773
21
49.2390187
0
LINE
8
DEFAULT_255_2_778
10
21.4520773
20
49.2390187
11
21.5158773
21
49.3141187
0
LINE
8
DEFAULT_255_2_778
10
21.5158773
20
49.3141187
11
21.6126773
21
49.4023187
0
LINE
8
DEFAULT_255_2_778
10
21.6126773
20
49.4023187
11
21.7224773
21
49.4734187
0
LINE
8
DEFAULT_255_2_778
10
21.7224773
20
49.4734187
11
21.8730773
21
49.5377187
0
LINE
8
DEFAULT_255_2_778
10
21.8730773
20
49.5377187
11
22.0468773
21
49.5771187
0
LINE
8
DEFAULT_255_2_778
10
22.0468773
20
49.5771187
11
22.2656773
21
49.5885187
0
LINE
8
DEFAULT_255_2_778
10
22.2656773
20
49.5885187
11
22.4463773
21
49.5697187
0
LINE
8
DEFAULT_255_2_778
10
22.4463773
20
49.5697187
11
22.5765773
21
49.5345187
0
LINE
8
DEFAULT_255_2_778
10
22.5765773
20
49.5345187
11
22.6913773
21
49.4824187
0
LINE
8
DEFAULT_255_2_778
10
22.6913773
20
49.4824187
11
22.7988773
21
49.4081187
0
LINE
8
DEFAULT_255_2_778
10
22.7988773
20
49.4081187
11
22.8509773
21
49.3554187
0
LINE
8
DEFAULT_255_2_778
10
22.8509773
20
49.3554187
11
22.8908773
21
49.2991187
0
LINE
8
DEFAULT_255_2_778
10
22.8908773
20
49.2991187
11
22.9218773
21
49.2372187
0
LINE
8
DEFAULT_255_2_778
10
22.9218773
20
49.2372187
11
22.9377773
21
49.1922187
0
LINE
8
DEFAULT_255_2_778
10
22.9377773
20
49.1922187
11
22.9440773
21
49.1684187
0
LINE
8
DEFAULT_255_2_778
10
22.9440773
20
49.1684187
11
22.9490773
21
49.1443187
0
LINE
8
DEFAULT_255_2_778
10
22.9490773
20
49.1443187
11
22.9527773
21
49.1199187
0
LINE
8
DEFAULT_255_2_778
10
22.9527773
20
49.1199187
11
22.9554773
21
49.0956187
0
LINE
8
DEFAULT_255_2_778
10
22.9554773
20
49.0956187
11
22.9564773
21
49.0467187
0
LINE
8
DEFAULT_255_2_778
10
22.9564773
20
49.0467187
11
23.4054773
21
49.0467187
0
LINE
8
DEFAULT_255_2_778
10
23.4054773
20
49.0467187
11
23.4039773
21
49.1295187
0
LINE
8
DEFAULT_255_2_778
10
23.4039773
20
49.1295187
11
23.3996773
21
49.1707187
0
LINE
8
DEFAULT_255_2_778
10
23.3996773
20
49.1707187
11
23.3933773
21
49.2120187
0
LINE
8
DEFAULT_255_2_778
10
23.3933773
20
49.2120187
11
23.3848773
21
49.2528187
0
LINE
8
DEFAULT_255_2_778
10
23.3848773
20
49.2528187
11
23.3742773
21
49.2932187
0
LINE
8
DEFAULT_255_2_778
10
23.3742773
20
49.2932187
11
23.3615773
21
49.3329187
0
LINE
8
DEFAULT_255_2_778
10
23.3615773
20
49.3329187
11
23.3324773
21
49.4052187
0
LINE
8
DEFAULT_255_2_778
10
23.3324773
20
49.4052187
11
23.2964773
21
49.4742187
0
LINE
8
DEFAULT_255_2_778
10
23.2964773
20
49.4742187
11
23.2538773
21
49.5390187
0
LINE
8
DEFAULT_255_2_778
10
23.2538773
20
49.5390187
11
23.2030773
21
49.6007187
0
LINE
8
DEFAULT_255_2_778
10
23.2030773
20
49.6007187
11
23.1440773
21
49.6584187
0
LINE
8
DEFAULT_255_2_778
10
23.1440773
20
49.6584187
11
23.0456773
21
49.7340187
0
LINE
8
DEFAULT_255_2_778
10
23.0456773
20
49.7340187
11
22.9729773
21
49.7788187
0
LINE
8
DEFAULT_255_2_778
10
11.6934773
20
49.8941187
11
12.4033773
21
49.8941187
0
LINE
8
DEFAULT_255_2_778
10
12.4033773
20
49.8941187
11
12.4033773
21
46.6942187
0
LINE
8
DEFAULT_255_2_778
10
12.4033773
20
46.6942187
11
11.9657773
21
46.6942187
0
LINE
8
DEFAULT_255_2_778
10
11.9657773
20
46.6942187
11
11.9657773
21
49.5631187
0
LINE
8
DEFAULT_255_2_778
10
11.9657773
20
49.5631187
11
10.9383773
21
46.6942187
0
LINE
8
DEFAULT_255_2_778
10
10.9383773
20
46.6942187
11
10.4983773
21
46.6942187
0
LINE
8
DEFAULT_255_2_778
10
10.4983773
20
46.6942187
11
9.4436773
21
49.5586187
0
LINE
8
DEFAULT_255_2_778
10
9.4436773
20
49.5586187
11
9.4436773
21
46.6942187
0
LINE
8
DEFAULT_255_2_778
10
9.4436773
20
46.6942187
11
9.0060773
21
46.6942187
0
LINE
8
DEFAULT_255_2_778
10
9.0060773
20
46.6942187
11
9.0060773
21
49.8941187
0
LINE
8
DEFAULT_255_2_778
10
9.0060773
20
49.8941187
11
9.7159773
21
49.8941187
0
LINE
8
DEFAULT_255_2_778
10
9.7159773
20
49.8941187
11
10.7205773
21
47.2157187
0
LINE
8
DEFAULT_255_2_778
10
10.7205773
20
47.2157187
11
11.6934773
21
49.8941187
0
LINE
8
DEFAULT_255_2_778
10
7.7564773
20
49.8941187
11
8.1940773
21
49.8941187
0
LINE
8
DEFAULT_255_2_778
10
8.1940773
20
49.8941187
11
8.1940773
21
46.6942187
0
LINE
8
DEFAULT_255_2_778
10
8.1940773
20
46.6942187
11
7.7564773
21
46.6942187
0
LINE
8
DEFAULT_255_2_778
10
7.7564773
20
46.6942187
11
7.7564773
21
49.8941187
0
LINE
8
DEFAULT_255_2_778
10
14.2744773
20
49.8941187
11
14.7552773
21
49.8941187
0
LINE
8
DEFAULT_255_2_778
10
14.7552773
20
49.8941187
11
16.0683773
21
46.6942187
0
LINE
8
DEFAULT_255_2_778
10
16.0683773
20
46.6942187
11
15.5920773
21
46.6942187
0
LINE
8
DEFAULT_255_2_778
10
15.5920773
20
46.6942187
11
15.2700773
21
47.5287187
0
LINE
8
DEFAULT_255_2_778
10
15.2700773
20
47.5287187
11
13.7640773
21
47.5287187
0
LINE
8
DEFAULT_255_2_778
10
13.7640773
20
47.5287187
11
13.4465773
21
46.6942187
0
LINE
8
DEFAULT_255_2_778
10
13.4465773
20
46.6942187
11
12.9613773
21
46.6942187
0
LINE
8
DEFAULT_255_2_778
10
12.9613773
20
46.6942187
11
14.2744773
21
49.8941187
0
LINE
8
DEFAULT_255_2_778
10
13.9048773
20
47.8915187
11
15.1317773
21
47.8915187
0
LINE
8
DEFAULT_255_2_778
10
15.1317773
20
47.8915187
11
14.5170773
21
49.4814187
0
LINE
8
DEFAULT_255_2_778
10
14.5170773
20
49.4814187
11
13.9048773
21
47.8915187
0
LINE
8
DEFAULT_255_2_778
10
9.372671
20
16.7314864
11
9.123171
21
16.7314864
0
LINE
8
DEFAULT_255_2_778
10
9.123171
20
16.7314864
11
8.858271
21
16.5242864
0
LINE
8
DEFAULT_255_2_778
10
8.858271
20
16.5242864
11
8.596071
21
16.3929864
0
LINE
8
DEFAULT_255_2_778
10
8.596071
20
16.3929864
11
8.596071
21
16.1186864
0
LINE
8
DEFAULT_255_2_778
10
8.596071
20
16.1186864
11
8.972871
21
16.3104864
0
LINE
8
DEFAULT_255_2_778
10
8.972871
20
16.3104864
11
9.077871
21
16.3914864
0
LINE
8
DEFAULT_255_2_778
10
9.077871
20
16.3914864
11
9.077871
21
14.5438864
0
LINE
8
DEFAULT_255_2_778
10
9.077871
20
14.5438864
11
9.372671
21
14.5438864
0
LINE
8
DEFAULT_255_2_778
10
9.372671
20
14.5438864
11
9.372671
21
16.7314864
0
LINE
8
DEFAULT_255_2_778
10
10.464071
20
16.7314864
11
11.737971
21
16.7314864
0
LINE
8
DEFAULT_255_2_778
10
11.737971
20
16.7314864
11
11.737971
21
16.4911864
0
LINE
8
DEFAULT_255_2_778
10
11.737971
20
16.4911864
11
10.740271
21
16.4911864
0
LINE
8
DEFAULT_255_2_778
10
10.740271
20
16.4911864
11
10.723071
21
15.7833864
0
LINE
8
DEFAULT_255_2_778
10
10.723071
20
15.7833864
11
10.854271
21
15.9029864
0
LINE
8
DEFAULT_255_2_778
10
10.854271
20
15.9029864
11
10.981071
21
15.9675864
0
LINE
8
DEFAULT_255_2_778
10
10.981071
20
15.9675864
11
11.170771
21
16.0024864
0
LINE
8
DEFAULT_255_2_778
10
11.170771
20
16.0024864
11
11.367871
21
15.9881864
0
LINE
8
DEFAULT_255_2_778
10
11.367871
20
15.9881864
11
11.522671
21
15.9326864
0
LINE
8
DEFAULT_255_2_778
10
11.522671
20
15.9326864
11
11.638771
21
15.8487864
0
LINE
8
DEFAULT_255_2_778
10
11.638771
20
15.8487864
11
11.710471
21
15.7667864
0
LINE
8
DEFAULT_255_2_778
10
11.710471
20
15.7667864
11
11.768971
21
15.6688864
0
LINE
8
DEFAULT_255_2_778
10
11.768971
20
15.6688864
11
11.801271
21
15.5915864
0
LINE
8
DEFAULT_255_2_778
10
11.801271
20
15.5915864
11
11.821371
21
15.5259864
0
LINE
8
DEFAULT_255_2_778
10
11.821371
20
15.5259864
11
11.836171
21
15.4590864
0
LINE
8
DEFAULT_255_2_778
10
11.836171
20
15.4590864
11
11.841771
21
15.4256864
0
LINE
8
DEFAULT_255_2_778
10
11.841771
20
15.4256864
11
11.846271
21
15.3920864
0
LINE
8
DEFAULT_255_2_778
10
11.846271
20
15.3920864
11
11.845671
21
15.1216864
0
LINE
8
DEFAULT_255_2_778
10
11.845671
20
15.1216864
11
11.837771
21
15.0682864
0
LINE
8
DEFAULT_255_2_778
10
11.837771
20
15.0682864
11
11.827171
21
15.0179864
0
LINE
8
DEFAULT_255_2_778
10
11.827171
20
15.0179864
11
11.814171
21
14.9708864
0
LINE
8
DEFAULT_255_2_778
10
11.814171
20
14.9708864
11
11.789371
21
14.9020864
0
LINE
8
DEFAULT_255_2_778
10
11.789371
20
14.9020864
11
11.758171
21
14.8369864
0
LINE
8
DEFAULT_255_2_778
10
11.758171
20
14.8369864
11
11.707871
21
14.7584864
0
LINE
8
DEFAULT_255_2_778
10
11.707871
20
14.7584864
11
11.633471
21
14.6750864
0
LINE
8
DEFAULT_255_2_778
10
11.633471
20
14.6750864
11
11.515771
21
14.5877864
0
LINE
8
DEFAULT_255_2_778
10
11.515771
20
14.5877864
11
11.382671
21
14.5303864
0
LINE
8
DEFAULT_255_2_778
10
11.382671
20
14.5303864
11
11.203871
21
14.4969864
0
LINE
8
DEFAULT_255_2_778
10
11.203871
20
14.4969864
11
10.990571
21
14.5028864
0
LINE
8
DEFAULT_255_2_778
10
10.990571
20
14.5028864
11
10.819671
21
14.5459864
0
LINE
8
DEFAULT_255_2_778
10
10.819671
20
14.5459864
11
10.690571
21
14.6118864
0
LINE
8
DEFAULT_255_2_778
10
10.690571
20
14.6118864
11
10.584471
21
14.6975864
0
LINE
8
DEFAULT_255_2_778
10
10.584471
20
14.6975864
11
10.514571
21
14.7793864
0
LINE
8
DEFAULT_255_2_778
10
10.514571
20
14.7793864
11
10.470171
21
14.8523864
0
LINE
8
DEFAULT_255_2_778
10
10.470171
20
14.8523864
11
10.435771
21
14.9309864
0
LINE
8
DEFAULT_255_2_778
10
10.435771
20
14.9309864
11
10.415371
21
14.9967864
0
LINE
8
DEFAULT_255_2_778
10
10.415371
20
14.9967864
11
10.405271
21
15.0417864
0
LINE
8
DEFAULT_255_2_778
10
10.405271
20
15.0417864
11
10.398171
21
15.0870864
0
LINE
8
DEFAULT_255_2_778
10
10.398171
20
15.0870864
11
10.395571
21
15.1097864
0
LINE
8
DEFAULT_255_2_778
10
10.395571
20
15.1097864
11
10.696371
21
15.1097864
0
LINE
8
DEFAULT_255_2_778
10
10.696371
20
15.1097864
11
10.702471
21
15.0719864
0
LINE
8
DEFAULT_255_2_778
10
10.702471
20
15.0719864
11
10.716471
21
15.0221864
0
LINE
8
DEFAULT_255_2_778
10
10.716471
20
15.0221864
11
10.748771
21
14.9504864
0
LINE
8
DEFAULT_255_2_778
10
10.748771
20
14.9504864
11
10.818371
21
14.8576864
0
LINE
8
DEFAULT_255_2_778
10
10.818371
20
14.8576864
11
10.919671
21
14.7840864
0
LINE
8
DEFAULT_255_2_778
10
10.919671
20
14.7840864
11
11.123671
21
14.7433864
0
LINE
8
DEFAULT_255_2_778
10
11.123671
20
14.7433864
11
11.299571
21
14.7774864
0
LINE
8
DEFAULT_255_2_778
10
11.299571
20
14.7774864
11
11.409671
21
14.8536864
0
LINE
8
DEFAULT_255_2_778
10
11.409671
20
14.8536864
11
11.473971
21
14.9375864
0
LINE
8
DEFAULT_255_2_778
10
11.473971
20
14.9375864
11
11.512571
21
15.0174864
0
LINE
8
DEFAULT_255_2_778
10
11.512571
20
15.0174864
11
11.531371
21
15.0766864
0
LINE
8
DEFAULT_255_2_778
10
11.531371
20
15.0766864
11
11.541171
21
15.1224864
0
LINE
8
DEFAULT_255_2_778
10
11.541171
20
15.1224864
11
11.547771
21
15.1677864
0
LINE
8
DEFAULT_255_2_778
10
11.547771
20
15.1677864
11
11.546971
21
15.3563864
0
LINE
8
DEFAULT_255_2_778
10
11.546971
20
15.3563864
11
11.541171
21
15.3949864
0
LINE
8
DEFAULT_255_2_778
10
11.541171
20
15.3949864
11
11.527171
21
15.4550864
0
LINE
8
DEFAULT_255_2_778
10
11.527171
20
15.4550864
11
11.500671
21
15.5262864
0
LINE
8
DEFAULT_255_2_778
10
11.500671
20
15.5262864
11
11.448571
21
15.6132864
0
LINE
8
DEFAULT_255_2_778
10
11.448571
20
15.6132864
11
11.372871
21
15.6902864
0
LINE
8
DEFAULT_255_2_778
10
11.372871
20
15.6902864
11
11.253871
21
15.7492864
0
LINE
8
DEFAULT_255_2_778
10
11.253871
20
15.7492864
11
11.075771
21
15.7640864
0
LINE
8
DEFAULT_255_2_778
10
11.075771
20
15.7640864
11
10.919371
21
15.7175864
0
LINE
8
DEFAULT_255_2_778
10
10.919371
20
15.7175864
11
10.819871
21
15.6373864
0
LINE
8
DEFAULT_255_2_778
10
10.819871
20
15.6373864
11
10.777071
21
15.5733864
0
LINE
8
DEFAULT_255_2_778
10
10.777071
20
15.5733864
11
10.757171
21
15.5251864
0
LINE
8
DEFAULT_255_2_778
10
10.757171
20
15.5251864
11
10.746671
21
15.4854864
0
LINE
8
DEFAULT_255_2_778
10
10.746671
20
15.4854864
11
10.742171
21
15.4584864
0
LINE
8
DEFAULT_255_2_778
10
10.742171
20
15.4584864
11
10.740571
21
15.4449864
0
LINE
8
DEFAULT_255_2_778
10
10.740571
20
15.4449864
11
10.445571
21
15.4449864
0
LINE
8
DEFAULT_255_2_778
10
10.445571
20
15.4449864
11
10.464271
21
16.7314864
0
LINE
8
DEFAULT_255_2_778
10
14.265271
20
15.4748864
11
15.023071
21
15.4748864
0
LINE
8
DEFAULT_255_2_778
10
15.023071
20
15.4748864
11
15.023071
21
15.2674864
0
LINE
8
DEFAULT_255_2_778
10
15.023071
20
15.2674864
11
14.265271
21
15.2674864
0
LINE
8
DEFAULT_255_2_778
10
14.265271
20
15.2674864
11
14.265271
21
15.4748864
0
LINE
8
DEFAULT_255_2_778
10
13.122271
20
14.7435864
11
12.912471
21
14.7885864
0
LINE
8
DEFAULT_255_2_778
10
12.912471
20
14.7885864
11
12.767271
21
14.8978864
0
LINE
8
DEFAULT_255_2_778
10
12.767271
20
14.8978864
11
12.691071
21
15.0086864
0
LINE
8
DEFAULT_255_2_778
10
12.691071
20
15.0086864
11
12.651371
21
15.1058864
0
LINE
8
DEFAULT_255_2_778
10
12.651371
20
15.1058864
11
12.640471
21
15.1441864
0
LINE
8
DEFAULT_255_2_778
10
12.640471
20
15.1441864
11
12.339671
21
15.1441864
0
LINE
8
DEFAULT_255_2_778
10
12.339671
20
15.1441864
11
12.348171
21
15.0968864
0
LINE
8
DEFAULT_255_2_778
10
12.348171
20
15.0968864
11
12.359271
21
15.0499864
0
LINE
8
DEFAULT_255_2_778
10
12.359271
20
15.0499864
11
12.380971
21
14.9809864
0
LINE
8
DEFAULT_255_2_778
10
12.380971
20
14.9809864
11
12.417471
21
14.8965864
0
LINE
8
DEFAULT_255_2_778
10
12.417471
20
14.8965864
11
12.463271
21
14.8187864
0
LINE
8
DEFAULT_255_2_778
10
12.463271
20
14.8187864
11
12.534171
21
14.7311864
0
LINE
8
DEFAULT_255_2_778
10
12.534171
20
14.7311864
11
12.620671
21
14.6536864
0
LINE
8
DEFAULT_255_2_778
10
12.620671
20
14.6536864
11
12.752971
21
14.5724864
0
LINE
8
DEFAULT_255_2_778
10
12.752971
20
14.5724864
11
12.900571
21
14.5197864
0
LINE
8
DEFAULT_255_2_778
10
12.900571
20
14.5197864
11
13.091671
21
14.4948864
0
LINE
8
DEFAULT_255_2_778
10
13.091671
20
14.4948864
11
13.300071
21
14.5070864
0
LINE
8
DEFAULT_255_2_778
10
13.300071
20
14.5070864
11
13.487171
21
14.5549864
0
LINE
8
DEFAULT_255_2_778
10
13.487171
20
14.5549864
11
13.630271
21
14.6274864
0
LINE
8
DEFAULT_255_2_778
10
13.630271
20
14.6274864
11
13.729771
21
14.7081864
0
LINE
8
DEFAULT_255_2_778
10
13.729771
20
14.7081864
11
13.796771
21
14.7883864
0
LINE
8
DEFAULT_255_2_778
10
13.796771
20
14.7883864
11
13.837971
21
14.8600864
0
LINE
8
DEFAULT_255_2_778
10
13.837971
20
14.8600864
11
13.862071
21
14.9174864
0
LINE
8
DEFAULT_255_2_778
10
13.862071
20
14.9174864
11
13.880571
21
14.9785864
0
LINE
8
DEFAULT_255_2_778
10
13.880571
20
14.9785864
11
13.889871
21
15.0227864
0
LINE
8
DEFAULT_255_2_778
10
13.889871
20
15.0227864
11
13.896271
21
15.0674864
0
LINE
8
DEFAULT_255_2_778
10
13.896271
20
15.0674864
11
13.894071
21
15.2547864
0
LINE
8
DEFAULT_255_2_778
10
13.894071
20
15.2547864
11
13.883571
21
15.3105864
0
LINE
8
DEFAULT_255_2_778
10
13.883571
20
15.3105864
11
13.859671
21
15.3825864
0
LINE
8
DEFAULT_255_2_778
10
13.859671
20
15.3825864
11
13.794371
21
15.4891864
0
LINE
8
DEFAULT_255_2_778
10
13.794371
20
15.4891864
11
13.635871
21
15.6180864
0
LINE
8
DEFAULT_255_2_778
10
13.635871
20
15.6180864
11
13.492471
21
15.6698864
0
LINE
8
DEFAULT_255_2_778
10
13.492471
20
15.6698864
11
13.636671
21
15.7537864
0
LINE
8
DEFAULT_255_2_778
10
13.636671
20
15.7537864
11
13.727171
21
15.8381864
0
LINE
8
DEFAULT_255_2_778
10
13.727171
20
15.8381864
11
13.775571
21
15.9037864
0
LINE
8
DEFAULT_255_2_778
10
13.775571
20
15.9037864
11
13.812071
21
15.9744864
0
LINE
8
DEFAULT_255_2_778
10
13.812071
20
15.9744864
11
13.831971
21
16.0305864
0
LINE
8
DEFAULT_255_2_778
10
13.831971
20
16.0305864
11
13.841971
21
16.0712864
0
LINE
8
DEFAULT_255_2_778
10
13.841971
20
16.0712864
11
13.848871
21
16.1128864
0
LINE
8
DEFAULT_255_2_778
10
13.848871
20
16.1128864
11
13.846771
21
16.2953864
0
LINE
8
DEFAULT_255_2_778
10
13.846771
20
16.2953864
11
13.839071
21
16.3339864
0
LINE
8
DEFAULT_255_2_778
10
13.839071
20
16.3339864
11
13.822671
21
16.3895864
0
LINE
8
DEFAULT_255_2_778
10
13.822671
20
16.3895864
11
13.792271
21
16.4572864
0
LINE
8
DEFAULT_255_2_778
10
13.792271
20
16.4572864
11
13.752071
21
16.5197864
0
LINE
8
DEFAULT_255_2_778
10
13.752071
20
16.5197864
11
13.671371
21
16.6041864
0
LINE
8
DEFAULT_255_2_778
10
13.671371
20
16.6041864
11
13.545171
21
16.6872864
0
LINE
8
DEFAULT_255_2_778
10
13.545171
20
16.6872864
11
13.387971
21
16.7462864
0
LINE
8
DEFAULT_255_2_778
10
13.387971
20
16.7462864
11
13.181571
21
16.7758864
0
LINE
8
DEFAULT_255_2_778
10
13.181571
20
16.7758864
11
12.960371
21
16.7655864
0
LINE
8
DEFAULT_255_2_778
10
12.960371
20
16.7655864
11
12.787571
21
16.7224864
0
LINE
8
DEFAULT_255_2_778
10
12.787571
20
16.7224864
11
12.583371
21
16.6025864
0
LINE
8
DEFAULT_255_2_778
10
12.583371
20
16.6025864
11
12.481271
21
16.4824864
0
LINE
8
DEFAULT_255_2_778
10
12.481271
20
16.4824864
11
12.433571
21
16.3789864
0
LINE
8
DEFAULT_255_2_778
10
12.433571
20
16.3789864
11
12.414571
21
16.3083864
0
LINE
8
DEFAULT_255_2_778
10
12.414571
20
16.3083864
11
12.406571
21
16.2588864
0
LINE
8
DEFAULT_255_2_778
10
12.406571
20
16.2588864
11
12.404271
21
16.2339864
0
LINE
8
DEFAULT_255_2_778
10
12.404271
20
16.2339864
11
12.402371
21
16.1720864
0
LINE
8
DEFAULT_255_2_778
10
12.402371
20
16.1720864
11
12.687571
21
16.1720864
0
LINE
8
DEFAULT_255_2_778
10
12.687571
20
16.1720864
11
12.689971
21
16.2212864
0
LINE
8
DEFAULT_255_2_778
10
12.689971
20
16.2212864
11
12.696371
21
16.2577864
0
LINE
8
DEFAULT_255_2_778
10
12.696371
20
16.2577864
11
12.710071
21
16.3035864
0
LINE
8
DEFAULT_255_2_778
10
12.710071
20
16.3035864
11
12.741071
21
16.3649864
0
LINE
8
DEFAULT_255_2_778
10
12.741071
20
16.3649864
11
12.821971
21
16.4496864
0
LINE
8
DEFAULT_255_2_778
10
12.821971
20
16.4496864
11
12.951371
21
16.5155864
0
LINE
8
DEFAULT_255_2_778
10
12.951371
20
16.5155864
11
13.158271
21
16.5393864
0
LINE
8
DEFAULT_255_2_778
10
13.158271
20
16.5393864
11
13.329471
21
16.5054864
0
LINE
8
DEFAULT_255_2_778
10
13.329471
20
16.5054864
11
13.456971
21
16.4271864
0
LINE
8
DEFAULT_255_2_778
10
13.456971
20
16.4271864
11
13.515271
21
16.3554864
0
LINE
8
DEFAULT_255_2_778
10
13.515271
20
16.3554864
11
13.543271
21
16.2921864
0
LINE
8
DEFAULT_255_2_778
10
13.543271
20
16.2921864
11
13.555171
21
16.2443864
0
LINE
8
DEFAULT_255_2_778
10
13.555171
20
16.2443864
11
13.553071
21
16.0942864
0
LINE
8
DEFAULT_255_2_778
10
13.553071
20
16.0942864
11
13.535871
21
16.0411864
0
LINE
8
DEFAULT_255_2_778
10
13.535871
20
16.0411864
11
13.486871
21
15.9630864
0
LINE
8
DEFAULT_255_2_778
10
13.486871
20
15.9630864
11
13.350671
21
15.8582864
0
LINE
8
DEFAULT_255_2_778
10
13.350671
20
15.8582864
11
13.115971
21
15.7934864
0
LINE
8
DEFAULT_255_2_778
10
13.115971
20
15.7934864
11
12.963871
21
15.7916864
0
LINE
8
DEFAULT_255_2_778
10
12.963871
20
15.7916864
11
12.963871
21
15.5452864
0
LINE
8
DEFAULT_255_2_778
10
12.963871
20
15.5452864
11
13.280771
21
15.5241864
0
LINE
8
DEFAULT_255_2_778
10
13.280771
20
15.5241864
11
13.473371
21
15.4410864
0
LINE
8
DEFAULT_255_2_778
10
13.473371
20
15.4410864
11
13.549871
21
15.3661864
0
LINE
8
DEFAULT_255_2_778
10
13.549871
20
15.3661864
11
13.582671
21
15.3071864
0
LINE
8
DEFAULT_255_2_778
10
13.582671
20
15.3071864
11
13.596671
21
15.2626864
0
LINE
8
DEFAULT_255_2_778
10
13.596671
20
15.2626864
11
13.602771
21
15.2277864
0
LINE
8
DEFAULT_255_2_778
10
13.602771
20
15.2277864
11
13.601771
21
15.1079864
0
LINE
8
DEFAULT_255_2_778
10
13.601771
20
15.1079864
11
13.593771
21
15.0653864
0
LINE
8
DEFAULT_255_2_778
10
13.593771
20
15.0653864
11
13.578171
21
15.0134864
0
LINE
8
DEFAULT_255_2_778
10
13.578171
20
15.0134864
11
13.550171
21
14.9539864
0
LINE
8
DEFAULT_255_2_778
10
13.550171
20
14.9539864
11
13.484771
21
14.8719864
0
LINE
8
DEFAULT_255_2_778
10
13.484771
20
14.8719864
11
13.368871
21
14.7927864
0
LINE
8
DEFAULT_255_2_778
10
13.368871
20
14.7927864
11
13.188771
21
14.7462864
0
LINE
8
DEFAULT_255_2_778
10
13.188771
20
14.7462864
11
13.122271
21
14.7435864
0
LINE
8
DEFAULT_255_2_778
10
7.347271
20
16.7441864
11
7.835171
21
16.7441864
0
LINE
8
DEFAULT_255_2_778
10
7.835171
20
16.7441864
11
7.835171
21
14.5440864
0
LINE
8
DEFAULT_255_2_778
10
7.835171
20
14.5440864
11
7.534271
21
14.5440864
0
LINE
8
DEFAULT_255_2_778
10
7.534271
20
14.5440864
11
7.534271
21
16.5165864
0
LINE
8
DEFAULT_255_2_778
10
7.534271
20
16.5165864
11
6.827871
21
14.5440864
0
LINE
8
DEFAULT_255_2_778
10
6.827871
20
14.5440864
11
6.525471
21
14.5440864
0
LINE
8
DEFAULT_255_2_778
10
6.525471
20
14.5440864
11
5.800471
21
16.5133864
0
LINE
8
DEFAULT_255_2_778
10
5.800471
20
16.5133864
11
5.800471
21
14.5440864
0
LINE
8
DEFAULT_255_2_778
10
5.800471
20
14.5440864
11
5.499671
21
14.5440864
0
LINE
8
DEFAULT_255_2_778
10
5.499671
20
14.5440864
11
5.499671
21
16.7441864
0
LINE
8
DEFAULT_255_2_778
10
5.499671
20
16.7441864
11
5.987571
21
16.7441864
0
LINE
8
DEFAULT_255_2_778
10
5.987571
20
16.7441864
11
6.678371
21
14.9026864
0
LINE
8
DEFAULT_255_2_778
10
6.678371
20
14.9026864
11
7.347271
21
16.7441864
0
LINE
8
DEFAULT_255_2_778
10
4.640571
20
16.7441864
11
4.941371
21
16.7441864
0
LINE
8
DEFAULT_255_2_778
10
4.941371
20
16.7441864
11
4.941371
21
14.5440864
0
LINE
8
DEFAULT_255_2_778
10
4.941371
20
14.5440864
11
4.640571
21
14.5440864
0
LINE
8
DEFAULT_255_2_778
10
4.640571
20
14.5440864
11
4.640571
21
16.7441864
0
LINE
8
DEFAULT_255_2_778
10
16.298371
20
16.7441864
11
16.646071
21
16.7441864
0
LINE
8
DEFAULT_255_2_778
10
16.646071
20
16.7441864
11
16.646071
21
15.3346864
0
LINE
8
DEFAULT_255_2_778
10
16.646071
20
15.3346864
11
17.062271
21
15.3346864
0
LINE
8
DEFAULT_255_2_778
10
17.062271
20
15.3346864
11
17.062271
21
15.0944864
0
LINE
8
DEFAULT_255_2_778
10
17.062271
20
15.0944864
11
16.646071
21
15.0944864
0
LINE
8
DEFAULT_255_2_778
10
16.646071
20
15.0944864
11
16.646071
21
14.5440864
0
LINE
8
DEFAULT_255_2_778
10
16.646071
20
14.5440864
11
16.351271
21
14.5440864
0
LINE
8
DEFAULT_255_2_778
10
16.351271
20
14.5440864
11
16.351271
21
15.0944864
0
LINE
8
DEFAULT_255_2_778
10
16.351271
20
15.0944864
11
15.328371
21
15.0944864
0
LINE
8
DEFAULT_255_2_778
10
15.328371
20
15.0944864
11
15.328371
21
15.3595864
0
LINE
8
DEFAULT_255_2_778
10
15.328371
20
15.3595864
11
16.298071
21
16.7441864
0
LINE
8
DEFAULT_255_2_778
10
15.5857982
20
15.3347228
11
16.3511982
21
15.3347228
0
LINE
8
DEFAULT_255_2_778
10
16.3511982
20
15.3347228
11
16.3511982
21
16.4309228
0
LINE
8
DEFAULT_255_2_778
10
16.3511982
20
16.4309228
11
15.5857982
21
15.3347228
0
LINE
8
DEFAULT_255_2_778
10
22.9250982
20
13.7441228
11
23.2242982
21
13.7441228
0
LINE
8
DEFAULT_255_2_778
10
23.2242982
20
13.7441228
11
23.2229982
21
12.3090228
0
LINE
8
DEFAULT_255_2_778
10
23.2229982
20
12.3090228
11
23.2210982
21
12.2767228
0
LINE
8
DEFAULT_255_2_778
10
23.2210982
20
12.2767228
11
23.2184982
21
12.2444228
0
LINE
8
DEFAULT_255_2_778
10
23.2184982
20
12.2444228
11
23.2149982
21
12.2124228
0
LINE
8
DEFAULT_255_2_778
10
23.2149982
20
12.2124228
11
23.2104982
21
12.1804228
0
LINE
8
DEFAULT_255_2_778
10
23.2104982
20
12.1804228
11
23.2052982
21
12.1486228
0
LINE
8
DEFAULT_255_2_778
10
23.2052982
20
12.1486228
11
23.1925982
21
12.0891228
0
LINE
8
DEFAULT_255_2_778
10
23.1925982
20
12.0891228
11
23.1771982
21
12.0341228
0
LINE
8
DEFAULT_255_2_778
10
23.1771982
20
12.0341228
11
23.1583982
21
11.9801228
0
LINE
8
DEFAULT_255_2_778
10
23.1583982
20
11.9801228
11
23.1229982
21
11.9021228
0
LINE
8
DEFAULT_255_2_778
10
23.1229982
20
11.9021228
11
23.0729982
21
11.8203228
0
LINE
8
DEFAULT_255_2_778
10
23.0729982
20
11.8203228
11
22.9959982
21
11.7287228
0
LINE
8
DEFAULT_255_2_778
10
22.9959982
20
11.7287228
11
22.8845982
21
11.6382228
0
LINE
8
DEFAULT_255_2_778
10
22.8845982
20
11.6382228
11
22.7710982
21
11.5774228
0
LINE
8
DEFAULT_255_2_778
10
22.7710982
20
11.5774228
11
22.6077982
21
11.5258228
0
LINE
8
DEFAULT_255_2_778
10
22.6077982
20
11.5258228
11
22.3834982
21
11.5007228
0
LINE
8
DEFAULT_255_2_778
10
22.3834982
20
11.5007228
11
22.1579982
21
11.5141228
0
LINE
8
DEFAULT_255_2_778
10
22.1579982
20
11.5141228
11
21.9844982
21
11.5567228
0
LINE
8
DEFAULT_255_2_778
10
21.9844982
20
11.5567228
11
21.8378982
21
11.6255228
0
LINE
8
DEFAULT_255_2_778
10
21.8378982
20
11.6255228
11
21.7235982
21
11.7123228
0
LINE
8
DEFAULT_255_2_778
10
21.7235982
20
11.7123228
11
21.6433982
21
11.8012228
0
LINE
8
DEFAULT_255_2_778
10
21.6433982
20
11.8012228
11
21.5907982
21
11.8811228
0
LINE
8
DEFAULT_255_2_778
10
21.5907982
20
11.8811228
11
21.5547982
21
11.9536228
0
LINE
8
DEFAULT_255_2_778
10
21.5547982
20
11.9536228
11
21.5340982
21
12.0068228
0
LINE
8
DEFAULT_255_2_778
10
21.5340982
20
12.0068228
11
21.5168982
21
12.0613228
0
LINE
8
DEFAULT_255_2_778
10
21.5168982
20
12.0613228
11
21.5031982
21
12.1169228
0
LINE
8
DEFAULT_255_2_778
10
21.5031982
20
12.1169228
11
21.4967982
21
12.1486228
0
LINE
8
DEFAULT_255_2_778
10
21.4967982
20
12.1486228
11
21.4914982
21
12.1804228
0
LINE
8
DEFAULT_255_2_778
10
21.4914982
20
12.1804228
11
21.4869982
21
12.2124228
0
LINE
8
DEFAULT_255_2_778
10
21.4869982
20
12.2124228
11
21.4835982
21
12.2444228
0
LINE
8
DEFAULT_255_2_778
10
21.4835982
20
12.2444228
11
21.4809982
21
12.2767228
0
LINE
8
DEFAULT_255_2_778
10
21.4809982
20
12.2767228
11
21.4790982
21
12.3090228
0
LINE
8
DEFAULT_255_2_778
10
21.4790982
20
12.3090228
11
21.4777982
21
13.7441228
0
LINE
8
DEFAULT_255_2_778
10
21.4777982
20
13.7441228
11
21.7785982
21
13.7441228
0
LINE
8
DEFAULT_255_2_778
10
21.7785982
20
13.7441228
11
21.7809982
21
12.3574228
0
LINE
8
DEFAULT_255_2_778
10
21.7809982
20
12.3574228
11
21.7830982
21
12.3301228
0
LINE
8
DEFAULT_255_2_778
10
21.7830982
20
12.3301228
11
21.7857982
21
12.3031228
0
LINE
8
DEFAULT_255_2_778
10
21.7857982
20
12.3031228
11
21.7891982
21
12.2761228
0
LINE
8
DEFAULT_255_2_778
10
21.7891982
20
12.2761228
11
21.7968982
21
12.2285228
0
LINE
8
DEFAULT_255_2_778
10
21.7968982
20
12.2285228
11
21.8108982
21
12.1671228
0
LINE
8
DEFAULT_255_2_778
10
21.8108982
20
12.1671228
11
21.8296982
21
12.1071228
0
LINE
8
DEFAULT_255_2_778
10
21.8296982
20
12.1071228
11
21.8603982
21
12.0354228
0
LINE
8
DEFAULT_255_2_778
10
21.8603982
20
12.0354228
11
21.9195982
21
11.9409228
0
LINE
8
DEFAULT_255_2_778
10
21.9195982
20
11.9409228
11
21.9989982
21
11.8597228
0
LINE
8
DEFAULT_255_2_778
10
21.9989982
20
11.8597228
11
22.1259982
21
11.7875228
0
LINE
8
DEFAULT_255_2_778
10
22.1259982
20
11.7875228
11
22.2918982
21
11.7517228
0
LINE
8
DEFAULT_255_2_778
10
22.2918982
20
11.7517228
11
22.4940982
21
11.7626228
0
LINE
8
DEFAULT_255_2_778
10
22.4940982
20
11.7626228
11
22.6395982
21
11.8145228
0
LINE
8
DEFAULT_255_2_778
10
22.6395982
20
11.8145228
11
22.7429982
21
11.8920228
0
LINE
8
DEFAULT_255_2_778
10
22.7429982
20
11.8920228
11
22.8062982
21
11.9690228
0
LINE
8
DEFAULT_255_2_778
10
22.8062982
20
11.9690228
11
22.8525982
21
12.0515228
0
LINE
8
DEFAULT_255_2_778
10
22.8525982
20
12.0515228
11
22.8813982
21
12.1259228
0
LINE
8
DEFAULT_255_2_778
10
22.8813982
20
12.1259228
11
22.8982982
21
12.1865228
0
LINE
8
DEFAULT_255_2_778
10
22.8982982
20
12.1865228
11
22.9104982
21
12.2481228
0
LINE
8
DEFAULT_255_2_778
10
22.9104982
20
12.2481228
11
22.9144982
21
12.2751228
0
LINE
8
DEFAULT_255_2_778
10
22.9144982
20
12.2751228
11
22.9178982
21
12.3021228
0
LINE
8
DEFAULT_255_2_778
10
22.9178982
20
12.3021228
11
22.9205982
21
12.3293228
0
LINE
8
DEFAULT_255_2_778
10
22.9205982
20
12.3293228
11
22.9223982
21
12.3566228
0
LINE
8
DEFAULT_255_2_778
10
22.9223982
20
12.3566228
11
22.9247982
21
13.7435228
0
LINE
8
DEFAULT_255_2_778
10
11.6101982
20
13.7441228
11
11.9109982
21
13.7441228
0
LINE
8
DEFAULT_255_2_778
10
11.9109982
20
13.7441228
11
11.9109982
21
11.5440228
0
LINE
8
DEFAULT_255_2_778
10
11.9109982
20
11.5440228
11
11.6101982
21
11.5440228
0
LINE
8
DEFAULT_255_2_778
10
11.6101982
20
11.5440228
11
11.6101982
21
12.5481228
0
LINE
8
DEFAULT_255_2_778
10
11.6101982
20
12.5481228
11
10.4766982
21
12.5481228
0
LINE
8
DEFAULT_255_2_778
10
10.4766982
20
12.5481228
11
10.4766982
21
11.5440228
0
LINE
8
DEFAULT_255_2_778
10
10.4766982
20
11.5440228
11
10.1755982
21
11.5440228
0
LINE
8
DEFAULT_255_2_778
10
10.1755982
20
11.5440228
11
10.1755982
21
13.7441228
0
LINE
8
DEFAULT_255_2_778
10
10.1755982
20
13.7441228
11
10.4763982
21
13.7441228
0
LINE
8
DEFAULT_255_2_778
10
10.4763982
20
13.7441228
11
10.4763982
21
12.8040228
0
LINE
8
DEFAULT_255_2_778
10
10.4763982
20
12.8040228
11
11.6098982
21
12.8040228
0
LINE
8
DEFAULT_255_2_778
10
11.6098982
20
12.8040228
11
11.6098982
21
13.7441228
0
LINE
8
DEFAULT_255_2_778
10
6.9510982
20
13.7441228
11
7.2518982
21
13.7441228
0
LINE
8
DEFAULT_255_2_778
10
7.2518982
20
13.7441228
11
7.2518982
21
11.5440228
0
LINE
8
DEFAULT_255_2_778
10
7.2518982
20
11.5440228
11
6.9510982
21
11.5440228
0
LINE
8
DEFAULT_255_2_778
10
6.9510982
20
11.5440228
11
6.9510982
21
13.7441228
0
LINE
8
DEFAULT_255_2_778
10
6.0750982
20
13.7441228
11
6.3758982
21
13.7441228
0
LINE
8
DEFAULT_255_2_778
10
6.3758982
20
13.7441228
11
6.3758982
21
11.5440228
0
LINE
8
DEFAULT_255_2_778
10
6.3758982
20
11.5440228
11
6.0750982
21
11.5440228
0
LINE
8
DEFAULT_255_2_778
10
6.0750982
20
11.5440228
11
6.0750982
21
12.5481228
0
LINE
8
DEFAULT_255_2_778
10
6.0750982
20
12.5481228
11
4.9415982
21
12.5481228
0
LINE
8
DEFAULT_255_2_778
10
4.9415982
20
12.5481228
11
4.9415982
21
11.5440228
0
LINE
8
DEFAULT_255_2_778
10
4.9415982
20
11.5440228
11
4.6404982
21
11.5440228
0
LINE
8
DEFAULT_255_2_778
10
4.6404982
20
11.5440228
11
4.6404982
21
13.7441228
0
LINE
8
DEFAULT_255_2_778
10
4.6404982
20
13.7441228
11
4.9412982
21
13.7441228
0
LINE
8
DEFAULT_255_2_778
10
4.9412982
20
13.7441228
11
4.9412982
21
12.8040228
0
LINE
8
DEFAULT_255_2_778
10
4.9412982
20
12.8040228
11
6.0747982
21
12.8040228
0
LINE
8
DEFAULT_255_2_778
10
6.0747982
20
12.8040228
11
6.0747982
21
13.7441228
0
LINE
8
DEFAULT_255_2_778
10
9.3135982
20
13.1829228
11
9.6143982
21
13.1829228
0
LINE
8
DEFAULT_255_2_778
10
9.6143982
20
13.1829228
11
9.6124982
21
13.2472228
0
LINE
8
DEFAULT_255_2_778
10
9.6124982
20
13.2472228
11
9.6101982
21
13.2686228
0
LINE
8
DEFAULT_255_2_778
10
9.6101982
20
13.2686228
11
9.6027982
21
13.3109228
0
LINE
8
DEFAULT_255_2_778
10
9.6027982
20
13.3109228
11
9.5918982
21
13.3527228
0
LINE
8
DEFAULT_255_2_778
10
9.5918982
20
13.3527228
11
9.5773982
21
13.3945228
0
LINE
8
DEFAULT_255_2_778
10
9.5773982
20
13.3945228
11
9.5482982
21
13.4559228
0
LINE
8
DEFAULT_255_2_778
10
9.5482982
20
13.4559228
11
9.5114982
21
13.5125228
0
LINE
8
DEFAULT_255_2_778
10
9.5114982
20
13.5125228
11
9.4476982
21
13.5821228
0
LINE
8
DEFAULT_255_2_778
10
9.4476982
20
13.5821228
11
9.3510982
21
13.6538228
0
LINE
8
DEFAULT_255_2_778
10
9.3510982
20
13.6538228
11
9.2195982
21
13.7184228
0
LINE
8
DEFAULT_255_2_778
10
9.2195982
20
13.7184228
11
9.0396982
21
13.7679228
0
LINE
8
DEFAULT_255_2_778
10
9.0396982
20
13.7679228
11
8.8422982
21
13.7874228
0
LINE
8
DEFAULT_255_2_778
10
8.8422982
20
13.7874228
11
8.6218982
21
13.7771228
0
LINE
8
DEFAULT_255_2_778
10
8.6218982
20
13.7771228
11
8.4255982
21
13.7345228
0
LINE
8
DEFAULT_255_2_778
10
8.4255982
20
13.7345228
11
8.2657982
21
13.6673228
0
LINE
8
DEFAULT_255_2_778
10
8.2657982
20
13.6673228
11
8.1461982
21
13.5895228
0
LINE
8
DEFAULT_255_2_778
10
8.1461982
20
13.5895228
11
8.0414982
21
13.4938228
0
LINE
8
DEFAULT_255_2_778
10
8.0414982
20
13.4938228
11
7.9665982
21
13.4030228
0
LINE
8
DEFAULT_255_2_778
10
7.9665982
20
13.4030228
11
7.9009982
21
13.3006228
0
LINE
8
DEFAULT_255_2_778
10
7.9009982
20
13.3006228
11
7.8598982
21
13.2191228
0
LINE
8
DEFAULT_255_2_778
10
7.8598982
20
13.2191228
11
7.8321982
21
13.1511228
0
LINE
8
DEFAULT_255_2_778
10
7.8321982
20
13.1511228
11
7.8085982
21
13.0815228
0
LINE
8
DEFAULT_255_2_778
10
7.8085982
20
13.0815228
11
7.7892982
21
13.0106228
0
LINE
8
DEFAULT_255_2_778
10
7.7892982
20
13.0106228
11
7.7736982
21
12.9389228
0
LINE
8
DEFAULT_255_2_778
10
7.7736982
20
12.9389228
11
7.7665982
21
12.8982228
0
LINE
8
DEFAULT_255_2_778
10
7.7665982
20
12.8982228
11
7.7604982
21
12.8574228
0
LINE
8
DEFAULT_255_2_778
10
7.7604982
20
12.8574228
11
7.7553982
21
12.8164228
0
LINE
8
DEFAULT_255_2_778
10
7.7553982
20
12.8164228
11
7.7514982
21
12.7754228
0
LINE
8
DEFAULT_255_2_778
10
7.7514982
20
12.7754228
11
7.7485982
21
12.7344228
0
LINE
8
DEFAULT_255_2_778
10
7.7485982
20
12.7344228
11
7.7485982
21
12.4910228
0
LINE
8
DEFAULT_255_2_778
10
7.7485982
20
12.4910228
11
7.7514982
21
12.4513228
0
LINE
8
DEFAULT_255_2_778
10
7.7514982
20
12.4513228
11
7.7553982
21
12.4116228
0
LINE
8
DEFAULT_255_2_778
10
7.7553982
20
12.4116228
11
7.7604982
21
12.3719228
0
LINE
8
DEFAULT_255_2_778
10
7.7604982
20
12.3719228
11
7.7665982
21
12.3325228
0
LINE
8
DEFAULT_255_2_778
10
7.7665982
20
12.3325228
11
7.7736982
21
12.2933228
0
LINE
8
DEFAULT_255_2_778
10
7.7736982
20
12.2933228
11
7.7889982
21
12.2246228
0
LINE
8
DEFAULT_255_2_778
10
7.7889982
20
12.2246228
11
7.8083982
21
12.1566228
0
LINE
8
DEFAULT_255_2_778
10
7.8083982
20
12.1566228
11
7.8315982
21
12.0899228
0
LINE
8
DEFAULT_255_2_778
10
7.8315982
20
12.0899228
11
7.8720982
21
11.9989228
0
LINE
8
DEFAULT_255_2_778
10
7.8720982
20
11.9989228
11
7.9151982
21
11.9227228
0
LINE
8
DEFAULT_255_2_778
10
7.9151982
20
11.9227228
11
7.9834982
21
11.8282228
0
LINE
8
DEFAULT_255_2_778
10
7.9834982
20
11.8282228
11
8.0649982
21
11.7422228
0
LINE
8
DEFAULT_255_2_778
10
8.0649982
20
11.7422228
11
8.1829982
21
11.6517228
0
LINE
8
DEFAULT_255_2_778
10
8.1829982
20
11.6517228
11
8.3194982
21
11.5814228
0
LINE
8
DEFAULT_255_2_778
10
8.3194982
20
11.5814228
11
8.4671982
21
11.5343228
0
LINE
8
DEFAULT_255_2_778
10
8.4671982
20
11.5343228
11
8.6610982
21
11.5054228
0
LINE
8
DEFAULT_255_2_778
10
8.6610982
20
11.5054228
11
8.9370982
21
11.5030228
0
LINE
8
DEFAULT_255_2_778
10
8.9370982
20
11.5030228
11
9.2812982
21
11.5398228
0
LINE
8
DEFAULT_255_2_778
10
9.2812982
20
11.5398228
11
9.4952982
21
11.5890228
0
LINE
8
DEFAULT_255_2_778
10
9.4952982
20
11.5890228
11
9.6146982
21
11.6298228
0
LINE
8
DEFAULT_255_2_778
10
9.6146982
20
11.6298228
11
9.6146982
21
12.7431228
0
LINE
8
DEFAULT_255_2_778
10
9.6146982
20
12.7431228
11
8.8208982
21
12.7431228
0
LINE
8
DEFAULT_255_2_778
10
8.8208982
20
12.7431228
11
8.8208982
21
12.4812228
0
LINE
8
DEFAULT_255_2_778
10
8.8208982
20
12.4812228
11
9.3135982
21
12.4812228
0
LINE
8
DEFAULT_255_2_778
10
9.3135982
20
12.4812228
11
9.3135982
21
11.8155228
0
LINE
8
DEFAULT_255_2_778
10
9.3135982
20
11.8155228
11
9.1127982
21
11.7721228
0
LINE
8
DEFAULT_255_2_778
10
9.1127982
20
11.7721228
11
8.8465982
21
11.7499228
0
LINE
8
DEFAULT_255_2_778
10
8.8465982
20
11.7499228
11
8.6491982
21
11.7610228
0
LINE
8
DEFAULT_255_2_778
10
8.6491982
20
11.7610228
11
8.4917982
21
11.8012228
0
LINE
8
DEFAULT_255_2_778
10
8.4917982
20
11.8012228
11
8.3845982
21
11.8541228
0
LINE
8
DEFAULT_255_2_778
10
8.3845982
20
11.8541228
11
8.2916982
21
11.9258228
0
LINE
8
DEFAULT_255_2_778
10
8.2916982
20
11.9258228
11
8.2141982
21
12.0137228
0
LINE
8
DEFAULT_255_2_778
10
8.2141982
20
12.0137228
11
8.1684982
21
12.0846228
0
LINE
8
DEFAULT_255_2_778
10
8.1684982
20
12.0846228
11
8.1310982
21
12.1603228
0
LINE
8
DEFAULT_255_2_778
10
8.1310982
20
12.1603228
11
8.1096982
21
12.2158228
0
LINE
8
DEFAULT_255_2_778
10
8.1096982
20
12.2158228
11
8.0908982
21
12.2759228
0
LINE
8
DEFAULT_255_2_778
10
8.0908982
20
12.2759228
11
8.0757982
21
12.3370228
0
LINE
8
DEFAULT_255_2_778
10
8.0757982
20
12.3370228
11
8.0641982
21
12.3989228
0
LINE
8
DEFAULT_255_2_778
10
8.0641982
20
12.3989228
11
8.0580982
21
12.4407228
0
LINE
8
DEFAULT_255_2_778
10
8.0580982
20
12.4407228
11
8.0533982
21
12.4828228
0
LINE
8
DEFAULT_255_2_778
10
8.0533982
20
12.4828228
11
8.0496982
21
12.5249228
0
LINE
8
DEFAULT_255_2_778
10
8.0496982
20
12.5249228
11
8.0498982
21
12.7746228
0
LINE
8
DEFAULT_255_2_778
10
8.0498982
20
12.7746228
11
8.0535982
21
12.8156228
0
LINE
8
DEFAULT_255_2_778
10
8.0535982
20
12.8156228
11
8.0586982
21
12.8564228
0
LINE
8
DEFAULT_255_2_778
10
8.0586982
20
12.8564228
11
8.0649982
21
12.8971228
0
LINE
8
DEFAULT_255_2_778
10
8.0649982
20
12.8971228
11
8.0771982
21
12.9580228
0
LINE
8
DEFAULT_255_2_778
10
8.0771982
20
12.9580228
11
8.0927982
21
13.0180228
0
LINE
8
DEFAULT_255_2_778
10
8.0927982
20
13.0180228
11
8.1120982
21
13.0768228
0
LINE
8
DEFAULT_255_2_778
10
8.1120982
20
13.0768228
11
8.1464982
21
13.1569228
0
LINE
8
DEFAULT_255_2_778
10
8.1464982
20
13.1569228
11
8.1879982
21
13.2305228
0
LINE
8
DEFAULT_255_2_778
10
8.1879982
20
13.2305228
11
8.2496982
21
13.3128228
0
LINE
8
DEFAULT_255_2_778
10
8.2496982
20
13.3128228
11
8.3337982
21
13.3927228
0
LINE
8
DEFAULT_255_2_778
10
8.3337982
20
13.3927228
11
8.4403982
21
13.4594228
0
LINE
8
DEFAULT_255_2_778
10
8.4403982
20
13.4594228
11
8.6544982
21
13.5242228
0
LINE
8
DEFAULT_255_2_778
10
8.6544982
20
13.5242228
11
8.9386982
21
13.5229228
0
LINE
8
DEFAULT_255_2_778
10
8.9386982
20
13.5229228
11
9.1529982
21
13.4424228
0
LINE
8
DEFAULT_255_2_778
10
9.1529982
20
13.4424228
11
9.2479982
21
13.3575228
0
LINE
8
DEFAULT_255_2_778
10
9.2479982
20
13.3575228
11
9.2910982
21
13.2826228
0
LINE
8
DEFAULT_255_2_778
10
9.2910982
20
13.2826228
11
9.3063982
21
13.2342228
0
LINE
8
DEFAULT_255_2_778
10
9.3063982
20
13.2342228
11
9.3116982
21
13.2040228
0
LINE
8
DEFAULT_255_2_778
10
9.3116982
20
13.2040228
11
9.3135982
21
13.1837228
0
LINE
8
DEFAULT_255_2_778
10
19.3139982
20
13.7441228
11
21.0898982
21
13.7441228
0
LINE
8
DEFAULT_255_2_778
10
21.0898982
20
13.7441228
11
21.0898982
21
13.4946228
0
LINE
8
DEFAULT_255_2_778
10
21.0898982
20
13.4946228
11
20.3524982
21
13.4946228
0
LINE
8
DEFAULT_255_2_778
10
20.3524982
20
13.4946228
11
20.3524982
21
11.5440228
0
LINE
8
DEFAULT_255_2_778
10
20.3524982
20
11.5440228
11
20.0516982
21
11.5440228
0
LINE
8
DEFAULT_255_2_778
10
20.0516982
20
11.5440228
11
20.0516982
21
13.4946228
0
LINE
8
DEFAULT_255_2_778
10
20.0516982
20
13.4946228
11
19.3142982
21
13.4946228
0
LINE
8
DEFAULT_255_2_778
10
19.3142982
20
13.4946228
11
19.3142982
21
13.7441228
0
LINE
8
DEFAULT_255_2_778
10
15.3069229
20
13.7441052
11
16.6478229
21
13.7441052
0
LINE
8
DEFAULT_255_2_778
10
16.6478229
20
13.7441052
11
16.6478229
21
13.4946052
0
LINE
8
DEFAULT_255_2_778
10
16.6478229
20
13.4946052
11
15.6077229
21
13.4946052
0
LINE
8
DEFAULT_255_2_778
10
15.6077229
20
13.4946052
11
15.6077229
21
12.8009052
0
LINE
8
DEFAULT_255_2_778
10
15.6077229
20
12.8009052
11
16.6071229
21
12.8009052
0
LINE
8
DEFAULT_255_2_778
10
16.6071229
20
12.8009052
11
16.6071229
21
12.5514052
0
LINE
8
DEFAULT_255_2_778
10
16.6071229
20
12.5514052
11
15.6077229
21
12.5514052
0
LINE
8
DEFAULT_255_2_778
10
15.6077229
20
12.5514052
11
15.6077229
21
11.7936052
0
LINE
8
DEFAULT_255_2_778
10
15.6077229
20
11.7936052
11
16.6759229
21
11.7936052
0
LINE
8
DEFAULT_255_2_778
10
16.6759229
20
11.7936052
11
16.6759229
21
11.5441052
0
LINE
8
DEFAULT_255_2_778
10
16.6759229
20
11.5441052
11
15.3069229
21
11.5441052
0
LINE
8
DEFAULT_255_2_778
10
15.3069229
20
11.5441052
11
15.3069229
21
13.7441052
0
LINE
8
DEFAULT_255_2_778
10
13.5339344
20
13.7441052
11
14.8888344
21
13.7441052
0
LINE
8
DEFAULT_255_2_778
10
14.8888344
20
13.7441052
11
14.8888344
21
13.4946052
0
LINE
8
DEFAULT_255_2_778
10
14.8888344
20
13.4946052
11
13.8347344
21
13.4946052
0
LINE
8
DEFAULT_255_2_778
10
13.8347344
20
13.4946052
11
13.8347344
21
12.8009052
0
LINE
8
DEFAULT_255_2_778
10
13.8347344
20
12.8009052
11
14.8341344
21
12.8009052
0
LINE
8
DEFAULT_255_2_778
10
14.8341344
20
12.8009052
11
14.8341344
21
12.5514052
0
LINE
8
DEFAULT_255_2_778
10
14.8341344
20
12.5514052
11
13.8347344
21
12.5514052
0
LINE
8
DEFAULT_255_2_778
10
13.8347344
20
12.5514052
11
13.8347344
21
11.5441052
0
LINE
8
DEFAULT_255_2_778
10
13.8347344
20
11.5441052
11
13.5339344
21
11.5441052
0
LINE
8
DEFAULT_255_2_778
10
13.5339344
20
11.5441052
11
13.5339344
21
13.7441052
0
LINE
8
DEFAULT_255_2_778
10
25.8484229
20
13.7441052
11
27.1893229
21
13.7441052
0
LINE
8
DEFAULT_255_2_778
10
27.1893229
20
13.7441052
11
27.1893229
21
13.4946052
0
LINE
8
DEFAULT_255_2_778
10
27.1893229
20
13.4946052
11
26.1492229
21
13.4946052
0
LINE
8
DEFAULT_255_2_778
10
26.1492229
20
13.4946052
11
26.1492229
21
12.8009052
0
LINE
8
DEFAULT_255_2_778
10
26.1492229
20
12.8009052
11
27.1486229
21
12.8009052
0
LINE
8
DEFAULT_255_2_778
10
27.1486229
20
12.8009052
11
27.1486229
21
12.5514052
0
LINE
8
DEFAULT_255_2_778
10
27.1486229
20
12.5514052
11
26.1492229
21
12.5514052
0
LINE
8
DEFAULT_255_2_778
10
26.1492229
20
12.5514052
11
26.1492229
21
11.7936052
0
LINE
8
DEFAULT_255_2_778
10
26.1492229
20
11.7936052
11
27.2174229
21
11.7936052
0
LINE
8
DEFAULT_255_2_778
10
27.2174229
20
11.7936052
11
27.2174229
21
11.5441052
0
LINE
8
DEFAULT_255_2_778
10
27.2174229
20
11.5441052
11
25.8484229
21
11.5441052
0
LINE
8
DEFAULT_255_2_778
10
25.8484229
20
11.5441052
11
25.8484229
21
13.7441052
0
LINE
8
DEFAULT_255_2_778
10
24.6072458
20
12.7789489
11
24.8181458
21
12.8014489
0
LINE
8
DEFAULT_255_2_778
10
24.8181458
20
12.8014489
11
24.9692458
21
12.8757489
0
LINE
8
DEFAULT_255_2_778
10
24.9692458
20
12.8757489
11
25.0261458
21
12.9392489
0
LINE
8
DEFAULT_255_2_778
10
25.0261458
20
12.9392489
11
25.0533458
21
12.9985489
0
LINE
8
DEFAULT_255_2_778
10
25.0533458
20
12.9985489
11
25.0642458
21
13.0413489
0
LINE
8
DEFAULT_255_2_778
10
25.0642458
20
13.0413489
11
25.0692458
21
13.0744489
0
LINE
8
DEFAULT_255_2_778
10
25.0692458
20
13.0744489
11
25.0671458
21
13.1929489
0
LINE
8
DEFAULT_255_2_778
10
25.0671458
20
13.1929489
11
25.0599458
21
13.2289489
0
LINE
8
DEFAULT_255_2_778
10
25.0599458
20
13.2289489
11
25.0417458
21
13.2829489
0
LINE
8
DEFAULT_255_2_778
10
25.0417458
20
13.2829489
11
25.0033458
21
13.3480489
0
LINE
8
DEFAULT_255_2_778
10
25.0033458
20
13.3480489
11
24.9118458
21
13.4252489
0
LINE
8
DEFAULT_255_2_778
10
24.9118458
20
13.4252489
11
24.7350458
21
13.4803489
0
LINE
8
DEFAULT_255_2_778
10
24.7350458
20
13.4803489
11
24.5281458
21
13.4943489
0
LINE
8
DEFAULT_255_2_778
10
24.5281458
20
13.4943489
11
24.0839458
21
13.4943489
0
LINE
8
DEFAULT_255_2_778
10
24.0839458
20
13.4943489
11
24.0839458
21
12.7786489
0
LINE
8
DEFAULT_255_2_778
10
24.0839458
20
12.7786489
11
24.6078458
21
12.7786489
0
LINE
8
DEFAULT_255_2_778
10
24.5793387
20
12.5293698
11
24.8341387
21
12.4772698
0
LINE
8
DEFAULT_255_2_778
10
24.8341387
20
12.4772698
11
24.9182387
21
12.3968698
0
LINE
8
DEFAULT_255_2_778
10
24.9182387
20
12.3968698
11
24.9597387
21
12.3100698
0
LINE
8
DEFAULT_255_2_778
10
24.9597387
20
12.3100698
11
24.9793387
21
12.2361698
0
LINE
8
DEFAULT_255_2_778
10
24.9793387
20
12.2361698
11
24.9859387
21
12.1986698
0
LINE
8
DEFAULT_255_2_778
10
24.9859387
20
12.1986698
11
25.0164387
21
12.0057698
0
LINE
8
DEFAULT_255_2_778
10
25.0164387
20
12.0057698
11
25.0587387
21
11.7591698
0
LINE
8
DEFAULT_255_2_778
10
25.0587387
20
11.7591698
11
25.0849387
21
11.6604698
0
LINE
8
DEFAULT_255_2_778
10
25.0849387
20
11.6604698
11
25.1108387
21
11.5728698
0
LINE
8
DEFAULT_255_2_778
10
25.1108387
20
11.5728698
11
25.1153387
21
11.5453698
0
LINE
8
DEFAULT_255_2_778
10
25.1153387
20
11.5453698
11
25.4349387
21
11.5453698
0
LINE
8
DEFAULT_255_2_778
10
25.4349387
20
11.5453698
11
25.3884387
21
11.6723698
0
LINE
8
DEFAULT_255_2_778
10
25.3884387
20
11.6723698
11
25.3616387
21
11.7964698
0
LINE
8
DEFAULT_255_2_778
10
25.3616387
20
11.7964698
11
25.3275387
21
11.9935698
0
LINE
8
DEFAULT_255_2_778
10
25.3275387
20
11.9935698
11
25.2844387
21
12.2729698
0
LINE
8
DEFAULT_255_2_778
10
25.2844387
20
12.2729698
11
25.2714387
21
12.3372698
0
LINE
8
DEFAULT_255_2_778
10
25.2714387
20
12.3372698
11
25.2481387
21
12.4182698
0
LINE
8
DEFAULT_255_2_778
10
25.2481387
20
12.4182698
11
25.2047387
21
12.5089698
0
LINE
8
DEFAULT_255_2_778
10
25.2047387
20
12.5089698
11
25.1396387
21
12.5793698
0
LINE
8
DEFAULT_255_2_778
10
25.1396387
20
12.5793698
11
25.0269387
21
12.6283698
0
LINE
8
DEFAULT_255_2_778
10
25.0269387
20
12.6283698
11
24.9378387
21
12.6444698
0
LINE
8
DEFAULT_255_2_778
10
24.9378387
20
12.6444698
11
25.0992387
21
12.7116698
0
LINE
8
DEFAULT_255_2_778
10
25.0992387
20
12.7116698
11
25.2233387
21
12.8034698
0
LINE
8
DEFAULT_255_2_778
10
25.2233387
20
12.8034698
11
25.2918387
21
12.8860698
0
LINE
8
DEFAULT_255_2_778
10
25.2918387
20
12.8860698
11
25.3254387
21
12.9471698
0
LINE
8
DEFAULT_255_2_778
10
25.3254387
20
12.9471698
11
25.3447387
21
12.9958698
0
LINE
8
DEFAULT_255_2_778
10
25.3447387
20
12.9958698
11
25.3593387
21
13.0487698
0
LINE
8
DEFAULT_255_2_778
10
25.3593387
20
13.0487698
11
25.3659387
21
13.0855698
0
LINE
8
DEFAULT_255_2_778
10
25.3659387
20
13.0855698
11
25.3701387
21
13.1228698
0
LINE
8
DEFAULT_255_2_778
10
25.3701387
20
13.1228698
11
25.3690387
21
13.2511698
0
LINE
8
DEFAULT_255_2_778
10
25.3690387
20
13.2511698
11
25.3643387
21
13.2868698
0
LINE
8
DEFAULT_255_2_778
10
25.3643387
20
13.2868698
11
25.3574387
21
13.3220698
0
LINE
8
DEFAULT_255_2_778
10
25.3574387
20
13.3220698
11
25.3431387
21
13.3723698
0
LINE
8
DEFAULT_255_2_778
10
25.3431387
20
13.3723698
11
25.3177387
21
13.4329698
0
LINE
8
DEFAULT_255_2_778
10
25.3177387
20
13.4329698
11
25.2746387
21
13.5027698
0
LINE
8
DEFAULT_255_2_778
10
25.2746387
20
13.5027698
11
25.1923387
21
13.5871698
0
LINE
8
DEFAULT_255_2_778
10
25.1923387
20
13.5871698
11
25.0492387
21
13.6728698
0
LINE
8
DEFAULT_255_2_778
10
25.0492387
20
13.6728698
11
24.8489387
21
13.7294698
0
LINE
8
DEFAULT_255_2_778
10
24.8489387
20
13.7294698
11
24.6589387
21
13.7435698
0
LINE
8
DEFAULT_255_2_778
10
24.6589387
20
13.7435698
11
23.7826387
21
13.7435698
0
LINE
8
DEFAULT_255_2_778
10
23.7826387
20
13.7435698
11
23.7826387
21
11.5435698
0
LINE
8
DEFAULT_255_2_778
10
23.7826387
20
11.5435698
11
24.0834387
21
11.5435698
0
LINE
8
DEFAULT_255_2_778
10
24.0834387
20
11.5435698
11
24.0834387
21
12.5288698
0
LINE
8
DEFAULT_255_2_778
10
24.0834387
20
12.5288698
11
24.5793387
21
12.5288698
0
LINE
8
DEFAULT_255_2_778
10
17.8530387
20
13.7440698
11
18.1835387
21
13.7440698
0
LINE
8
DEFAULT_255_2_778
10
18.1835387
20
13.7440698
11
19.0862387
21
11.5440698
0
LINE
8
DEFAULT_255_2_778
10
19.0862387
20
11.5440698
11
18.7587387
21
11.5440698
0
LINE
8
DEFAULT_255_2_778
10
18.7587387
20
11.5440698
11
18.5372387
21
12.1179698
0
LINE
8
DEFAULT_255_2_778
10
18.5372387
20
12.1179698
11
17.5019387
21
12.1179698
0
LINE
8
DEFAULT_255_2_778
10
17.5019387
20
12.1179698
11
17.2836387
21
11.5440698
0
LINE
8
DEFAULT_255_2_778
10
17.2836387
20
11.5440698
11
16.9500387
21
11.5440698
0
LINE
8
DEFAULT_255_2_778
10
16.9500387
20
11.5440698
11
17.8530387
21
13.7440698
0
LINE
8
DEFAULT_255_2_778
10
17.5988387
20
12.3674698
11
18.4422387
21
12.3674698
0
LINE
8
DEFAULT_255_2_778
10
18.4422387
20
12.3674698
11
18.0197387
21
13.4604698
0
LINE
8
DEFAULT_255_2_778
10
18.0197387
20
13.4604698
11
17.5988387
21
12.3674698
0
LINE
8
DEFAULT_255_2_778
10
2.2904388
20
3.234582
11
2.0976388
21
3.234582
0
LINE
8
DEFAULT_255_2_778
10
2.0976388
20
3.234582
11
1.8372388
21
3.041682
0
LINE
8
DEFAULT_255_2_778
10
1.8372388
20
3.041682
11
1.6901388
21
2.972882
0
LINE
8
DEFAULT_255_2_778
10
1.6901388
20
2.972882
11
1.6901388
21
2.760882
0
LINE
8
DEFAULT_255_2_778
10
1.6901388
20
2.760882
11
2.0259388
21
2.942482
0
LINE
8
DEFAULT_255_2_778
10
2.0259388
20
2.942482
11
2.0624388
21
2.971782
0
LINE
8
DEFAULT_255_2_778
10
2.0624388
20
2.971782
11
2.0624388
21
1.544082
0
LINE
8
DEFAULT_255_2_778
10
2.0624388
20
1.544082
11
2.2902388
21
1.544082
0
LINE
8
DEFAULT_255_2_778
10
2.2902388
20
1.544082
11
2.2902388
21
3.234582
0
LINE
8
DEFAULT_255_2_778
10
5.1879388
20
1.698382
11
4.9884388
21
1.754182
0
LINE
8
DEFAULT_255_2_778
10
4.9884388
20
1.754182
11
4.8791388
21
1.862182
0
LINE
8
DEFAULT_255_2_778
10
4.8791388
20
1.862182
11
4.8307388
21
1.958982
0
LINE
8
DEFAULT_255_2_778
10
4.8307388
20
1.958982
11
4.8156388
21
2.008182
0
LINE
8
DEFAULT_255_2_778
10
4.8156388
20
2.008182
11
4.5831388
21
2.008182
0
LINE
8
DEFAULT_255_2_778
10
4.5831388
20
2.008182
11
4.5894388
21
1.971682
0
LINE
8
DEFAULT_255_2_778
10
4.5894388
20
1.971682
11
4.6029388
21
1.917382
0
LINE
8
DEFAULT_255_2_778
10
4.6029388
20
1.917382
11
4.6280388
21
1.848382
0
LINE
8
DEFAULT_255_2_778
10
4.6280388
20
1.848382
11
4.6688388
21
1.771182
0
LINE
8
DEFAULT_255_2_778
10
4.6688388
20
1.771182
11
4.7331388
21
1.688782
0
LINE
8
DEFAULT_255_2_778
10
4.7331388
20
1.688782
11
4.8326388
21
1.605482
0
LINE
8
DEFAULT_255_2_778
10
4.8326388
20
1.605482
11
4.9582388
21
1.542782
0
LINE
8
DEFAULT_255_2_778
10
4.9582388
20
1.542782
11
5.1210388
21
1.508682
0
LINE
8
DEFAULT_255_2_778
10
5.1210388
20
1.508682
11
5.3249388
21
1.515582
0
LINE
8
DEFAULT_255_2_778
10
5.3249388
20
1.515582
11
5.5202388
21
1.574482
0
LINE
8
DEFAULT_255_2_778
10
5.5202388
20
1.574482
11
5.6454388
21
1.659682
0
LINE
8
DEFAULT_255_2_778
10
5.6454388
20
1.659682
11
5.7086388
21
1.732982
0
LINE
8
DEFAULT_255_2_778
10
5.7086388
20
1.732982
11
5.7472388
21
1.802882
0
LINE
8
DEFAULT_255_2_778
10
5.7472388
20
1.802882
11
5.7689388
21
1.862982
0
LINE
8
DEFAULT_255_2_778
10
5.7689388
20
1.862982
11
5.7774388
21
1.896782
0
LINE
8
DEFAULT_255_2_778
10
5.7774388
20
1.896782
11
5.7835388
21
1.931182
0
LINE
8
DEFAULT_255_2_778
10
5.7835388
20
1.931182
11
5.7872388
21
1.965882
0
LINE
8
DEFAULT_255_2_778
10
5.7872388
20
1.965882
11
5.7861388
21
2.074582
0
LINE
8
DEFAULT_255_2_778
10
5.7861388
20
2.074582
11
5.7792388
21
2.119882
0
LINE
8
DEFAULT_255_2_778
10
5.7792388
20
2.119882
11
5.7604388
21
2.184182
0
LINE
8
DEFAULT_255_2_778
10
5.7604388
20
2.184182
11
5.6906388
21
2.292682
0
LINE
8
DEFAULT_255_2_778
10
5.6906388
20
2.292682
11
5.4977388
21
2.408182
0
LINE
8
DEFAULT_255_2_778
10
5.4977388
20
2.408182
11
5.4734388
21
2.413782
0
LINE
8
DEFAULT_255_2_778
10
5.4734388
20
2.413782
11
5.6096388
21
2.498782
0
LINE
8
DEFAULT_255_2_778
10
5.6096388
20
2.498782
11
5.6747388
21
2.568582
0
LINE
8
DEFAULT_255_2_778
10
5.6747388
20
2.568582
11
5.7141388
21
2.634982
0
LINE
8
DEFAULT_255_2_778
10
5.7141388
20
2.634982
11
5.7358388
21
2.692382
0
LINE
8
DEFAULT_255_2_778
10
5.7358388
20
2.692382
11
5.7435388
21
2.723882
0
LINE
8
DEFAULT_255_2_778
10
5.7435388
20
2.723882
11
5.7488388
21
2.755882
0
LINE
8
DEFAULT_255_2_778
10
5.7488388
20
2.755882
11
5.7472388
21
2.896982
0
LINE
8
DEFAULT_255_2_778
10
5.7472388
20
2.896982
11
5.7414388
21
2.926782
0
LINE
8
DEFAULT_255_2_778
10
5.7414388
20
2.926782
11
5.7287388
21
2.969682
0
LINE
8
DEFAULT_255_2_778
10
5.7287388
20
2.969682
11
5.6983388
21
3.034482
0
LINE
8
DEFAULT_255_2_778
10
5.6983388
20
3.034482
11
5.6448388
21
3.104382
0
LINE
8
DEFAULT_255_2_778
10
5.6448388
20
3.104382
11
5.5456388
21
3.182182
0
LINE
8
DEFAULT_255_2_778
10
5.5456388
20
3.182182
11
5.3927388
21
3.245082
0
LINE
8
DEFAULT_255_2_778
10
5.3927388
20
3.245082
11
5.1699388
21
3.268682
0
LINE
8
DEFAULT_255_2_778
10
5.1699388
20
3.268682
11
4.9656388
21
3.238982
0
LINE
8
DEFAULT_255_2_778
10
4.9656388
20
3.238982
11
4.7569388
21
3.121282
0
LINE
8
DEFAULT_255_2_778
10
4.7569388
20
3.121282
11
4.6754388
21
3.010382
0
LINE
8
DEFAULT_255_2_778
10
4.6754388
20
3.010382
11
4.6450388
21
2.925782
0
LINE
8
DEFAULT_255_2_778
10
4.6450388
20
2.925782
11
4.6357388
21
2.878082
0
LINE
8
DEFAULT_255_2_778
10
4.6357388
20
2.878082
11
4.6325388
21
2.849282
0
LINE
8
DEFAULT_255_2_778
10
4.6325388
20
2.849282
11
4.6312388
21
2.801382
0
LINE
8
DEFAULT_255_2_778
10
4.6312388
20
2.801382
11
4.8516388
21
2.801382
0
LINE
8
DEFAULT_255_2_778
10
4.8516388
20
2.801382
11
4.8535388
21
2.839482
0
LINE
8
DEFAULT_255_2_778
10
4.8535388
20
2.839482
11
4.8582388
21
2.867882
0
LINE
8
DEFAULT_255_2_778
10
4.8582388
20
2.867882
11
4.8757388
21
2.919682
0
LINE
8
DEFAULT_255_2_778
10
4.8757388
20
2.919682
11
4.9275388
21
2.992382
0
LINE
8
DEFAULT_255_2_778
10
4.9275388
20
2.992382
11
5.0442388
21
3.063382
0
LINE
8
DEFAULT_255_2_778
10
5.0442388
20
3.063382
11
5.2538388
21
3.082082
0
LINE
8
DEFAULT_255_2_778
10
5.2538388
20
3.082082
11
5.4173388
21
3.021782
0
LINE
8
DEFAULT_255_2_778
10
5.4173388
20
3.021782
11
5.4863388
21
2.950882
0
LINE
8
DEFAULT_255_2_778
10
5.4863388
20
2.950882
11
5.5125388
21
2.894582
0
LINE
8
DEFAULT_255_2_778
10
5.5125388
20
2.894582
11
5.5218388
21
2.857482
0
LINE
8
DEFAULT_255_2_778
10
5.5218388
20
2.857482
11
5.5202388
21
2.741582
0
LINE
8
DEFAULT_255_2_778
10
5.5202388
20
2.741582
11
5.4977388
21
2.681282
0
LINE
8
DEFAULT_255_2_778
10
5.4977388
20
2.681282
11
5.3977388
21
2.578882
0
LINE
8
DEFAULT_255_2_778
10
5.3977388
20
2.578882
11
5.1723388
21
2.508582
0
LINE
8
DEFAULT_255_2_778
10
5.1723388
20
2.508582
11
5.0651388
21
2.507782
0
LINE
8
DEFAULT_255_2_778
10
5.0651388
20
2.507782
11
5.0651388
21
2.317482
0
LINE
8
DEFAULT_255_2_778
10
5.0651388
20
2.317482
11
5.3596388
21
2.286782
0
LINE
8
DEFAULT_255_2_778
10
5.3596388
20
2.286782
11
5.4951388
21
2.206382
0
LINE
8
DEFAULT_255_2_778
10
5.4951388
20
2.206382
11
5.5401388
21
2.141582
0
LINE
8
DEFAULT_255_2_778
10
5.5401388
20
2.141582
11
5.5543388
21
2.099182
0
LINE
8
DEFAULT_255_2_778
10
5.5543388
20
2.099182
11
5.5522388
21
1.946582
0
LINE
8
DEFAULT_255_2_778
10
5.5522388
20
1.946582
11
5.5326388
21
1.887582
0
LINE
8
DEFAULT_255_2_778
10
5.5326388
20
1.887582
11
5.4893388
21
1.818982
0
LINE
8
DEFAULT_255_2_778
10
5.4893388
20
1.818982
11
5.3787388
21
1.735982
0
LINE
8
DEFAULT_255_2_778
10
5.3787388
20
1.735982
11
5.1882388
21
1.697882
0
LINE
8
DEFAULT_255_2_778
10
3.1337388
20
3.234582
11
4.1179388
21
3.234582
0
LINE
8
DEFAULT_255_2_778
10
4.1179388
20
3.234582
11
4.1179388
21
3.049082
0
LINE
8
DEFAULT_255_2_778
10
4.1179388
20
3.049082
11
3.3469388
21
3.049082
0
LINE
8
DEFAULT_255_2_778
10
3.3469388
20
3.049082
11
3.3337388
21
2.502182
0
LINE
8
DEFAULT_255_2_778
10
3.3337388
20
2.502182
11
3.4464388
21
2.602182
0
LINE
8
DEFAULT_255_2_778
10
3.4464388
20
2.602182
11
3.6020388
21
2.662482
0
LINE
8
DEFAULT_255_2_778
10
3.6020388
20
2.662482
11
3.8171388
21
2.662982
0
LINE
8
DEFAULT_255_2_778
10
3.8171388
20
2.662982
11
3.9756388
21
2.603482
0
LINE
8
DEFAULT_255_2_778
10
3.9756388
20
2.603482
11
4.0703388
21
2.522482
0
LINE
8
DEFAULT_255_2_778
10
4.0703388
20
2.522482
11
4.1285388
21
2.439682
0
LINE
8
DEFAULT_255_2_778
10
4.1285388
20
2.439682
11
4.1610388
21
2.370382
0
LINE
8
DEFAULT_255_2_778
10
4.1610388
20
2.370382
11
4.1827388
21
2.303182
0
LINE
8
DEFAULT_255_2_778
10
4.1827388
20
2.303182
11
4.1941388
21
2.251382
0
LINE
8
DEFAULT_255_2_778
10
4.1941388
20
2.251382
11
4.1983388
21
2.225382
0
LINE
8
DEFAULT_255_2_778
10
4.1983388
20
2.225382
11
4.2018388
21
2.199482
0
LINE
8
DEFAULT_255_2_778
10
4.2018388
20
2.199482
11
4.2013388
21
1.990482
0
LINE
8
DEFAULT_255_2_778
10
4.2013388
20
1.990482
11
4.1952388
21
1.949182
0
LINE
8
DEFAULT_255_2_778
10
4.1952388
20
1.949182
11
4.1822388
21
1.892082
0
LINE
8
DEFAULT_255_2_778
10
4.1822388
20
1.892082
11
4.1647388
21
1.838382
0
LINE
8
DEFAULT_255_2_778
10
4.1647388
20
1.838382
11
4.1338388
21
1.770582
0
LINE
8
DEFAULT_255_2_778
10
4.1338388
20
1.770582
11
4.0840388
21
1.695682
0
LINE
8
DEFAULT_255_2_778
10
4.0840388
20
1.695682
11
4.0007388
21
1.613982
0
LINE
8
DEFAULT_255_2_778
10
4.0007388
20
1.613982
11
3.8793388
21
1.545982
0
LINE
8
DEFAULT_255_2_778
10
3.8793388
20
1.545982
11
3.7057388
21
1.508082
0
LINE
8
DEFAULT_255_2_778
10
3.7057388
20
1.508082
11
3.5205388
21
1.515782
0
LINE
8
DEFAULT_255_2_778
10
3.5205388
20
1.515782
11
3.3736388
21
1.561082
0
LINE
8
DEFAULT_255_2_778
10
3.3736388
20
1.561082
11
3.2511388
21
1.640682
0
LINE
8
DEFAULT_255_2_778
10
3.2511388
20
1.640682
11
3.1728388
21
1.726382
0
LINE
8
DEFAULT_255_2_778
10
3.1728388
20
1.726382
11
3.1310388
21
1.797882
0
LINE
8
DEFAULT_255_2_778
10
3.1310388
20
1.797882
11
3.1059388
21
1.860582
0
LINE
8
DEFAULT_255_2_778
10
3.1059388
20
1.860582
11
3.0919388
21
1.911882
0
LINE
8
DEFAULT_255_2_778
10
3.0919388
20
1.911882
11
3.0852388
21
1.946782
0
LINE
8
DEFAULT_255_2_778
10
3.0852388
20
1.946782
11
3.0807388
21
1.981782
0
LINE
8
DEFAULT_255_2_778
10
3.0807388
20
1.981782
11
3.3133388
21
1.981782
0
LINE
8
DEFAULT_255_2_778
10
3.3133388
20
1.981782
11
3.3181388
21
1.952682
0
LINE
8
DEFAULT_255_2_778
10
3.3181388
20
1.952682
11
3.3361388
21
1.895182
0
LINE
8
DEFAULT_255_2_778
10
3.3361388
20
1.895182
11
3.3879388
21
1.808982
0
LINE
8
DEFAULT_255_2_778
10
3.3879388
20
1.808982
11
3.4858388
21
1.730082
0
LINE
8
DEFAULT_255_2_778
10
3.4858388
20
1.730082
11
3.6776388
21
1.700282
0
LINE
8
DEFAULT_255_2_778
10
3.6776388
20
1.700282
11
3.8282388
21
1.752882
0
LINE
8
DEFAULT_255_2_778
10
3.8282388
20
1.752882
11
3.9018388
21
1.829882
0
LINE
8
DEFAULT_255_2_778
10
3.9018388
20
1.829882
11
3.9393388
21
1.899482
0
LINE
8
DEFAULT_255_2_778
10
3.9393388
20
1.899482
11
3.9581388
21
1.956582
0
LINE
8
DEFAULT_255_2_778
10
3.9581388
20
1.956582
11
3.9658388
21
1.991782
0
LINE
8
DEFAULT_255_2_778
10
3.9658388
20
1.991782
11
3.9708388
21
2.026682
0
LINE
8
DEFAULT_255_2_778
10
3.9708388
20
2.026682
11
3.9703388
21
2.172482
0
LINE
8
DEFAULT_255_2_778
10
3.9703388
20
2.172482
11
3.9634388
21
2.213982
0
LINE
8
DEFAULT_255_2_778
10
3.9634388
20
2.213982
11
3.9475388
21
2.271482
0
LINE
8
DEFAULT_255_2_778
10
3.9475388
20
2.271482
11
3.9131388
21
2.343382
0
LINE
8
DEFAULT_255_2_778
10
3.9131388
20
2.343382
11
3.8438388
21
2.424182
0
LINE
8
DEFAULT_255_2_778
10
3.8438388
20
2.424182
11
3.7327388
21
2.478882
0
LINE
8
DEFAULT_255_2_778
10
3.7327388
20
2.478882
11
3.5398388
21
2.474382
0
LINE
8
DEFAULT_255_2_778
10
3.5398388
20
2.474382
11
3.4221388
21
2.403982
0
LINE
8
DEFAULT_255_2_778
10
3.4221388
20
2.403982
11
3.3752388
21
2.339982
0
LINE
8
DEFAULT_255_2_778
10
3.3752388
20
2.339982
11
3.3567388
21
2.292682
0
LINE
8
DEFAULT_255_2_778
10
3.3567388
20
2.292682
11
3.3498388
21
2.261682
0
LINE
8
DEFAULT_255_2_778
10
3.3498388
20
2.261682
11
3.3472388
21
2.240782
0
LINE
8
DEFAULT_255_2_778
10
3.3472388
20
2.240782
11
3.1194388
21
2.240782
0
LINE
8
DEFAULT_255_2_778
10
3.1194388
20
2.240782
11
3.1339388
21
3.234782
0
LINE
8
DEFAULT_255_2_778
10
6.0711388
20
2.263282
11
6.6566388
21
2.263282
0
LINE
8
DEFAULT_255_2_778
10
6.6566388
20
2.263282
11
6.6566388
21
2.102882
0
LINE
8
DEFAULT_255_2_778
10
6.6566388
20
2.102882
11
6.0711388
21
2.102882
0
LINE
8
DEFAULT_255_2_778
10
6.0711388
20
2.102882
11
6.0711388
21
2.263282
0
LINE
8
DEFAULT_255_2_778
10
14.8989388
20
2.263282
11
15.4844388
21
2.263282
0
LINE
8
DEFAULT_255_2_778
10
15.4844388
20
2.263282
11
15.4844388
21
2.102882
0
LINE
8
DEFAULT_255_2_778
10
15.4844388
20
2.102882
11
14.8989388
21
2.102882
0
LINE
8
DEFAULT_255_2_778
10
14.8989388
20
2.102882
11
14.8989388
21
2.263282
0
LINE
8
DEFAULT_255_2_778
10
18.5001388
20
3.244082
11
18.7772388
21
3.244082
0
LINE
8
DEFAULT_255_2_778
10
18.7772388
20
3.244082
11
18.1845388
21
2.429682
0
LINE
8
DEFAULT_255_2_778
10
18.1845388
20
2.429682
11
18.8364388
21
1.544082
0
LINE
8
DEFAULT_255_2_778
10
18.8364388
20
1.544082
11
18.5388388
21
1.544082
0
LINE
8
DEFAULT_255_2_778
10
18.5388388
20
1.544082
11
18.0316388
21
2.268282
0
LINE
8
DEFAULT_255_2_778
10
18.0316388
20
2.268282
11
17.5363388
21
1.544082
0
LINE
8
DEFAULT_255_2_778
10
17.5363388
20
1.544082
11
17.2518388
21
1.544082
0
LINE
8
DEFAULT_255_2_778
10
17.2518388
20
1.544082
11
17.8940388
21
2.434382
0
LINE
8
DEFAULT_255_2_778
10
17.8940388
20
2.434382
11
17.3085388
21
3.244082
0
LINE
8
DEFAULT_255_2_778
10
17.3085388
20
3.244082
11
17.5987388
21
3.244082
0
LINE
8
DEFAULT_255_2_778
10
17.5987388
20
3.244082
11
18.0506388
21
2.583982
0
LINE
8
DEFAULT_255_2_778
10
18.0506388
20
2.583982
11
18.5001388
21
3.244082
0
LINE
8
DEFAULT_255_2_778
10
7.6422388
20
3.244082
11
7.9107388
21
3.244082
0
LINE
8
DEFAULT_255_2_778
10
7.9107388
20
3.244082
11
7.9107388
21
2.155082
0
LINE
8
DEFAULT_255_2_778
10
7.9107388
20
2.155082
11
8.2325388
21
2.155082
0
LINE
8
DEFAULT_255_2_778
10
8.2325388
20
2.155082
11
8.2325388
21
1.969582
0
LINE
8
DEFAULT_255_2_778
10
8.2325388
20
1.969582
11
7.9107388
21
1.969582
0
LINE
8
DEFAULT_255_2_778
10
7.9107388
20
1.969582
11
7.9107388
21
1.544382
0
LINE
8
DEFAULT_255_2_778
10
7.9107388
20
1.544382
11
7.6829388
21
1.544382
0
LINE
8
DEFAULT_255_2_778
10
7.6829388
20
1.544382
11
7.6829388
21
1.969582
0
LINE
8
DEFAULT_255_2_778
10
7.6829388
20
1.969582
11
6.8926388
21
1.969582
0
LINE
8
DEFAULT_255_2_778
10
6.8926388
20
1.969582
11
6.8926388
21
2.174382
0
LINE
8
DEFAULT_255_2_778
10
6.8926388
20
2.174382
11
7.6422388
21
3.244082
0
LINE
8
DEFAULT_255_2_778
10
7.0916388
20
2.154782
11
7.6832388
21
2.154782
0
LINE
8
DEFAULT_255_2_778
10
7.6832388
20
2.154782
11
7.6832388
21
3.001682
0
LINE
8
DEFAULT_255_2_778
10
7.6832388
20
3.001682
11
7.0916388
21
2.154782
0
LINE
8
DEFAULT_255_2_778
10
8.5410146
20
3.2441062
11
9.2966146
21
3.2317062
0
LINE
8
DEFAULT_255_2_778
10
9.2966146
20
3.2317062
11
9.5242146
21
3.1597062
0
LINE
8
DEFAULT_255_2_778
10
9.5242146
20
3.1597062
11
9.6199146
21
3.0885062
0
LINE
8
DEFAULT_255_2_778
10
9.6199146
20
3.0885062
11
9.6660146
21
3.0269062
0
LINE
8
DEFAULT_255_2_778
10
9.6660146
20
3.0269062
11
9.6916146
21
2.9684062
0
LINE
8
DEFAULT_255_2_778
10
9.6916146
20
2.9684062
11
9.7051146
21
2.9181062
0
LINE
8
DEFAULT_255_2_778
10
9.7051146
20
2.9181062
11
9.7112146
21
2.8792062
0
LINE
8
DEFAULT_255_2_778
10
9.7112146
20
2.8792062
11
9.7104146
21
2.7581062
0
LINE
8
DEFAULT_255_2_778
10
9.7104146
20
2.7581062
11
9.7030146
21
2.7178062
0
LINE
8
DEFAULT_255_2_778
10
9.7030146
20
2.7178062
11
9.6866146
21
2.6665062
0
LINE
8
DEFAULT_255_2_778
10
9.6866146
20
2.6665062
11
9.6501146
21
2.5998062
0
LINE
8
DEFAULT_255_2_778
10
9.6501146
20
2.5998062
11
9.5707146
21
2.5168062
0
LINE
8
DEFAULT_255_2_778
10
9.5707146
20
2.5168062
11
9.4400146
21
2.4472062
0
LINE
8
DEFAULT_255_2_778
10
9.4400146
20
2.4472062
11
9.4146146
21
2.4400062
0
LINE
8
DEFAULT_255_2_778
10
9.4146146
20
2.4400062
11
9.5686146
21
2.3821062
0
LINE
8
DEFAULT_255_2_778
10
9.5686146
20
2.3821062
11
9.6710146
21
2.3032062
0
LINE
8
DEFAULT_255_2_778
10
9.6710146
20
2.3032062
11
9.7244146
21
2.2300062
0
LINE
8
DEFAULT_255_2_778
10
9.7244146
20
2.2300062
11
9.7551146
21
2.1585062
0
LINE
8
DEFAULT_255_2_778
10
9.7551146
20
2.1585062
11
9.7665146
21
2.1151062
0
LINE
8
DEFAULT_255_2_778
10
9.7665146
20
2.1151062
11
9.7721146
21
2.0839062
0
LINE
8
DEFAULT_255_2_778
10
9.7721146
20
2.0839062
11
9.7715146
21
1.9188062
0
LINE
8
DEFAULT_255_2_778
10
9.7715146
20
1.9188062
11
9.7639146
21
1.8767062
0
LINE
8
DEFAULT_255_2_778
10
9.7639146
20
1.8767062
11
9.7480146
21
1.8228062
0
LINE
8
DEFAULT_255_2_778
10
9.7480146
20
1.8228062
11
9.7181146
21
1.7601062
0
LINE
8
DEFAULT_255_2_778
10
9.7181146
20
1.7601062
11
9.6591146
21
1.6878062
0
LINE
8
DEFAULT_255_2_778
10
9.6591146
20
1.6878062
11
9.5109146
21
1.5950062
0
LINE
8
DEFAULT_255_2_778
10
9.5109146
20
1.5950062
11
9.2974146
21
1.5481062
0
LINE
8
DEFAULT_255_2_778
10
9.2974146
20
1.5481062
11
9.1781146
21
1.5439062
0
LINE
8
DEFAULT_255_2_778
10
9.1781146
20
1.5439062
11
8.5407146
21
1.5439062
0
LINE
8
DEFAULT_255_2_778
10
8.5407146
20
1.5439062
11
8.5410146
21
3.2441062
0
LINE
8
DEFAULT_255_2_778
10
9.1577146
20
1.7368062
11
9.4059146
21
1.7783062
0
LINE
8
DEFAULT_255_2_778
10
9.4059146
20
1.7783062
11
9.4890146
21
1.8437062
0
LINE
8
DEFAULT_255_2_778
10
9.4890146
20
1.8437062
11
9.5234146
21
1.9061062
0
LINE
8
DEFAULT_255_2_778
10
9.5234146
20
1.9061062
11
9.5369146
21
1.9519062
0
LINE
8
DEFAULT_255_2_778
10
9.5369146
20
1.9519062
11
9.5361146
21
2.1077062
0
LINE
8
DEFAULT_255_2_778
10
9.5361146
20
2.1077062
11
9.5194146
21
2.1593062
0
LINE
8
DEFAULT_255_2_778
10
9.5194146
20
2.1593062
11
9.4805146
21
2.2186062
0
LINE
8
DEFAULT_255_2_778
10
9.4805146
20
2.2186062
11
9.3561146
21
2.2953062
0
LINE
8
DEFAULT_255_2_778
10
9.3561146
20
2.2953062
11
9.1207146
21
2.3278062
0
LINE
8
DEFAULT_255_2_778
10
9.1207146
20
2.3278062
11
8.7738146
21
2.3278062
0
LINE
8
DEFAULT_255_2_778
10
8.7738146
20
2.3278062
11
8.7738146
21
1.7362062
0
LINE
8
DEFAULT_255_2_778
10
8.7738146
20
1.7362062
11
9.1577146
21
1.7368062
0
LINE
8
DEFAULT_255_2_778
10
9.1051146
20
2.5260062
11
9.3770146
21
2.5856062
0
LINE
8
DEFAULT_255_2_778
10
9.3770146
20
2.5856062
11
9.4472146
21
2.6517062
0
LINE
8
DEFAULT_255_2_778
10
9.4472146
20
2.6517062
11
9.4720146
21
2.7088062
0
LINE
8
DEFAULT_255_2_778
10
9.4720146
20
2.7088062
11
9.4797146
21
2.7480062
0
LINE
8
DEFAULT_255_2_778
10
9.4797146
20
2.7480062
11
9.4773146
21
2.8369062
0
LINE
8
DEFAULT_255_2_778
10
9.4773146
20
2.8369062
11
9.4646146
21
2.8829062
0
LINE
8
DEFAULT_255_2_778
10
9.4646146
20
2.8829062
11
9.4284146
21
2.9438062
0
LINE
8
DEFAULT_255_2_778
10
9.4284146
20
2.9438062
11
9.3085146
21
3.0213062
0
LINE
8
DEFAULT_255_2_778
10
9.3085146
20
3.0213062
11
9.1045146
21
3.0515062
0
LINE
8
DEFAULT_255_2_778
10
9.1045146
20
3.0515062
11
8.7735146
21
3.0515062
0
LINE
8
DEFAULT_255_2_778
10
8.7735146
20
3.0515062
11
8.7735146
21
2.5263062
0
LINE
8
DEFAULT_255_2_778
10
8.7735146
20
2.5263062
11
9.1051146
21
2.5260062
0
LINE
8
DEFAULT_255_2_778
10
10.4542323
20
2.1801739
11
11.1061323
21
2.1801739
0
LINE
8
DEFAULT_255_2_778
10
11.1061323
20
2.1801739
11
10.7796323
21
3.0247739
0
LINE
8
DEFAULT_255_2_778
10
10.7796323
20
3.0247739
11
10.4542323
21
2.1801739
0
LINE
8
DEFAULT_255_2_778
10
10.6505323
20
3.2440739
11
10.9058323
21
3.2440739
0
LINE
8
DEFAULT_255_2_778
10
10.9058323
20
3.2440739
11
11.6035323
21
1.5441739
0
LINE
8
DEFAULT_255_2_778
10
11.6035323
20
1.5441739
11
11.3506323
21
1.5441739
0
LINE
8
DEFAULT_255_2_778
10
11.3506323
20
1.5441739
11
11.1794323
21
1.9875739
0
LINE
8
DEFAULT_255_2_778
10
11.1794323
20
1.9875739
11
10.3793323
21
1.9875739
0
LINE
8
DEFAULT_255_2_778
10
10.3793323
20
1.9875739
11
10.2105323
21
1.5441739
0
LINE
8
DEFAULT_255_2_778
10
10.2105323
20
1.5441739
11
9.9528323
21
1.5441739
0
LINE
8
DEFAULT_255_2_778
10
9.9528323
20
1.5441739
11
10.6505323
21
3.2440739
0
LINE
8
DEFAULT_255_2_778
10
11.957099
20
2.9781427
11
11.907599
21
2.8855427
0
LINE
8
DEFAULT_255_2_778
10
11.907599
20
2.8855427
11
11.877699
21
2.8128427
0
LINE
8
DEFAULT_255_2_778
10
11.877699
20
2.8128427
11
11.859399
21
2.7577427
0
LINE
8
DEFAULT_255_2_778
10
11.859399
20
2.7577427
11
11.844399
21
2.7019427
0
LINE
8
DEFAULT_255_2_778
10
11.844399
20
2.7019427
11
11.832199
21
2.6453427
0
LINE
8
DEFAULT_255_2_778
10
11.832199
20
2.6453427
11
11.827199
21
2.6167427
0
LINE
8
DEFAULT_255_2_778
10
11.827199
20
2.6167427
11
11.821899
21
2.5804427
0
LINE
8
DEFAULT_255_2_778
10
11.821899
20
2.5804427
11
11.817599
21
2.5440427
0
LINE
8
DEFAULT_255_2_778
10
11.817599
20
2.5440427
11
11.814499
21
2.5074427
0
LINE
8
DEFAULT_255_2_778
10
11.814499
20
2.5074427
11
11.814199
21
2.2854427
0
LINE
8
DEFAULT_255_2_778
10
11.814199
20
2.2854427
11
11.817399
21
2.2481427
0
LINE
8
DEFAULT_255_2_778
10
11.817399
20
2.2481427
11
11.821599
21
2.2111427
0
LINE
8
DEFAULT_255_2_778
10
11.821599
20
2.2111427
11
11.826899
21
2.1740427
0
LINE
8
DEFAULT_255_2_778
10
11.826899
20
2.1740427
11
11.837499
21
2.1164427
0
LINE
8
DEFAULT_255_2_778
10
11.837499
20
2.1164427
11
11.850699
21
2.0592427
0
LINE
8
DEFAULT_255_2_778
10
11.850699
20
2.0592427
11
11.867099
21
2.0029427
0
LINE
8
DEFAULT_255_2_778
10
11.867099
20
2.0029427
11
11.896199
21
1.9235427
0
LINE
8
DEFAULT_255_2_778
10
11.896199
20
1.9235427
11
11.931399
21
1.8483427
0
LINE
8
DEFAULT_255_2_778
10
11.931399
20
1.8483427
11
11.984599
21
1.7602427
0
LINE
8
DEFAULT_255_2_778
10
11.984599
20
1.7602427
11
12.043299
21
1.6862427
0
LINE
8
DEFAULT_255_2_778
10
12.043299
20
1.6862427
11
12.128499
21
1.6097427
0
LINE
8
DEFAULT_255_2_778
10
12.128499
20
1.6097427
11
12.242799
21
1.5465427
0
LINE
8
DEFAULT_255_2_778
10
12.242799
20
1.5465427
11
12.374299
21
1.5121427
0
LINE
8
DEFAULT_255_2_778
10
12.374299
20
1.5121427
11
12.534899
21
1.5094427
0
LINE
8
DEFAULT_255_2_778
10
12.534899
20
1.5094427
11
12.669099
21
1.5388427
0
LINE
8
DEFAULT_255_2_778
10
12.669099
20
1.5388427
11
12.785999
21
1.5973427
0
LINE
8
DEFAULT_255_2_778
10
12.785999
20
1.5973427
11
12.872799
21
1.6690427
0
LINE
8
DEFAULT_255_2_778
10
12.872799
20
1.6690427
11
12.947699
21
1.7602427
0
LINE
8
DEFAULT_255_2_778
10
12.947699
20
1.7602427
11
13.000599
21
1.8483427
0
LINE
8
DEFAULT_255_2_778
10
13.000599
20
1.8483427
11
13.035799
21
1.9238427
0
LINE
8
DEFAULT_255_2_778
10
13.035799
20
1.9238427
11
13.064899
21
2.0034427
0
LINE
8
DEFAULT_255_2_778
10
13.064899
20
2.0034427
11
13.081299
21
2.0597427
0
LINE
8
DEFAULT_255_2_778
10
13.081299
20
2.0597427
11
13.094499
21
2.1169427
0
LINE
8
DEFAULT_255_2_778
10
13.094499
20
2.1169427
11
13.105099
21
2.1746427
0
LINE
8
DEFAULT_255_2_778
10
13.105099
20
2.1746427
11
13.110399
21
2.2114427
0
LINE
8
DEFAULT_255_2_778
10
13.110399
20
2.2114427
11
13.114599
21
2.2484427
0
LINE
8
DEFAULT_255_2_778
10
13.114599
20
2.2484427
11
13.117799
21
2.2854427
0
LINE
8
DEFAULT_255_2_778
10
13.117799
20
2.2854427
11
13.117799
21
2.5072427
0
LINE
8
DEFAULT_255_2_778
10
13.117799
20
2.5072427
11
13.114599
21
2.5437427
0
LINE
8
DEFAULT_255_2_778
10
13.114599
20
2.5437427
11
13.110399
21
2.5802427
0
LINE
8
DEFAULT_255_2_778
10
13.110399
20
2.5802427
11
13.105099
21
2.6164427
0
LINE
8
DEFAULT_255_2_778
10
13.105099
20
2.6164427
11
13.094499
21
2.6733427
0
LINE
8
DEFAULT_255_2_778
10
13.094499
20
2.6733427
11
13.080999
21
2.7297427
0
LINE
8
DEFAULT_255_2_778
10
13.080999
20
2.7297427
11
13.064399
21
2.7852427
0
LINE
8
DEFAULT_255_2_778
10
13.064399
20
2.7852427
11
13.034699
21
2.8636427
0
LINE
8
DEFAULT_255_2_778
10
13.034699
20
2.8636427
11
12.998999
21
2.9376427
0
LINE
8
DEFAULT_255_2_778
10
12.998999
20
2.9376427
11
12.945599
21
3.0236427
0
LINE
8
DEFAULT_255_2_778
10
12.945599
20
3.0236427
11
12.870899
21
3.1120427
0
LINE
8
DEFAULT_255_2_778
10
12.870899
20
3.1120427
11
12.784399
21
3.1813427
0
LINE
8
DEFAULT_255_2_778
10
12.784399
20
3.1813427
11
12.668299
21
3.2379427
0
LINE
8
DEFAULT_255_2_778
10
12.668299
20
3.2379427
11
12.512199
21
3.2681427
0
LINE
8
DEFAULT_255_2_778
10
12.512199
20
3.2681427
11
12.353199
21
3.2602427
0
LINE
8
DEFAULT_255_2_778
10
12.353199
20
3.2602427
11
12.225099
21
3.2221427
0
LINE
8
DEFAULT_255_2_778
10
12.225099
20
3.2221427
11
12.113699
21
3.1564427
0
LINE
8
DEFAULT_255_2_778
10
12.113699
20
3.1564427
11
12.030599
21
3.0784427
0
LINE
8
DEFAULT_255_2_778
10
12.030599
20
3.0784427
11
11.957099
21
2.9781427
0
LINE
8
DEFAULT_255_2_778
10
12.119299
20
1.9452427
11
12.092499
21
2.0106427
0
LINE
8
DEFAULT_255_2_778
10
12.092499
20
2.0106427
11
12.071599
21
2.0777427
0
LINE
8
DEFAULT_255_2_778
10
12.071599
20
2.0777427
11
12.059699
21
2.1272427
0
LINE
8
DEFAULT_255_2_778
10
12.059699
20
2.1272427
11
12.050199
21
2.1772427
0
LINE
8
DEFAULT_255_2_778
10
12.050199
20
2.1772427
11
12.043099
21
2.2275427
0
LINE
8
DEFAULT_255_2_778
10
12.043099
20
2.2275427
11
12.040199
21
2.2553427
0
LINE
8
DEFAULT_255_2_778
10
12.040199
20
2.2553427
11
12.040199
21
2.5320427
0
LINE
8
DEFAULT_255_2_778
10
12.040199
20
2.5320427
11
12.046499
21
2.5842427
0
LINE
8
DEFAULT_255_2_778
10
12.046499
20
2.5842427
11
12.054999
21
2.6337427
0
LINE
8
DEFAULT_255_2_778
10
12.054999
20
2.6337427
11
12.065799
21
2.6826427
0
LINE
8
DEFAULT_255_2_778
10
12.065799
20
2.6826427
11
12.085699
21
2.7511427
0
LINE
8
DEFAULT_255_2_778
10
12.085699
20
2.7511427
11
12.110499
21
2.8159427
0
LINE
8
DEFAULT_255_2_778
10
12.110499
20
2.8159427
11
12.154699
21
2.8998427
0
LINE
8
DEFAULT_255_2_778
10
12.154699
20
2.8998427
11
12.219499
21
2.9802427
0
LINE
8
DEFAULT_255_2_778
10
12.219499
20
2.9802427
11
12.311899
21
3.0445427
0
LINE
8
DEFAULT_255_2_778
10
12.311899
20
3.0445427
11
12.451299
21
3.0765427
0
LINE
8
DEFAULT_255_2_778
10
12.451299
20
3.0765427
11
12.593699
21
3.0554427
0
LINE
8
DEFAULT_255_2_778
10
12.593699
20
3.0554427
11
12.691299
21
2.9990427
0
LINE
8
DEFAULT_255_2_778
10
12.691299
20
2.9990427
11
12.757199
21
2.9294427
0
LINE
8
DEFAULT_255_2_778
10
12.757199
20
2.9294427
11
12.803999
21
2.8532427
0
LINE
8
DEFAULT_255_2_778
10
12.803999
20
2.8532427
11
12.839999
21
2.7704427
0
LINE
8
DEFAULT_255_2_778
10
12.839999
20
2.7704427
11
12.860099
21
2.7072427
0
LINE
8
DEFAULT_255_2_778
10
12.860099
20
2.7072427
11
12.872299
21
2.6585427
0
LINE
8
DEFAULT_255_2_778
10
12.872299
20
2.6585427
11
12.881799
21
2.6093427
0
LINE
8
DEFAULT_255_2_778
10
12.881799
20
2.6093427
11
12.888899
21
2.5598427
0
LINE
8
DEFAULT_255_2_778
10
12.888899
20
2.5598427
11
12.892099
21
2.5326427
0
LINE
8
DEFAULT_255_2_778
10
12.892099
20
2.5326427
11
12.892099
21
2.2558427
0
LINE
8
DEFAULT_255_2_778
10
12.892099
20
2.2558427
11
12.885799
21
2.2029427
0
LINE
8
DEFAULT_255_2_778
10
12.885799
20
2.2029427
11
12.877599
21
2.1526427
0
LINE
8
DEFAULT_255_2_778
10
12.877599
20
2.1526427
11
12.866999
21
2.1029427
0
LINE
8
DEFAULT_255_2_778
10
12.866999
20
2.1029427
11
12.847399
21
2.0333427
0
LINE
8
DEFAULT_255_2_778
10
12.847399
20
2.0333427
11
12.822799
21
1.9674427
0
LINE
8
DEFAULT_255_2_778
10
12.822799
20
1.9674427
11
12.778899
21
1.8814427
0
LINE
8
DEFAULT_255_2_778
10
12.778899
20
1.8814427
11
12.713799
21
1.7986427
0
LINE
8
DEFAULT_255_2_778
10
12.713799
20
1.7986427
11
12.621199
21
1.7325427
0
LINE
8
DEFAULT_255_2_778
10
12.621199
20
1.7325427
11
12.495499
21
1.7002427
0
LINE
8
DEFAULT_255_2_778
10
12.495499
20
1.7002427
11
12.351599
21
1.7163427
0
LINE
8
DEFAULT_255_2_778
10
12.351599
20
1.7163427
11
12.250999
21
1.7703427
0
LINE
8
DEFAULT_255_2_778
10
12.250999
20
1.7703427
11
12.184899
21
1.8365427
0
LINE
8
DEFAULT_255_2_778
10
12.184899
20
1.8365427
11
12.135399
21
1.9132427
0
LINE
8
DEFAULT_255_2_778
10
12.135399
20
1.9132427
11
12.119299
21
1.9452427
0
LINE
8
DEFAULT_255_2_778
10
14.5206313
20
1.7995104
11
14.5603313
21
1.8728104
0
LINE
8
DEFAULT_255_2_778
10
14.5603313
20
1.8728104
11
14.5933313
21
1.9492104
0
LINE
8
DEFAULT_255_2_778
10
14.5933313
20
1.9492104
11
14.6209313
21
2.0312104
0
LINE
8
DEFAULT_255_2_778
10
14.6209313
20
2.0312104
11
14.6357313
21
2.0881104
0
LINE
8
DEFAULT_255_2_778
10
14.6357313
20
2.0881104
11
14.6476313
21
2.1456104
0
LINE
8
DEFAULT_255_2_778
10
14.6476313
20
2.1456104
11
14.6523313
21
2.1744104
0
LINE
8
DEFAULT_255_2_778
10
14.6523313
20
2.1744104
11
14.6576313
21
2.2112104
0
LINE
8
DEFAULT_255_2_778
10
14.6576313
20
2.2112104
11
14.6619313
21
2.2482104
0
LINE
8
DEFAULT_255_2_778
10
14.6619313
20
2.2482104
11
14.6650313
21
2.2852104
0
LINE
8
DEFAULT_255_2_778
10
14.6650313
20
2.2852104
11
14.6650313
21
2.5070104
0
LINE
8
DEFAULT_255_2_778
10
14.6650313
20
2.5070104
11
14.6619313
21
2.5435104
0
LINE
8
DEFAULT_255_2_778
10
14.6619313
20
2.5435104
11
14.6576313
21
2.5800104
0
LINE
8
DEFAULT_255_2_778
10
14.6576313
20
2.5800104
11
14.6523313
21
2.6162104
0
LINE
8
DEFAULT_255_2_778
10
14.6523313
20
2.6162104
11
14.6418313
21
2.6731104
0
LINE
8
DEFAULT_255_2_778
10
14.6418313
20
2.6731104
11
14.6283313
21
2.7295104
0
LINE
8
DEFAULT_255_2_778
10
14.6283313
20
2.7295104
11
14.6116313
21
2.7850104
0
LINE
8
DEFAULT_255_2_778
10
14.6116313
20
2.7850104
11
14.5820313
21
2.8634104
0
LINE
8
DEFAULT_255_2_778
10
14.5820313
20
2.8634104
11
14.5462313
21
2.9374104
0
LINE
8
DEFAULT_255_2_778
10
14.5462313
20
2.9374104
11
14.4928313
21
3.0234104
0
LINE
8
DEFAULT_255_2_778
10
14.4928313
20
3.0234104
11
14.4182313
21
3.1118104
0
LINE
8
DEFAULT_255_2_778
10
14.4182313
20
3.1118104
11
14.3317313
21
3.1811104
0
LINE
8
DEFAULT_255_2_778
10
14.3317313
20
3.1811104
11
14.2155313
21
3.2377104
0
LINE
8
DEFAULT_255_2_778
10
14.2155313
20
3.2377104
11
14.0594313
21
3.2679104
0
LINE
8
DEFAULT_255_2_778
10
14.0594313
20
3.2679104
11
13.9004313
21
3.2600104
0
LINE
8
DEFAULT_255_2_778
10
13.9004313
20
3.2600104
11
13.7723313
21
3.2219104
0
LINE
8
DEFAULT_255_2_778
10
13.7723313
20
3.2219104
11
13.6609313
21
3.1562104
0
LINE
8
DEFAULT_255_2_778
10
13.6609313
20
3.1562104
11
13.5779313
21
3.0782104
0
LINE
8
DEFAULT_255_2_778
10
13.5779313
20
3.0782104
11
13.5046313
21
2.9782104
0
LINE
8
DEFAULT_255_2_778
10
13.5046313
20
2.9782104
11
13.4551313
21
2.8856104
0
LINE
8
DEFAULT_255_2_778
10
13.4551313
20
2.8856104
11
13.4252313
21
2.8128104
0
LINE
8
DEFAULT_255_2_778
10
13.4252313
20
2.8128104
11
13.4069313
21
2.7578104
0
LINE
8
DEFAULT_255_2_778
10
13.4069313
20
2.7578104
11
13.3919313
21
2.7020104
0
LINE
8
DEFAULT_255_2_778
10
13.3919313
20
2.7020104
11
13.3797313
21
2.6453104
0
LINE
8
DEFAULT_255_2_778
10
13.3797313
20
2.6453104
11
13.3747313
21
2.6168104
0
LINE
8
DEFAULT_255_2_778
10
13.3747313
20
2.6168104
11
13.3694313
21
2.5805104
0
LINE
8
DEFAULT_255_2_778
10
13.3694313
20
2.5805104
11
13.3651313
21
2.5440104
0
LINE
8
DEFAULT_255_2_778
10
13.3651313
20
2.5440104
11
13.3620313
21
2.5075104
0
LINE
8
DEFAULT_255_2_778
10
13.3620313
20
2.5075104
11
13.3617313
21
2.2855104
0
LINE
8
DEFAULT_255_2_778
10
13.3617313
20
2.2855104
11
13.3649313
21
2.2482104
0
LINE
8
DEFAULT_255_2_778
10
13.3649313
20
2.2482104
11
13.3691313
21
2.2112104
0
LINE
8
DEFAULT_255_2_778
10
13.3691313
20
2.2112104
11
13.3744313
21
2.1741104
0
LINE
8
DEFAULT_255_2_778
10
13.3744313
20
2.1741104
11
13.3850313
21
2.1164104
0
LINE
8
DEFAULT_255_2_778
10
13.3850313
20
2.1164104
11
13.3982313
21
2.0593104
0
LINE
8
DEFAULT_255_2_778
10
13.3982313
20
2.0593104
11
13.4146313
21
2.0029104
0
LINE
8
DEFAULT_255_2_778
10
13.4146313
20
2.0029104
11
13.4437313
21
1.9236104
0
LINE
8
DEFAULT_255_2_778
10
13.4437313
20
1.9236104
11
13.4789313
21
1.8484104
0
LINE
8
DEFAULT_255_2_778
10
13.4789313
20
1.8484104
11
13.5321313
21
1.7603104
0
LINE
8
DEFAULT_255_2_778
10
13.5321313
20
1.7603104
11
13.5908313
21
1.6862104
0
LINE
8
DEFAULT_255_2_778
10
13.5908313
20
1.6862104
11
13.6760313
21
1.6098104
0
LINE
8
DEFAULT_255_2_778
10
13.6760313
20
1.6098104
11
13.7903313
21
1.5465104
0
LINE
8
DEFAULT_255_2_778
10
13.7903313
20
1.5465104
11
13.9218313
21
1.5121104
0
LINE
8
DEFAULT_255_2_778
10
13.9218313
20
1.5121104
11
14.0824313
21
1.5095104
0
LINE
8
DEFAULT_255_2_778
10
14.0824313
20
1.5095104
11
14.2166313
21
1.5388104
0
LINE
8
DEFAULT_255_2_778
10
14.2166313
20
1.5388104
11
14.3335313
21
1.5973104
0
LINE
8
DEFAULT_255_2_778
10
14.3335313
20
1.5973104
11
14.4203313
21
1.6690104
0
LINE
8
DEFAULT_255_2_778
10
14.4203313
20
1.6690104
11
14.4952313
21
1.7603104
0
LINE
8
DEFAULT_255_2_778
10
14.4952313
20
1.7603104
11
14.5206313
21
1.7995104
0
LINE
8
DEFAULT_255_2_778
10
13.6662313
20
1.9452104
11
13.6395313
21
2.0106104
0
LINE
8
DEFAULT_255_2_778
10
13.6395313
20
2.0106104
11
13.6186313
21
2.0778104
0
LINE
8
DEFAULT_255_2_778
10
13.6186313
20
2.0778104
11
13.6067313
21
2.1273104
0
LINE
8
DEFAULT_255_2_778
10
13.6067313
20
2.1273104
11
13.5972313
21
2.1773104
0
LINE
8
DEFAULT_255_2_778
10
13.5972313
20
2.1773104
11
13.5900313
21
2.2276104
0
LINE
8
DEFAULT_255_2_778
10
13.5900313
20
2.2276104
11
13.5871313
21
2.2553104
0
LINE
8
DEFAULT_255_2_778
10
13.5871313
20
2.2553104
11
13.5871313
21
2.5321104
0
LINE
8
DEFAULT_255_2_778
10
13.5871313
20
2.5321104
11
13.5935313
21
2.5842104
0
LINE
8
DEFAULT_255_2_778
10
13.5935313
20
2.5842104
11
13.6019313
21
2.6337104
0
LINE
8
DEFAULT_255_2_778
10
13.6019313
20
2.6337104
11
13.6128313
21
2.6826104
0
LINE
8
DEFAULT_255_2_778
10
13.6128313
20
2.6826104
11
13.6326313
21
2.7512104
0
LINE
8
DEFAULT_255_2_778
10
13.6326313
20
2.7512104
11
13.6575313
21
2.8160104
0
LINE
8
DEFAULT_255_2_778
10
13.6575313
20
2.8160104
11
13.7017313
21
2.8999104
0
LINE
8
DEFAULT_255_2_778
10
13.7017313
20
2.8999104
11
13.7665313
21
2.9803104
0
LINE
8
DEFAULT_255_2_778
10
13.7665313
20
2.9803104
11
13.8589313
21
3.0446104
0
LINE
8
DEFAULT_255_2_778
10
13.8589313
20
3.0446104
11
13.9983313
21
3.0766104
0
LINE
8
DEFAULT_255_2_778
10
13.9983313
20
3.0766104
11
14.1406313
21
3.0554104
0
LINE
8
DEFAULT_255_2_778
10
14.1406313
20
3.0554104
11
14.2383313
21
2.9991104
0
LINE
8
DEFAULT_255_2_778
10
14.2383313
20
2.9991104
11
14.3041313
21
2.9295104
0
LINE
8
DEFAULT_255_2_778
10
14.3041313
20
2.9295104
11
14.3510313
21
2.8533104
0
LINE
8
DEFAULT_255_2_778
10
14.3510313
20
2.8533104
11
14.3870313
21
2.7705104
0
LINE
8
DEFAULT_255_2_778
10
14.3870313
20
2.7705104
11
14.4071313
21
2.7072104
0
LINE
8
DEFAULT_255_2_778
10
14.4071313
20
2.7072104
11
14.4192313
21
2.6586104
0
LINE
8
DEFAULT_255_2_778
10
14.4192313
20
2.6586104
11
14.4288313
21
2.6094104
0
LINE
8
DEFAULT_255_2_778
10
14.4288313
20
2.6094104
11
14.4359313
21
2.5599104
0
LINE
8
DEFAULT_255_2_778
10
14.4359313
20
2.5599104
11
14.4391313
21
2.5326104
0
LINE
8
DEFAULT_255_2_778
10
14.4391313
20
2.5326104
11
14.4391313
21
2.2559104
0
LINE
8
DEFAULT_255_2_778
10
14.4391313
20
2.2559104
11
14.4327313
21
2.2030104
0
LINE
8
DEFAULT_255_2_778
10
14.4327313
20
2.2030104
11
14.4245313
21
2.1527104
0
LINE
8
DEFAULT_255_2_778
10
14.4245313
20
2.1527104
11
14.4139313
21
2.1029104
0
LINE
8
DEFAULT_255_2_778
10
14.4139313
20
2.1029104
11
14.3944313
21
2.0334104
0
LINE
8
DEFAULT_255_2_778
10
14.3944313
20
2.0334104
11
14.3698313
21
1.9675104
0
LINE
8
DEFAULT_255_2_778
10
14.3698313
20
1.9675104
11
14.3258313
21
1.8815104
0
LINE
8
DEFAULT_255_2_778
10
14.3258313
20
1.8815104
11
14.2608313
21
1.7987104
0
LINE
8
DEFAULT_255_2_778
10
14.2608313
20
1.7987104
11
14.1681313
21
1.7325104
0
LINE
8
DEFAULT_255_2_778
10
14.1681313
20
1.7325104
11
14.0425313
21
1.7002104
0
LINE
8
DEFAULT_255_2_778
10
14.0425313
20
1.7002104
11
13.8985313
21
1.7164104
0
LINE
8
DEFAULT_255_2_778
10
13.8985313
20
1.7164104
11
13.7980313
21
1.7704104
0
LINE
8
DEFAULT_255_2_778
10
13.7980313
20
1.7704104
11
13.7319313
21
1.8365104
0
LINE
8
DEFAULT_255_2_778
10
13.7319313
20
1.8365104
11
13.6824313
21
1.9132104
0
LINE
8
DEFAULT_255_2_778
10
13.6824313
20
1.9132104
11
13.6662313
21
1.9452104
0
LINE
8
DEFAULT_255_2_778
10
15.870499
20
2.9781427
11
15.820999
21
2.8855427
0
LINE
8
DEFAULT_255_2_778
10
15.820999
20
2.8855427
11
15.791099
21
2.8128427
0
LINE
8
DEFAULT_255_2_778
10
15.791099
20
2.8128427
11
15.772799
21
2.7577427
0
LINE
8
DEFAULT_255_2_778
10
15.772799
20
2.7577427
11
15.757799
21
2.7019427
0
LINE
8
DEFAULT_255_2_778
10
15.757799
20
2.7019427
11
15.745599
21
2.6453427
0
LINE
8
DEFAULT_255_2_778
10
15.745599
20
2.6453427
11
15.740599
21
2.6167427
0
LINE
8
DEFAULT_255_2_778
10
15.740599
20
2.6167427
11
15.735299
21
2.5804427
0
LINE
8
DEFAULT_255_2_778
10
15.735299
20
2.5804427
11
15.730999
21
2.5440427
0
LINE
8
DEFAULT_255_2_778
10
15.730999
20
2.5440427
11
15.727899
21
2.5074427
0
LINE
8
DEFAULT_255_2_778
10
15.727899
20
2.5074427
11
15.727599
21
2.2854427
0
LINE
8
DEFAULT_255_2_778
10
15.727599
20
2.2854427
11
15.730799
21
2.2481427
0
LINE
8
DEFAULT_255_2_778
10
15.730799
20
2.2481427
11
15.734999
21
2.2111427
0
LINE
8
DEFAULT_255_2_778
10
15.734999
20
2.2111427
11
15.740299
21
2.1740427
0
LINE
8
DEFAULT_255_2_778
10
15.740299
20
2.1740427
11
15.750899
21
2.1164427
0
LINE
8
DEFAULT_255_2_778
10
15.750899
20
2.1164427
11
15.764099
21
2.0592427
0
LINE
8
DEFAULT_255_2_778
10
15.764099
20
2.0592427
11
15.780499
21
2.0029427
0
LINE
8
DEFAULT_255_2_778
10
15.780499
20
2.0029427
11
15.809599
21
1.9235427
0
LINE
8
DEFAULT_255_2_778
10
15.809599
20
1.9235427
11
15.844799
21
1.8483427
0
LINE
8
DEFAULT_255_2_778
10
15.844799
20
1.8483427
11
15.897999
21
1.7602427
0
LINE
8
DEFAULT_255_2_778
10
15.897999
20
1.7602427
11
15.956699
21
1.6862427
0
LINE
8
DEFAULT_255_2_778
10
15.956699
20
1.6862427
11
16.041899
21
1.6097427
0
LINE
8
DEFAULT_255_2_778
10
16.041899
20
1.6097427
11
16.156199
21
1.5465427
0
LINE
8
DEFAULT_255_2_778
10
16.156199
20
1.5465427
11
16.287699
21
1.5121427
0
LINE
8
DEFAULT_255_2_778
10
16.287699
20
1.5121427
11
16.448299
21
1.5094427
0
LINE
8
DEFAULT_255_2_778
10
16.448299
20
1.5094427
11
16.582499
21
1.5388427
0
LINE
8
DEFAULT_255_2_778
10
16.582499
20
1.5388427
11
16.699399
21
1.5973427
0
LINE
8
DEFAULT_255_2_778
10
16.699399
20
1.5973427
11
16.786199
21
1.6690427
0
LINE
8
DEFAULT_255_2_778
10
16.786199
20
1.6690427
11
16.861099
21
1.7602427
0
LINE
8
DEFAULT_255_2_778
10
16.861099
20
1.7602427
11
16.913999
21
1.8483427
0
LINE
8
DEFAULT_255_2_778
10
16.913999
20
1.8483427
11
16.949199
21
1.9238427
0
LINE
8
DEFAULT_255_2_778
10
16.949199
20
1.9238427
11
16.978299
21
2.0034427
0
LINE
8
DEFAULT_255_2_778
10
16.978299
20
2.0034427
11
16.994699
21
2.0597427
0
LINE
8
DEFAULT_255_2_778
10
16.994699
20
2.0597427
11
17.007899
21
2.1169427
0
LINE
8
DEFAULT_255_2_778
10
17.007899
20
2.1169427
11
17.018499
21
2.1746427
0
LINE
8
DEFAULT_255_2_778
10
17.018499
20
2.1746427
11
17.023799
21
2.2114427
0
LINE
8
DEFAULT_255_2_778
10
17.023799
20
2.2114427
11
17.027999
21
2.2484427
0
LINE
8
DEFAULT_255_2_778
10
17.027999
20
2.2484427
11
17.031199
21
2.2854427
0
LINE
8
DEFAULT_255_2_778
10
17.031199
20
2.2854427
11
17.031199
21
2.5072427
0
LINE
8
DEFAULT_255_2_778
10
17.031199
20
2.5072427
11
17.027999
21
2.5437427
0
LINE
8
DEFAULT_255_2_778
10
17.027999
20
2.5437427
11
17.023799
21
2.5802427
0
LINE
8
DEFAULT_255_2_778
10
17.023799
20
2.5802427
11
17.018499
21
2.6164427
0
LINE
8
DEFAULT_255_2_778
10
17.018499
20
2.6164427
11
17.007899
21
2.6733427
0
LINE
8
DEFAULT_255_2_778
10
17.007899
20
2.6733427
11
16.994399
21
2.7297427
0
LINE
8
DEFAULT_255_2_778
10
16.994399
20
2.7297427
11
16.977799
21
2.7852427
0
LINE
8
DEFAULT_255_2_778
10
16.977799
20
2.7852427
11
16.948099
21
2.8636427
0
LINE
8
DEFAULT_255_2_778
10
16.948099
20
2.8636427
11
16.912399
21
2.9376427
0
LINE
8
DEFAULT_255_2_778
10
16.912399
20
2.9376427
11
16.858999
21
3.0236427
0
LINE
8
DEFAULT_255_2_778
10
16.858999
20
3.0236427
11
16.784299
21
3.1120427
0
LINE
8
DEFAULT_255_2_778
10
16.784299
20
3.1120427
11
16.697799
21
3.1813427
0
LINE
8
DEFAULT_255_2_778
10
16.697799
20
3.1813427
11
16.581699
21
3.2379427
0
LINE
8
DEFAULT_255_2_778
10
16.581699
20
3.2379427
11
16.425599
21
3.2681427
0
LINE
8
DEFAULT_255_2_778
10
16.425599
20
3.2681427
11
16.266599
21
3.2602427
0
LINE
8
DEFAULT_255_2_778
10
16.266599
20
3.2602427
11
16.138499
21
3.2221427
0
LINE
8
DEFAULT_255_2_778
10
16.138499
20
3.2221427
11
16.027099
21
3.1564427
0
LINE
8
DEFAULT_255_2_778
10
16.027099
20
3.1564427
11
15.943999
21
3.0784427
0
LINE
8
DEFAULT_255_2_778
10
15.943999
20
3.0784427
11
15.870499
21
2.9781427
0
LINE
8
DEFAULT_255_2_778
10
16.032699
20
1.9452427
11
16.005899
21
2.0106427
0
LINE
8
DEFAULT_255_2_778
10
16.005899
20
2.0106427
11
15.984999
21
2.0777427
0
LINE
8
DEFAULT_255_2_778
10
15.984999
20
2.0777427
11
15.973099
21
2.1272427
0
LINE
8
DEFAULT_255_2_778
10
15.973099
20
2.1272427
11
15.963599
21
2.1772427
0
LINE
8
DEFAULT_255_2_778
10
15.963599
20
2.1772427
11
15.956499
21
2.2275427
0
LINE
8
DEFAULT_255_2_778
10
15.956499
20
2.2275427
11
15.953599
21
2.2553427
0
LINE
8
DEFAULT_255_2_778
10
15.953599
20
2.2553427
11
15.953599
21
2.5320427
0
LINE
8
DEFAULT_255_2_778
10
15.953599
20
2.5320427
11
15.959899
21
2.5842427
0
LINE
8
DEFAULT_255_2_778
10
15.959899
20
2.5842427
11
15.968399
21
2.6337427
0
LINE
8
DEFAULT_255_2_778
10
15.968399
20
2.6337427
11
15.979199
21
2.6826427
0
LINE
8
DEFAULT_255_2_778
10
15.979199
20
2.6826427
11
15.999099
21
2.7511427
0
LINE
8
DEFAULT_255_2_778
10
15.999099
20
2.7511427
11
16.023899
21
2.8159427
0
LINE
8
DEFAULT_255_2_778
10
16.023899
20
2.8159427
11
16.068099
21
2.8998427
0
LINE
8
DEFAULT_255_2_778
10
16.068099
20
2.8998427
11
16.132899
21
2.9802427
0
LINE
8
DEFAULT_255_2_778
10
16.132899
20
2.9802427
11
16.225299
21
3.0445427
0
LINE
8
DEFAULT_255_2_778
10
16.225299
20
3.0445427
11
16.364699
21
3.0765427
0
LINE
8
DEFAULT_255_2_778
10
16.364699
20
3.0765427
11
16.507099
21
3.0554427
0
LINE
8
DEFAULT_255_2_778
10
16.507099
20
3.0554427
11
16.604699
21
2.9990427
0
LINE
8
DEFAULT_255_2_778
10
16.604699
20
2.9990427
11
16.670599
21
2.9294427
0
LINE
8
DEFAULT_255_2_778
10
16.670599
20
2.9294427
11
16.717399
21
2.8532427
0
LINE
8
DEFAULT_255_2_778
10
16.717399
20
2.8532427
11
16.753399
21
2.7704427
0
LINE
8
DEFAULT_255_2_778
10
16.753399
20
2.7704427
11
16.773499
21
2.7072427
0
LINE
8
DEFAULT_255_2_778
10
16.773499
20
2.7072427
11
16.785699
21
2.6585427
0
LINE
8
DEFAULT_255_2_778
10
16.785699
20
2.6585427
11
16.795199
21
2.6093427
0
LINE
8
DEFAULT_255_2_778
10
16.795199
20
2.6093427
11
16.802299
21
2.5598427
0
LINE
8
DEFAULT_255_2_778
10
16.802299
20
2.5598427
11
16.805499
21
2.5326427
0
LINE
8
DEFAULT_255_2_778
10
16.805499
20
2.5326427
11
16.805499
21
2.2558427
0
LINE
8
DEFAULT_255_2_778
10
16.805499
20
2.2558427
11
16.799199
21
2.2029427
0
LINE
8
DEFAULT_255_2_778
10
16.799199
20
2.2029427
11
16.790999
21
2.1526427
0
LINE
8
DEFAULT_255_2_778
10
16.790999
20
2.1526427
11
16.780399
21
2.1029427
0
LINE
8
DEFAULT_255_2_778
10
16.780399
20
2.1029427
11
16.760799
21
2.0333427
0
LINE
8
DEFAULT_255_2_778
10
16.760799
20
2.0333427
11
16.736199
21
1.9674427
0
LINE
8
DEFAULT_255_2_778
10
16.736199
20
1.9674427
11
16.692299
21
1.8814427
0
LINE
8
DEFAULT_255_2_778
10
16.692299
20
1.8814427
11
16.627199
21
1.7986427
0
LINE
8
DEFAULT_255_2_778
10
16.627199
20
1.7986427
11
16.534599
21
1.7325427
0
LINE
8
DEFAULT_255_2_778
10
16.534599
20
1.7325427
11
16.408899
21
1.7002427
0
LINE
8
DEFAULT_255_2_778
10
16.408899
20
1.7002427
11
16.264999
21
1.7163427
0
LINE
8
DEFAULT_255_2_778
10
16.264999
20
1.7163427
11
16.164399
21
1.7703427
0
LINE
8
DEFAULT_255_2_778
10
16.164399
20
1.7703427
11
16.098299
21
1.8365427
0
LINE
8
DEFAULT_255_2_778
10
16.098299
20
1.8365427
11
16.048799
21
1.9132427
0
LINE
8
DEFAULT_255_2_778
10
16.048799
20
1.9132427
11
16.032699
21
1.9452427
0
LINE
8
DEFAULT_255_2_778
10
19.1434146
20
3.2441062
11
19.8990146
21
3.2317062
0
LINE
8
DEFAULT_255_2_778
10
19.8990146
20
3.2317062
11
20.1266146
21
3.1597062
0
LINE
8
DEFAULT_255_2_778
10
20.1266146
20
3.1597062
11
20.2223146
21
3.0885062
0
LINE
8
DEFAULT_255_2_778
10
20.2223146
20
3.0885062
11
20.2684146
21
3.0269062
0
LINE
8
DEFAULT_255_2_778
10
20.2684146
20
3.0269062
11
20.2940146
21
2.9684062
0
LINE
8
DEFAULT_255_2_778
10
20.2940146
20
2.9684062
11
20.3075146
21
2.9181062
0
LINE
8
DEFAULT_255_2_778
10
20.3075146
20
2.9181062
11
20.3136146
21
2.8792062
0
LINE
8
DEFAULT_255_2_778
10
20.3136146
20
2.8792062
11
20.3128146
21
2.7581062
0
LINE
8
DEFAULT_255_2_778
10
20.3128146
20
2.7581062
11
20.3054146
21
2.7178062
0
LINE
8
DEFAULT_255_2_778
10
20.3054146
20
2.7178062
11
20.2890146
21
2.6665062
0
LINE
8
DEFAULT_255_2_778
10
20.2890146
20
2.6665062
11
20.2525146
21
2.5998062
0
LINE
8
DEFAULT_255_2_778
10
20.2525146
20
2.5998062
11
20.1731146
21
2.5168062
0
LINE
8
DEFAULT_255_2_778
10
20.1731146
20
2.5168062
11
20.0424146
21
2.4472062
0
LINE
8
DEFAULT_255_2_778
10
20.0424146
20
2.4472062
11
20.0170146
21
2.4400062
0
LINE
8
DEFAULT_255_2_778
10
20.0170146
20
2.4400062
11
20.1710146
21
2.3821062
0
LINE
8
DEFAULT_255_2_778
10
20.1710146
20
2.3821062
11
20.2734146
21
2.3032062
0
LINE
8
DEFAULT_255_2_778
10
20.2734146
20
2.3032062
11
20.3268146
21
2.2300062
0
LINE
8
DEFAULT_255_2_778
10
20.3268146
20
2.2300062
11
20.3575146
21
2.1585062
0
LINE
8
DEFAULT_255_2_778
10
20.3575146
20
2.1585062
11
20.3689146
21
2.1151062
0
LINE
8
DEFAULT_255_2_778
10
20.3689146
20
2.1151062
11
20.3745146
21
2.0839062
0
LINE
8
DEFAULT_255_2_778
10
20.3745146
20
2.0839062
11
20.3739146
21
1.9188062
0
LINE
8
DEFAULT_255_2_778
10
20.3739146
20
1.9188062
11
20.3663146
21
1.8767062
0
LINE
8
DEFAULT_255_2_778
10
20.3663146
20
1.8767062
11
20.3504146
21
1.8228062
0
LINE
8
DEFAULT_255_2_778
10
20.3504146
20
1.8228062
11
20.3205146
21
1.7601062
0
LINE
8
DEFAULT_255_2_778
10
20.3205146
20
1.7601062
11
20.2615146
21
1.6878062
0
LINE
8
DEFAULT_255_2_778
10
20.2615146
20
1.6878062
11
20.1133146
21
1.5950062
0
LINE
8
DEFAULT_255_2_778
10
20.1133146
20
1.5950062
11
19.8998146
21
1.5481062
0
LINE
8
DEFAULT_255_2_778
10
19.8998146
20
1.5481062
11
19.7805146
21
1.5439062
0
LINE
8
DEFAULT_255_2_778
10
19.7805146
20
1.5439062
11
19.1431146
21
1.5439062
0
LINE
8
DEFAULT_255_2_778
10
19.1431146
20
1.5439062
11
19.1434146
21
3.2441062
0
LINE
8
DEFAULT_255_2_778
10
19.7601146
20
1.7368062
11
20.0083146
21
1.7783062
0
LINE
8
DEFAULT_255_2_778
10
20.0083146
20
1.7783062
11
20.0914146
21
1.8437062
0
LINE
8
DEFAULT_255_2_778
10
20.0914146
20
1.8437062
11
20.1258146
21
1.9061062
0
LINE
8
DEFAULT_255_2_778
10
20.1258146
20
1.9061062
11
20.1393146
21
1.9519062
0
LINE
8
DEFAULT_255_2_778
10
20.1393146
20
1.9519062
11
20.1385146
21
2.1077062
0
LINE
8
DEFAULT_255_2_778
10
20.1385146
20
2.1077062
11
20.1218146
21
2.1593062
0
LINE
8
DEFAULT_255_2_778
10
20.1218146
20
2.1593062
11
20.0829146
21
2.2186062
0
LINE
8
DEFAULT_255_2_778
10
20.0829146
20
2.2186062
11
19.9585146
21
2.2953062
0
LINE
8
DEFAULT_255_2_778
10
19.9585146
20
2.2953062
11
19.7231146
21
2.3278062
0
LINE
8
DEFAULT_255_2_778
10
19.7231146
20
2.3278062
11
19.3762146
21
2.3278062
0
LINE
8
DEFAULT_255_2_778
10
19.3762146
20
2.3278062
11
19.3762146
21
1.7362062
0
LINE
8
DEFAULT_255_2_778
10
19.3762146
20
1.7362062
11
19.7601146
21
1.7368062
0
LINE
8
DEFAULT_255_2_778
10
19.7075146
20
2.5260062
11
19.9794146
21
2.5856062
0
LINE
8
DEFAULT_255_2_778
10
19.9794146
20
2.5856062
11
20.0496146
21
2.6517062
0
LINE
8
DEFAULT_255_2_778
10
20.0496146
20
2.6517062
11
20.0744146
21
2.7088062
0
LINE
8
DEFAULT_255_2_778
10
20.0744146
20
2.7088062
11
20.0821146
21
2.7480062
0
LINE
8
DEFAULT_255_2_778
10
20.0821146
20
2.7480062
11
20.0797146
21
2.8369062
0
LINE
8
DEFAULT_255_2_778
10
20.0797146
20
2.8369062
11
20.0670146
21
2.8829062
0
LINE
8
DEFAULT_255_2_778
10
20.0670146
20
2.8829062
11
20.0308146
21
2.9438062
0
LINE
8
DEFAULT_255_2_778
10
20.0308146
20
2.9438062
11
19.9109146
21
3.0213062
0
LINE
8
DEFAULT_255_2_778
10
19.9109146
20
3.0213062
11
19.7069146
21
3.0515062
0
LINE
8
DEFAULT_255_2_778
10
19.7069146
20
3.0515062
11
19.3759146
21
3.0515062
0
LINE
8
DEFAULT_255_2_778
10
19.3759146
20
3.0515062
11
19.3759146
21
2.5263062
0
LINE
8
DEFAULT_255_2_778
10
19.3759146
20
2.5263062
11
19.7075146
21
2.5260062
0
LINE
8
DEFAULT_255_2_778
10
20.739099
20
2.9781427
11
20.689599
21
2.8855427
0
LINE
8
DEFAULT_255_2_778
10
20.689599
20
2.8855427
11
20.659699
21
2.8128427
0
LINE
8
DEFAULT_255_2_778
10
20.659699
20
2.8128427
11
20.641399
21
2.7577427
0
LINE
8
DEFAULT_255_2_778
10
20.641399
20
2.7577427
11
20.626399
21
2.7019427
0
LINE
8
DEFAULT_255_2_778
10
20.626399
20
2.7019427
11
20.614199
21
2.6453427
0
LINE
8
DEFAULT_255_2_778
10
20.614199
20
2.6453427
11
20.609199
21
2.6167427
0
LINE
8
DEFAULT_255_2_778
10
20.609199
20
2.6167427
11
20.603899
21
2.5804427
0
LINE
8
DEFAULT_255_2_778
10
20.603899
20
2.5804427
11
20.599599
21
2.5440427
0
LINE
8
DEFAULT_255_2_778
10
20.599599
20
2.5440427
11
20.596499
21
2.5074427
0
LINE
8
DEFAULT_255_2_778
10
20.596499
20
2.5074427
11
20.596199
21
2.2854427
0
LINE
8
DEFAULT_255_2_778
10
20.596199
20
2.2854427
11
20.599399
21
2.2481427
0
LINE
8
DEFAULT_255_2_778
10
20.599399
20
2.2481427
11
20.603599
21
2.2111427
0
LINE
8
DEFAULT_255_2_778
10
20.603599
20
2.2111427
11
20.608899
21
2.1740427
0
LINE
8
DEFAULT_255_2_778
10
20.608899
20
2.1740427
11
20.619499
21
2.1164427
0
LINE
8
DEFAULT_255_2_778
10
20.619499
20
2.1164427
11
20.632699
21
2.0592427
0
LINE
8
DEFAULT_255_2_778
10
20.632699
20
2.0592427
11
20.649099
21
2.0029427
0
LINE
8
DEFAULT_255_2_778
10
20.649099
20
2.0029427
11
20.678199
21
1.9235427
0
LINE
8
DEFAULT_255_2_778
10
20.678199
20
1.9235427
11
20.713399
21
1.8483427
0
LINE
8
DEFAULT_255_2_778
10
20.713399
20
1.8483427
11
20.766599
21
1.7602427
0
LINE
8
DEFAULT_255_2_778
10
20.766599
20
1.7602427
11
20.825299
21
1.6862427
0
LINE
8
DEFAULT_255_2_778
10
20.825299
20
1.6862427
11
20.910499
21
1.6097427
0
LINE
8
DEFAULT_255_2_778
10
20.910499
20
1.6097427
11
21.024799
21
1.5465427
0
LINE
8
DEFAULT_255_2_778
10
21.024799
20
1.5465427
11
21.156299
21
1.5121427
0
LINE
8
DEFAULT_255_2_778
10
21.156299
20
1.5121427
11
21.316899
21
1.5094427
0
LINE
8
DEFAULT_255_2_778
10
21.316899
20
1.5094427
11
21.451099
21
1.5388427
0
LINE
8
DEFAULT_255_2_778
10
21.451099
20
1.5388427
11
21.567999
21
1.5973427
0
LINE
8
DEFAULT_255_2_778
10
21.567999
20
1.5973427
11
21.654799
21
1.6690427
0
LINE
8
DEFAULT_255_2_778
10
21.654799
20
1.6690427
11
21.729699
21
1.7602427
0
LINE
8
DEFAULT_255_2_778
10
21.729699
20
1.7602427
11
21.782599
21
1.8483427
0
LINE
8
DEFAULT_255_2_778
10
21.782599
20
1.8483427
11
21.817799
21
1.9238427
0
LINE
8
DEFAULT_255_2_778
10
21.817799
20
1.9238427
11
21.846899
21
2.0034427
0
LINE
8
DEFAULT_255_2_778
10
21.846899
20
2.0034427
11
21.863299
21
2.0597427
0
LINE
8
DEFAULT_255_2_778
10
21.863299
20
2.0597427
11
21.876499
21
2.1169427
0
LINE
8
DEFAULT_255_2_778
10
21.876499
20
2.1169427
11
21.887099
21
2.1746427
0
LINE
8
DEFAULT_255_2_778
10
21.887099
20
2.1746427
11
21.892399
21
2.2114427
0
LINE
8
DEFAULT_255_2_778
10
21.892399
20
2.2114427
11
21.896599
21
2.2484427
0
LINE
8
DEFAULT_255_2_778
10
21.896599
20
2.2484427
11
21.899799
21
2.2854427
0
LINE
8
DEFAULT_255_2_778
10
21.899799
20
2.2854427
11
21.899799
21
2.5072427
0
LINE
8
DEFAULT_255_2_778
10
21.899799
20
2.5072427
11
21.896599
21
2.5437427
0
LINE
8
DEFAULT_255_2_778
10
21.896599
20
2.5437427
11
21.892399
21
2.5802427
0
LINE
8
DEFAULT_255_2_778
10
21.892399
20
2.5802427
11
21.887099
21
2.6164427
0
LINE
8
DEFAULT_255_2_778
10
21.887099
20
2.6164427
11
21.876499
21
2.6733427
0
LINE
8
DEFAULT_255_2_778
10
21.876499
20
2.6733427
11
21.862999
21
2.7297427
0
LINE
8
DEFAULT_255_2_778
10
21.862999
20
2.7297427
11
21.846399
21
2.7852427
0
LINE
8
DEFAULT_255_2_778
10
21.846399
20
2.7852427
11
21.816699
21
2.8636427
0
LINE
8
DEFAULT_255_2_778
10
21.816699
20
2.8636427
11
21.780999
21
2.9376427
0
LINE
8
DEFAULT_255_2_778
10
21.780999
20
2.9376427
11
21.727599
21
3.0236427
0
LINE
8
DEFAULT_255_2_778
10
21.727599
20
3.0236427
11
21.652899
21
3.1120427
0
LINE
8
DEFAULT_255_2_778
10
21.652899
20
3.1120427
11
21.566399
21
3.1813427
0
LINE
8
DEFAULT_255_2_778
10
21.566399
20
3.1813427
11
21.450299
21
3.2379427
0
LINE
8
DEFAULT_255_2_778
10
21.450299
20
3.2379427
11
21.294199
21
3.2681427
0
LINE
8
DEFAULT_255_2_778
10
21.294199
20
3.2681427
11
21.135199
21
3.2602427
0
LINE
8
DEFAULT_255_2_778
10
21.135199
20
3.2602427
11
21.007099
21
3.2221427
0
LINE
8
DEFAULT_255_2_778
10
21.007099
20
3.2221427
11
20.895699
21
3.1564427
0
LINE
8
DEFAULT_255_2_778
10
20.895699
20
3.1564427
11
20.812599
21
3.0784427
0
LINE
8
DEFAULT_255_2_778
10
20.812599
20
3.0784427
11
20.739099
21
2.9781427
0
LINE
8
DEFAULT_255_2_778
10
20.901299
20
1.9452427
11
20.874499
21
2.0106427
0
LINE
8
DEFAULT_255_2_778
10
20.874499
20
2.0106427
11
20.853599
21
2.0777427
0
LINE
8
DEFAULT_255_2_778
10
20.853599
20
2.0777427
11
20.841699
21
2.1272427
0
LINE
8
DEFAULT_255_2_778
10
20.841699
20
2.1272427
11
20.832199
21
2.1772427
0
LINE
8
DEFAULT_255_2_778
10
20.832199
20
2.1772427
11
20.825099
21
2.2275427
0
LINE
8
DEFAULT_255_2_778
10
20.825099
20
2.2275427
11
20.822199
21
2.2553427
0
LINE
8
DEFAULT_255_2_778
10
20.822199
20
2.2553427
11
20.822199
21
2.5320427
0
LINE
8
DEFAULT_255_2_778
10
20.822199
20
2.5320427
11
20.828499
21
2.5842427
0
LINE
8
DEFAULT_255_2_778
10
20.828499
20
2.5842427
11
20.836999
21
2.6337427
0
LINE
8
DEFAULT_255_2_778
10
20.836999
20
2.6337427
11
20.847799
21
2.6826427
0
LINE
8
DEFAULT_255_2_778
10
20.847799
20
2.6826427
11
20.867699
21
2.7511427
0
LINE
8
DEFAULT_255_2_778
10
20.867699
20
2.7511427
11
20.892499
21
2.8159427
0
LINE
8
DEFAULT_255_2_778
10
20.892499
20
2.8159427
11
20.936699
21
2.8998427
0
LINE
8
DEFAULT_255_2_778
10
20.936699
20
2.8998427
11
21.001499
21
2.9802427
0
LINE
8
DEFAULT_255_2_778
10
21.001499
20
2.9802427
11
21.093899
21
3.0445427
0
LINE
8
DEFAULT_255_2_778
10
21.093899
20
3.0445427
11
21.233299
21
3.0765427
0
LINE
8
DEFAULT_255_2_778
10
21.233299
20
3.0765427
11
21.375699
21
3.0554427
0
LINE
8
DEFAULT_255_2_778
10
21.375699
20
3.0554427
11
21.473299
21
2.9990427
0
LINE
8
DEFAULT_255_2_778
10
21.473299
20
2.9990427
11
21.539199
21
2.9294427
0
LINE
8
DEFAULT_255_2_778
10
21.539199
20
2.9294427
11
21.585999
21
2.8532427
0
LINE
8
DEFAULT_255_2_778
10
21.585999
20
2.8532427
11
21.621999
21
2.7704427
0
LINE
8
DEFAULT_255_2_778
10
21.621999
20
2.7704427
11
21.642099
21
2.7072427
0
LINE
8
DEFAULT_255_2_778
10
21.642099
20
2.7072427
11
21.654299
21
2.6585427
0
LINE
8
DEFAULT_255_2_778
10
21.654299
20
2.6585427
11
21.663799
21
2.6093427
0
LINE
8
DEFAULT_255_2_778
10
21.663799
20
2.6093427
11
21.670899
21
2.5598427
0
LINE
8
DEFAULT_255_2_778
10
21.670899
20
2.5598427
11
21.674099
21
2.5326427
0
LINE
8
DEFAULT_255_2_778
10
21.674099
20
2.5326427
11
21.674099
21
2.2558427
0
LINE
8
DEFAULT_255_2_778
10
21.674099
20
2.2558427
11
21.667799
21
2.2029427
0
LINE
8
DEFAULT_255_2_778
10
21.667799
20
2.2029427
11
21.659599
21
2.1526427
0
LINE
8
DEFAULT_255_2_778
10
21.659599
20
2.1526427
11
21.648999
21
2.1029427
0
LINE
8
DEFAULT_255_2_778
10
21.648999
20
2.1029427
11
21.629399
21
2.0333427
0
LINE
8
DEFAULT_255_2_778
10
21.629399
20
2.0333427
11
21.604799
21
1.9674427
0
LINE
8
DEFAULT_255_2_778
10
21.604799
20
1.9674427
11
21.560899
21
1.8814427
0
LINE
8
DEFAULT_255_2_778
10
21.560899
20
1.8814427
11
21.495799
21
1.7986427
0
LINE
8
DEFAULT_255_2_778
10
21.495799
20
1.7986427
11
21.403199
21
1.7325427
0
LINE
8
DEFAULT_255_2_778
10
21.403199
20
1.7325427
11
21.277499
21
1.7002427
0
LINE
8
DEFAULT_255_2_778
10
21.277499
20
1.7002427
11
21.133599
21
1.7163427
0
LINE
8
DEFAULT_255_2_778
10
21.133599
20
1.7163427
11
21.032999
21
1.7703427
0
LINE
8
DEFAULT_255_2_778
10
21.032999
20
1.7703427
11
20.966899
21
1.8365427
0
LINE
8
DEFAULT_255_2_778
10
20.966899
20
1.8365427
11
20.917399
21
1.9132427
0
LINE
8
DEFAULT_255_2_778
10
20.917399
20
1.9132427
11
20.901299
21
1.9452427
0
ENDSEC
0
EOF