0
SECTION
2
HEADER
9
$MEASUREMENT
70
1
0
ENDSEC
0
SECTION
2
TABLES
0
TABLE
2
LTYPE
0
LTYPE
72
65
70
64
2
CONTINUOUS
3
______
73
0
40
0
0
ENDTAB
0
TABLE
2
LAYER
0
LAYER
2
DEFAULT_255_2_778
70
0
62
255
6
CONTINUOUS
0
LAYER
2
DEFAULT_255_1_388
70
0
62
255
6
CONTINUOUS
0
LAYER
2
DEFAULT_255_2_778_1
70
0
62
255
6
CONTINUOUS
0
ENDTAB
0
ENDSEC
0
SECTION
2
ENTITIES
0
ARC
8
DEFAULT_255_2_778
10
3.5695693
20
139.3052021
40
0.7914215
50
129.1312896
51
180.1450914
0
ARC
8
DEFAULT_255_2_778
10
3.5698345
20
139.3056893
40
0.7912112
50
89.854026
51
129.1684493
0
ARC
8
DEFAULT_255_2_778
10
25.7988937
20
139.3053758
40
0.7915249
50
39.4792447
51
90.147911
0
ARC
8
DEFAULT_255_2_778
10
25.7994935
20
139.3052224
40
0.7911595
50
359.8533901
51
39.5154338
0
ARC
8
DEFAULT_255_2_778
10
25.7991693
20
-1.9863501
40
0.7914836
50
309.4761667
51
0.1482649
0
ARC
8
DEFAULT_255_2_778
10
25.798898
20
-1.9867812
40
0.7913235
50
269.8517415
51
309.511178
0
ARC
8
DEFAULT_255_2_778
10
3.569842
20
-1.986723
40
0.7913815
50
219.1282118
51
270.1454017
0
ARC
8
DEFAULT_255_2_778
10
3.5695247
20
-1.9863406
40
0.7913769
50
179.8524075
51
219.1641908
0
LINE
8
DEFAULT_255_2_778
10
3.5718503
20
140.096898
11
25.7968503
21
140.096898
0
LINE
8
DEFAULT_255_2_778
10
26.5906503
20
139.303198
11
26.5906503
21
-1.984302
0
LINE
8
DEFAULT_255_2_778
10
25.7968503
20
-2.778102
11
3.5718503
21
-2.778102
0
LINE
8
DEFAULT_255_2_778
10
2.7781503
20
-1.984302
11
2.7781503
21
139.303198
0
LINE
8
DEFAULT_255_1_388
10
5.9025015
20
0.6766934
11
5.9323191
21
0.6766934
0
LINE
8
DEFAULT_255_1_388
10
5.9323191
20
0.6766934
11
5.9323191
21
0.5348338
0
LINE
8
DEFAULT_255_1_388
10
5.9323191
20
0.5348338
11
5.9015979
21
0.5348338
0
LINE
8
DEFAULT_255_1_388
10
5.2862705
20
-0.1392253
11
5.2862705
21
-0.0750722
0
LINE
8
DEFAULT_255_1_388
10
5.4543335
20
-0.0967578
11
5.4543335
21
-0.1582001
0
ARC
8
DEFAULT_255_1_388
10
5.9074871
20
-0.0274174
40
0.562282
50
90.6001079
51
104.5146616
0
ARC
8
DEFAULT_255_1_388
10
5.863783
20
0.13511
40
0.3939917
50
104.2855758
51
133.8630124
0
ARC
8
DEFAULT_255_1_388
10
5.8822083
20
0.1229243
40
0.4155734
50
134.5304124
51
161.6210222
0
ARC
8
DEFAULT_255_1_388
10
6.0682015
20
0.0573421
40
0.6127682
50
161.2850533
51
174.2074364
0
ARC
8
DEFAULT_255_1_388
10
6.2271582
20
0.0354437
40
0.7731446
50
173.7817938
51
174.9251711
0
ARC
8
DEFAULT_255_1_388
10
5.7145775
20
-0.120073
40
0.3412588
50
95.8332067
51
138.995412
0
ARC
8
DEFAULT_255_1_388
10
5.7397056
20
-0.2639305
40
0.4870358
50
89.8755506
51
97.0540979
0
ARC
8
DEFAULT_255_1_388
10
5.7450445
20
-0.1699159
40
0.3930432
50
71.6407016
51
90.6240821
0
ARC
8
DEFAULT_255_1_388
10
5.7619838
20
-0.1075567
40
0.3285421
50
39.6368051
51
71.0190743
0
ARC
8
DEFAULT_255_1_388
10
5.6903746
20
-0.1694414
40
0.4231706
50
10.6588054
51
39.9044509
0
ARC
8
DEFAULT_255_1_388
10
5.5162291
20
-0.2072777
40
0.60133
50
359.6827842
51
11.1326896
0
ARC
8
DEFAULT_255_1_388
10
5.5117627
20
-0.2152285
40
0.6058047
50
347.2485908
51
0.4371098
0
ARC
8
DEFAULT_255_1_388
10
5.6993413
20
-0.2603621
40
0.4128987
50
318.1408565
51
347.6118497
0
ARC
8
DEFAULT_255_1_388
10
5.7359009
20
-0.2904097
40
0.3656244
50
275.6342406
51
317.824739
0
ARC
8
DEFAULT_255_1_388
10
5.711053
20
-0.1442173
40
0.513655
50
269.8872513
51
276.7916069
0
ARC
8
DEFAULT_255_1_388
10
5.7048723
20
-0.2595819
40
0.398323
50
246.9139443
51
270.7436787
0
ARC
8
DEFAULT_255_1_388
10
5.7055919
20
-0.2755956
40
0.3839368
50
218.1665534
51
245.8780431
0
ARC
8
DEFAULT_255_1_388
10
5.8045291
20
-0.1928097
40
0.5128958
50
191.4115343
51
218.6077624
0
ARC
8
DEFAULT_255_1_388
10
6.0225607
20
-0.1439223
40
0.7363054
50
179.6344971
51
191.7836758
0
ARC
8
DEFAULT_255_1_388
10
6.6505482
20
-0.0675505
40
1.3642984
50
171.4523743
51
180.3158856
0
ARC
8
DEFAULT_255_1_388
10
6.1561209
20
0.0093895
40
0.8639311
50
157.9802296
51
171.6246761
0
ARC
8
DEFAULT_255_1_388
10
5.9070559
20
0.1087038
40
0.5958004
50
141.4299236
51
157.8541251
0
ARC
8
DEFAULT_255_1_388
10
5.8348643
20
0.1597746
40
0.5075416
50
102.871586
51
140.8564533
0
ARC
8
DEFAULT_255_1_388
10
5.9077195
20
-0.1147057
40
0.7914163
50
90.377773
51
103.5868422
0
ARC
8
DEFAULT_255_1_388
10
5.7121717
20
-0.1827457
40
0.2667015
50
89.8751238
51
126.2072139
0
ARC
8
DEFAULT_255_1_388
10
5.7173188
20
-0.2001153
40
0.2838229
50
124.9742447
51
144.8960197
0
ARC
8
DEFAULT_255_1_388
10
5.6975433
20
-0.1840019
40
0.2583845
50
145.2974778
51
160.2660922
0
ARC
8
DEFAULT_255_1_388
10
6.0431921
20
-0.1617849
40
0.5888695
50
179.6512124
51
190.285571
0
ARC
8
DEFAULT_255_1_388
10
5.8526401
20
-0.1977032
40
0.3949683
50
190.0944895
51
207.5099647
0
ARC
8
DEFAULT_255_1_388
10
5.7889982
20
-0.2279823
40
0.3245464
50
207.9585471
51
216.325377
0
ARC
8
DEFAULT_255_1_388
10
5.7507619
20
-0.2594288
40
0.2751259
50
215.7661336
51
232.5457193
0
ARC
8
DEFAULT_255_1_388
10
5.7076735
20
-0.3141727
40
0.2054668
50
232.8005815
51
270.6605497
0
ARC
8
DEFAULT_255_1_388
10
5.712816
20
-0.2732147
40
0.2464268
50
269.3550767
51
288.474612
0
ARC
8
DEFAULT_255_1_388
10
5.7232667
20
-0.3125279
40
0.2058436
50
289.1831976
51
322.9685307
0
ARC
8
DEFAULT_255_1_388
10
5.6544768
20
-0.2582721
40
0.2934408
50
322.6007085
51
346.5183319
0
ARC
8
DEFAULT_255_1_388
10
5.5242524
20
-0.2250566
40
0.4278249
50
346.2584622
51
358.7739592
0
ARC
8
DEFAULT_255_1_388
10
5.40911
20
-0.2188171
40
0.5430876
50
358.3757628
51
0.0082477
0
ARC
8
DEFAULT_255_1_388
10
5.4947918
20
-0.2157144
40
0.4574157
50
359.6211417
51
11.28403
0
ARC
8
DEFAULT_255_1_388
10
5.6384524
20
-0.1857465
40
0.3106708
50
11.0483152
51
31.8145585
0
ARC
8
DEFAULT_255_1_388
10
5.6732229
20
-0.1668955
40
0.2711963
50
32.3028554
51
38.0820598
0
ARC
8
DEFAULT_255_1_388
10
5.7205462
20
-0.1240283
40
0.2075566
50
36.8249851
51
85.741667
0
ARC
8
DEFAULT_255_1_388
10
5.7129875
20
-0.1803935
40
0.2643487
50
85.0150021
51
90.050843
0
LINE
8
DEFAULT_255_1_388
10
7.1024351
20
0.1101585
11
7.1024351
21
-0.0317011
0
LINE
8
DEFAULT_255_1_388
10
7.1024351
20
-0.0317011
11
6.5322859
21
-0.0317011
0
LINE
8
DEFAULT_255_1_388
10
6.5322859
20
-0.0317011
11
6.5322859
21
-0.4979404
0
LINE
8
DEFAULT_255_1_388
10
6.5322859
20
-0.4979404
11
7.1945986
21
-0.4979404
0
LINE
8
DEFAULT_255_1_388
10
7.1945986
20
-0.4979404
11
7.1945986
21
-0.6398
0
LINE
8
DEFAULT_255_1_388
10
7.1945986
20
-0.6398
11
6.3588015
21
-0.6398
0
LINE
8
DEFAULT_255_1_388
10
6.3588015
20
-0.6398
11
6.3588015
21
0.6757898
0
LINE
8
DEFAULT_255_1_388
10
6.3588015
20
0.6757898
11
7.185563
21
0.6757898
0
LINE
8
DEFAULT_255_1_388
10
7.185563
20
0.6757898
11
7.185563
21
0.5330267
0
LINE
8
DEFAULT_255_1_388
10
7.185563
20
0.5330267
11
6.5322859
21
0.5330267
0
LINE
8
DEFAULT_255_1_388
10
6.5322859
20
0.5330267
11
6.5322859
21
0.1101585
0
LINE
8
DEFAULT_255_1_388
10
6.5322859
20
0.1101585
11
7.1024351
21
0.1101585
0
LINE
8
DEFAULT_255_1_388
10
8.2833938
20
0.2953892
11
8.1090059
21
0.2953892
0
LINE
8
DEFAULT_255_1_388
10
7.3301333
20
-0.2584958
11
7.5045212
21
-0.2584958
0
ARC
8
DEFAULT_255_1_388
10
8.1830786
20
1.3017821
40
1.4087688
50
248.9196578
51
254.1442424
0
ARC
8
DEFAULT_255_1_388
10
7.9940666
20
0.8151805
40
0.8867498
50
241.6337352
51
249.0064643
0
ARC
8
DEFAULT_255_1_388
10
7.8220979
20
0.5000764
40
0.5277799
50
230.4982261
51
241.8087583
0
ARC
8
DEFAULT_255_1_388
10
7.733875
20
0.3876686
40
0.3849419
50
227.4062979
51
229.9877433
0
ARC
8
DEFAULT_255_1_388
10
7.6790097
20
0.3341155
40
0.3084129
50
200.6782127
51
228.1765252
0
ARC
8
DEFAULT_255_1_388
10
7.6871466
20
0.3324277
40
0.315461
50
179.506278
51
199.8695278
0
ARC
8
DEFAULT_255_1_388
10
7.6861054
20
0.3407671
40
0.3144584
50
132.4834401
51
181.0242352
0
ARC
8
DEFAULT_255_1_388
10
7.7530259
20
0.2775788
40
0.4063094
50
129.2526113
51
133.4249077
0
ARC
8
DEFAULT_255_1_388
10
7.7695851
20
0.2527619
40
0.436014
50
101.9878945
51
128.8741833
0
ARC
8
DEFAULT_255_1_388
10
7.8144267
20
0.059136
40
0.6347415
50
89.5906376
51
102.3170567
0
ARC
8
DEFAULT_255_1_388
10
7.8223578
20
0.0949586
40
0.5989122
50
77.2359491
51
90.3248968
0
ARC
8
DEFAULT_255_1_388
10
7.8456509
20
0.2037554
40
0.4876594
50
63.8379856
51
77.0808925
0
ARC
8
DEFAULT_255_1_388
10
7.8769043
20
0.2619882
40
0.4216191
50
45.9863127
51
64.1608798
0
ARC
8
DEFAULT_255_1_388
10
7.9062436
20
0.295499
40
0.3771394
50
32.2747934
51
45.6544796
0
ARC
8
DEFAULT_255_1_388
10
7.9137243
20
0.2976426
40
0.3696765
50
359.6507495
51
32.6129943
0
ARC
8
DEFAULT_255_1_388
10
7.8076425
20
0.2981788
40
0.3013762
50
359.469654
51
14.983205
0
ARC
8
DEFAULT_255_1_388
10
7.8869678
20
0.3194288
40
0.2192542
50
14.9781954
51
48.2004799
0
ARC
8
DEFAULT_255_1_388
10
7.8684788
20
0.2961937
40
0.2489048
50
48.5926661
51
74.1242559
0
ARC
8
DEFAULT_255_1_388
10
7.8309591
20
0.1723607
40
0.3782845
50
73.7889321
51
86.6653996
0
ARC
8
DEFAULT_255_1_388
10
7.8194405
20
0.0365955
40
0.5145025
50
86.2642725
51
90.0533288
0
ARC
8
DEFAULT_255_1_388
10
7.8162498
20
0.0810376
40
0.4700681
50
89.669455
51
99.2313411
0
ARC
8
DEFAULT_255_1_388
10
7.7889658
20
0.2435401
40
0.3052945
50
99.0695987
51
113.7659242
0
ARC
8
DEFAULT_255_1_388
10
7.7581652
20
0.3161772
40
0.226407
50
114.0402885
51
127.9848946
0
ARC
8
DEFAULT_255_1_388
10
7.7311129
20
0.3494884
40
0.1835045
50
127.7287217
51
176.7106493
0
ARC
8
DEFAULT_255_1_388
10
7.8074794
20
0.338121
40
0.2604907
50
175.1780759
51
180.0581213
0
ARC
8
DEFAULT_255_1_388
10
7.7126137
20
0.3367411
40
0.1656287
50
179.6140658
51
228.124674
0
ARC
8
DEFAULT_255_1_388
10
7.7623495
20
0.382794
40
0.2332038
50
226.5785315
51
230.8792476
0
ARC
8
DEFAULT_255_1_388
10
7.8152981
20
0.4530908
40
0.3211664
50
231.4636401
51
241.9261664
0
ARC
8
DEFAULT_255_1_388
10
7.9499765
20
0.7009349
40
0.6032345
50
241.7177136
51
248.3259138
0
ARC
8
DEFAULT_255_1_388
10
8.1058359
20
1.0870771
40
1.0196417
50
248.2007377
51
252.4527713
0
ARC
8
DEFAULT_255_1_388
10
8.2411886
20
1.5055092
40
1.4594143
50
252.3388938
51
254.347037
0
ARC
8
DEFAULT_255_1_388
10
7.3927187
20
-1.5292905
40
1.6917621
50
71.0197462
51
74.4085467
0
ARC
8
DEFAULT_255_1_388
10
7.5834275
20
-0.9787856
40
1.1091618
50
66.1845203
51
71.086519
0
ARC
8
DEFAULT_255_1_388
10
7.7584823
20
-0.5846561
40
0.6779073
50
59.3537334
51
66.269255
0
ARC
8
DEFAULT_255_1_388
10
7.8584549
20
-0.4155223
40
0.4814366
50
49.1021732
51
59.3294421
0
ARC
8
DEFAULT_255_1_388
10
7.9505538
20
-0.3105425
40
0.3417875
50
32.7924183
51
49.2503526
0
ARC
8
DEFAULT_255_1_388
10
7.9855152
20
-0.2855689
40
0.2988789
50
31.121225
51
32.3977355
0
ARC
8
DEFAULT_255_1_388
10
7.976733
20
-0.2888272
40
0.3080861
50
8.1116803
51
30.7958224
0
ARC
8
DEFAULT_255_1_388
10
7.8855675
20
-0.3043563
40
0.4005385
50
359.8390945
51
8.4707348
0
ARC
8
DEFAULT_255_1_388
10
7.9559723
20
-0.3098249
40
0.3301608
50
337.4732479
51
0.7538283
0
ARC
8
DEFAULT_255_1_388
10
7.9760748
20
-0.3120446
40
0.3107929
50
307.5917028
51
336.4313755
0
ARC
8
DEFAULT_255_1_388
10
7.9249806
20
-0.2552491
40
0.3870096
50
307.6560665
51
308.4561779
0
ARC
8
DEFAULT_255_1_388
10
7.8984022
20
-0.2144168
40
0.435591
50
284.3733666
51
307.1426212
0
ARC
8
DEFAULT_255_1_388
10
7.8426917
20
-0.0094609
40
0.6479685
50
272.4384566
51
284.6464689
0
ARC
8
DEFAULT_255_1_388
10
7.8284302
20
0.1929434
40
0.8508149
50
269.9708517
51
272.8180721
0
ARC
8
DEFAULT_255_1_388
10
7.8235984
20
-0.0362717
40
0.6216151
50
248.2707343
51
270.4054609
0
ARC
8
DEFAULT_255_1_388
10
7.8174856
20
-0.0577327
40
0.5994203
50
246.1380358
51
248.054058
0
ARC
8
DEFAULT_255_1_388
10
7.7703998
20
-0.1566295
40
0.4899388
50
233.1671897
51
246.4951656
0
ARC
8
DEFAULT_255_1_388
10
7.7080633
20
-0.2407863
40
0.3852115
50
215.3403381
51
233.084328
0
ARC
8
DEFAULT_255_1_388
10
7.6773997
20
-0.2630907
40
0.3472969
50
179.2419235
51
215.2648426
0
ARC
8
DEFAULT_255_1_388
10
7.7637548
20
-0.2615021
40
0.259251
50
179.3355796
51
199.1045873
0
ARC
8
DEFAULT_255_1_388
10
7.726369
20
-0.2712777
40
0.2207454
50
199.8830064
51
232.7061328
0
ARC
8
DEFAULT_255_1_388
10
7.7794965
20
-0.2044544
40
0.306101
50
232.3736206
51
255.5136621
0
ARC
8
DEFAULT_255_1_388
10
7.817847
20
-0.0644823
40
0.4512213
50
255.2447928
51
267.5318292
0
ARC
8
DEFAULT_255_1_388
10
7.8276937
20
0.0741709
40
0.5901825
50
267.1564563
51
270.0294721
0
ARC
8
DEFAULT_255_1_388
10
7.8308263
20
0.0242623
40
0.5402814
50
269.6999944
51
278.1662446
0
ARC
8
DEFAULT_255_1_388
10
7.859629
20
-0.1704026
40
0.3435003
50
278.0229022
51
290.6255326
0
ARC
8
DEFAULT_255_1_388
10
7.8987457
20
-0.2747453
40
0.2320666
50
290.6616368
51
307.0374127
0
ARC
8
DEFAULT_255_1_388
10
7.9325357
20
-0.316196
40
0.1786372
50
306.3942078
51
355.303191
0
ARC
8
DEFAULT_255_1_388
10
7.874965
20
-0.3075814
40
0.2367516
50
354.3662092
51
0.0709489
0
ARC
8
DEFAULT_255_1_388
10
7.8909518
20
-0.3050439
40
0.2207761
50
359.4175379
51
16.1975911
0
ARC
8
DEFAULT_255_1_388
10
7.9421636
20
-0.2910046
40
0.1676828
50
16.4721294
51
52.6261798
0
ARC
8
DEFAULT_255_1_388
10
7.8498144
20
-0.4129394
40
0.3206412
50
52.7381828
51
62.4979144
0
ARC
8
DEFAULT_255_1_388
10
7.6939896
20
-0.7061764
40
0.6527035
50
62.2517425
51
68.1219454
0
ARC
8
DEFAULT_255_1_388
10
7.5005384
20
-1.1816049
40
1.1659797
50
68.006043
51
71.8055127
0
ARC
8
DEFAULT_255_1_388
10
7.2985292
20
-1.7874277
40
1.8045908
50
71.718361
51
73.9260743
0
LINE
8
DEFAULT_255_1_388
10
9.3143608
20
0.6757898
11
9.3143608
21
0.5818191
0
LINE
8
DEFAULT_255_1_388
10
9.3143608
20
0.5818191
11
8.7695115
21
-0.6398
0
LINE
8
DEFAULT_255_1_388
10
8.7695115
20
-0.6398
11
8.59422
21
-0.6398
0
LINE
8
DEFAULT_255_1_388
10
8.59422
20
-0.6398
11
9.1372622
21
0.538448
0
LINE
8
DEFAULT_255_1_388
10
9.1372622
20
0.538448
11
8.4252534
21
0.538448
0
LINE
8
DEFAULT_255_1_388
10
8.4252534
20
0.538448
11
8.4252534
21
0.6757898
0
LINE
8
DEFAULT_255_1_388
10
8.4252534
20
0.6757898
11
9.3143608
21
0.6757898
0
LINE
8
DEFAULT_255_1_388
10
10.0534766
20
0.6821148
11
10.0534766
21
-0.6398
0
LINE
8
DEFAULT_255_1_388
10
10.0534766
20
-0.6398
11
9.8854136
21
-0.6398
0
LINE
8
DEFAULT_255_1_388
10
9.8854136
20
-0.6398
11
9.8854136
21
0.474295
0
LINE
8
DEFAULT_255_1_388
10
9.8854136
20
0.474295
11
9.548384
21
0.3505066
0
LINE
8
DEFAULT_255_1_388
10
9.548384
20
0.3505066
11
9.548384
21
0.5023055
0
LINE
8
DEFAULT_255_1_388
10
9.548384
20
0.5023055
11
10.0272732
21
0.6821148
0
LINE
8
DEFAULT_255_1_388
10
10.0272732
20
0.6821148
11
10.0534766
21
0.6821148
0
LINE
8
DEFAULT_255_1_388
10
10.7862673
20
-0.0371225
11
10.7862673
21
0.0993157
0
LINE
8
DEFAULT_255_1_388
10
10.7862673
20
0.0993157
11
10.9118628
21
0.0993157
0
LINE
8
DEFAULT_255_1_388
10
10.697718
20
0.3306282
11
10.5305586
21
0.3306282
0
LINE
8
DEFAULT_255_1_388
10
10.5188123
20
-0.2928313
11
10.6868752
21
-0.2928313
0
LINE
8
DEFAULT_255_1_388
10
10.9118628
20
-0.0371225
11
10.7862673
21
-0.0371225
0
ARC
8
DEFAULT_255_1_388
10
10.9085854
20
0.4809922
40
0.3816905
50
270.491971
51
281.8953028
0
ARC
8
DEFAULT_255_1_388
10
10.9357281
20
0.3570199
40
0.2547877
50
281.6690378
51
301.2943765
0
ARC
8
DEFAULT_255_1_388
10
10.9548733
20
0.3219926
40
0.2149197
50
301.7834992
51
311.754567
0
ARC
8
DEFAULT_255_1_388
10
10.9651774
20
0.310565
40
0.1995326
50
311.7325027
51
354.2803031
0
ARC
8
DEFAULT_255_1_388
10
10.883419
20
0.324628
40
0.2823461
50
353.0941646
51
0.1174696
0
ARC
8
DEFAULT_255_1_388
10
10.8315748
20
0.3299874
40
0.3342238
50
359.1804452
51
15.0452323
0
ARC
8
DEFAULT_255_1_388
10
10.9829806
20
0.3741546
40
0.1765747
50
13.957816
51
77.6713812
0
ARC
8
DEFAULT_255_1_388
10
10.9395042
20
0.2183464
40
0.3381982
50
76.111571
51
90.7028736
0
ARC
8
DEFAULT_255_1_388
10
10.9328454
20
0.249125
40
0.3074046
50
89.5321574
51
103.5319393
0
ARC
8
DEFAULT_255_1_388
10
10.9102838
20
0.3390443
40
0.2147041
50
103.2930114
51
133.5619756
0
ARC
8
DEFAULT_255_1_388
10
10.9052779
20
0.3457351
40
0.2064084
50
133.8349761
51
173.5343225
0
ARC
8
DEFAULT_255_1_388
10
10.9866437
20
0.3313144
40
0.2889266
50
172.5097183
51
180.1360699
0
ARC
8
DEFAULT_255_1_388
10
10.8796201
20
0.335188
40
0.3490913
50
155.3483706
51
180.7484035
0
ARC
8
DEFAULT_255_1_388
10
10.8741176
20
0.3319519
40
0.3454798
50
131.5745177
51
154.4799474
0
ARC
8
DEFAULT_255_1_388
10
10.9093459
20
0.2963422
40
0.3955058
50
96.9874487
51
131.9690874
0
ARC
8
DEFAULT_255_1_388
10
10.9340352
20
0.1562407
40
0.537622
50
89.8592909
51
97.7827481
0
ARC
8
DEFAULT_255_1_388
10
10.9394461
20
0.126736
40
0.5671399
50
78.3654493
51
90.4132586
0
ARC
8
DEFAULT_255_1_388
10
10.9797102
20
0.3133918
40
0.3762034
50
56.6229818
51
78.6387103
0
ARC
8
DEFAULT_255_1_388
10
11.0038931
20
0.3556846
40
0.3275964
50
47.0254604
51
56.085558
0
ARC
8
DEFAULT_255_1_388
10
11.0061182
20
0.3601189
40
0.3228382
50
10.9207523
51
46.777927
0
ARC
8
DEFAULT_255_1_388
10
10.8526776
20
0.3246401
40
0.4802559
50
359.6364235
51
11.6087615
0
ARC
8
DEFAULT_255_1_388
10
11.0590942
20
0.3229404
40
0.273833
50
332.3549969
51
359.7179765
0
ARC
8
DEFAULT_255_1_388
10
10.9859342
20
0.3576285
40
0.3547505
50
325.2332381
51
332.8746682
0
ARC
8
DEFAULT_255_1_388
10
11.0030925
20
0.3456763
40
0.3338396
50
292.9803892
51
325.2391113
0
ARC
8
DEFAULT_255_1_388
10
10.9720121
20
0.4061679
40
0.4016959
50
292.542178
51
293.6931461
0
ARC
8
DEFAULT_255_1_388
10
11.0163693
20
-0.3203964
40
0.372079
50
57.643292
51
72.8626085
0
ARC
8
DEFAULT_255_1_388
10
11.0562527
20
-0.2557727
40
0.2961455
50
36.7246661
51
57.4701329
0
ARC
8
DEFAULT_255_1_388
10
11.0549684
20
-0.254353
40
0.2963321
50
8.054535
51
36.3561529
0
ARC
8
DEFAULT_255_1_388
10
10.9579357
20
-0.2717927
40
0.3948682
50
359.8316595
51
8.5873361
0
ARC
8
DEFAULT_255_1_388
10
10.9156831
20
-0.277203
40
0.4371398
50
343.9831631
51
0.557075
0
ARC
8
DEFAULT_255_1_388
10
11.015388
20
-0.3045037
40
0.3337749
50
311.6358204
51
343.7652116
0
ARC
8
DEFAULT_255_1_388
10
10.9728134
20
-0.2565045
40
0.3979351
50
279.7829743
51
311.625622
0
ARC
8
DEFAULT_255_1_388
10
10.9389269
20
-0.0948358
40
0.5630417
50
269.7285092
51
280.3857694
0
ARC
8
DEFAULT_255_1_388
10
10.9319582
20
-0.0994759
40
0.5584119
50
256.6827433
51
270.4412869
0
ARC
8
DEFAULT_255_1_388
10
10.8938569
20
-0.2552302
40
0.3980715
50
229.4223821
51
256.8554507
0
ARC
8
DEFAULT_255_1_388
10
10.8472122
20
-0.3077317
40
0.3278564
50
181.8183354
51
229.6455015
0
ARC
8
DEFAULT_255_1_388
10
10.9641732
20
-0.2930175
40
0.4453611
50
179.9760419
51
183.2330638
0
ARC
8
DEFAULT_255_1_388
10
10.9448284
20
-0.2953219
40
0.2579652
50
179.4467996
51
196.2871626
0
ARC
8
DEFAULT_255_1_388
10
10.8899738
20
-0.3103291
40
0.2011057
50
196.5661293
51
227.7059371
0
ARC
8
DEFAULT_255_1_388
10
10.9084345
20
-0.2896845
40
0.2287994
50
227.7653015
51
257.8763321
0
ARC
8
DEFAULT_255_1_388
10
10.9337428
20
-0.1836039
40
0.3378385
50
257.4583525
51
270.4267406
0
ARC
8
DEFAULT_255_1_388
10
10.9388678
20
-0.150977
40
0.3704652
50
269.5965319
51
280.8788143
0
ARC
8
DEFAULT_255_1_388
10
10.9646906
20
-0.2799471
40
0.2389415
50
280.6347277
51
299.8594068
0
ARC
8
DEFAULT_255_1_388
10
10.9861675
20
-0.3207264
40
0.19289
50
300.3575552
51
314.5515667
0
ARC
8
DEFAULT_255_1_388
10
10.9768351
20
-0.3138975
40
0.204312
50
315.0730962
51
345.0429362
0
ARC
8
DEFAULT_255_1_388
10
10.8729858
20
-0.2836461
40
0.31246
50
344.598526
51
357.9270698
0
ARC
8
DEFAULT_255_1_388
10
10.7720163
20
-0.2767295
40
0.4136265
50
357.4755098
51
0.0224936
0
ARC
8
DEFAULT_255_1_388
10
10.8873041
20
-0.2739901
40
0.2983498
50
359.5051035
51
13.4236939
0
ARC
8
DEFAULT_255_1_388
10
10.9848131
20
-0.2490363
40
0.1977186
50
12.9497905
51
48.7550905
0
ARC
8
DEFAULT_255_1_388
10
10.9643053
20
-0.2770627
40
0.2323321
50
49.509109
51
72.1832965
0
ARC
8
DEFAULT_255_1_388
10
10.9240521
20
-0.3965368
40
0.358397
50
71.9008458
51
84.3555134
0
ARC
8
DEFAULT_255_1_388
10
10.9058916
20
-0.5497288
40
0.512641
50
84.019632
51
89.3326067
0
ARC
8
DEFAULT_255_1_388
10
12.0626581
20
0.329572
40
0.3175098
50
338.8762533
51
0.5167111
0
ARC
8
DEFAULT_255_1_388
10
12.0816175
20
0.32446
40
0.2979894
50
325.8415285
51
338.4793574
0
ARC
8
DEFAULT_255_1_388
10
12.0376809
20
0.3549242
40
0.351452
50
296.7587686
51
325.7536481
0
ARC
8
DEFAULT_255_1_388
10
12.0048437
20
0.4103363
40
0.4157374
50
296.0927901
51
297.3613472
0
ARC
8
DEFAULT_255_1_388
10
12.0342632
20
-0.3279407
40
0.395855
50
47.9007294
51
67.1948823
0
ARC
8
DEFAULT_255_1_388
10
12.0563274
20
-0.3002401
40
0.360516
50
35.2363914
51
47.551141
0
ARC
8
DEFAULT_255_1_388
10
12.0857678
20
-0.2805907
40
0.3251343
50
359.2759765
51
35.4014143
0
ARC
8
DEFAULT_255_1_388
10
12.0019604
20
-0.2888213
40
0.4089365
50
343.1293083
51
0.5775513
0
ARC
8
DEFAULT_255_1_388
10
12.0834718
20
-0.3112664
40
0.3244269
50
310.8496669
51
342.7449331
0
ARC
8
DEFAULT_255_1_388
10
12.0364593
20
-0.2576087
40
0.3957651
50
281.5472888
51
310.9170406
0
ARC
8
DEFAULT_255_1_388
10
11.9963467
20
-0.0829186
40
0.5749654
50
269.619248
51
281.9789564
0
ARC
8
DEFAULT_255_1_388
10
11.9882245
20
-0.0828224
40
0.5750649
50
257.4585678
51
270.4285689
0
ARC
8
DEFAULT_255_1_388
10
11.9453765
20
-0.2632259
40
0.389671
50
228.7554326
51
257.8484789
0
ARC
8
DEFAULT_255_1_388
10
11.910525
20
-0.3051772
40
0.335154
50
184.0104975
51
228.5071184
0
ARC
8
DEFAULT_255_1_388
10
12.0413643
20
-0.285257
40
0.4671891
50
179.9315832
51
185.3253753
0
ARC
8
DEFAULT_255_1_388
10
11.9090156
20
-0.2810408
40
0.33486
50
145.6796023
51
180.6259786
0
ARC
8
DEFAULT_255_1_388
10
11.9273921
20
-0.2938729
40
0.3572723
50
115.5537685
51
145.6415986
0
ARC
8
DEFAULT_255_1_388
10
11.9656965
20
-0.3624913
40
0.4357296
50
113.243307
51
116.2057839
0
ARC
8
DEFAULT_255_1_388
10
11.9485617
20
0.3572379
40
0.3549126
50
222.9549744
51
244.1370481
0
ARC
8
DEFAULT_255_1_388
10
11.934826
20
0.3418378
40
0.3343711
50
213.3436887
51
222.6274467
0
ARC
8
DEFAULT_255_1_388
10
11.913233
20
0.3271653
40
0.3082678
50
180.431584
51
213.271499
0
ARC
8
DEFAULT_255_1_388
10
11.9767328
20
0.3324296
40
0.3718363
50
179.9991191
51
181.1690594
0
ARC
8
DEFAULT_255_1_388
10
12.0239785
20
0.3363072
40
0.4190996
50
164.6186169
51
180.529336
0
ARC
8
DEFAULT_255_1_388
10
11.9229433
20
0.363478
40
0.3144772
50
132.2455553
51
164.5090724
0
ARC
8
DEFAULT_255_1_388
10
11.9552412
20
0.326907
40
0.3632644
50
100.7053914
51
132.1386381
0
ARC
8
DEFAULT_255_1_388
10
11.9895473
20
0.1719118
40
0.5219578
50
89.6730358
51
101.2451698
0
ARC
8
DEFAULT_255_1_388
10
11.9965464
20
0.1915648
40
0.5023124
50
76.287748
51
90.4586006
0
ARC
8
DEFAULT_255_1_388
10
12.0309966
20
0.3290671
40
0.3605639
50
47.8240511
51
76.4266241
0
ARC
8
DEFAULT_255_1_388
10
12.056035
20
0.3583599
40
0.3220463
50
6.9168387
51
47.6262497
0
ARC
8
DEFAULT_255_1_388
10
11.9225803
20
0.3337004
40
0.4575765
50
359.8415968
51
7.9697453
0
ARC
8
DEFAULT_255_1_388
10
11.9610073
20
-0.2783481
40
0.2827228
50
359.445363
51
16.9256873
0
ARC
8
DEFAULT_255_1_388
10
12.0137507
20
-0.2638219
40
0.2280396
50
17.2920767
51
45.4630727
0
ARC
8
DEFAULT_255_1_388
10
12.0076642
20
-0.2690676
40
0.2360485
50
45.30305
51
83.1920945
0
ARC
8
DEFAULT_255_1_388
10
11.9915387
20
-0.3592527
40
0.3275527
50
82.2612665
51
90.1434275
0
ARC
8
DEFAULT_255_1_388
10
11.9880663
20
-0.3330131
40
0.3013237
50
89.4956434
51
104.8580688
0
ARC
8
DEFAULT_255_1_388
10
11.9681853
20
-0.2576545
40
0.2233867
50
104.8856641
51
135.244616
0
ARC
8
DEFAULT_255_1_388
10
11.9737842
20
-0.2626648
40
0.2308906
50
135.3399546
51
172.1044062
0
ARC
8
DEFAULT_255_1_388
10
12.0645367
20
-0.2800333
40
0.3232034
50
171.2645637
51
180.186429
0
ARC
8
DEFAULT_255_1_388
10
12.0455371
20
-0.2836574
40
0.304213
50
179.5154935
51
193.6464289
0
ARC
8
DEFAULT_255_1_388
10
11.9537047
20
-0.3070527
40
0.209456
50
193.3540274
51
225.8258581
0
ARC
8
DEFAULT_255_1_388
10
11.9582919
20
-0.2990924
40
0.2183738
50
226.4180634
51
255.8552336
0
ARC
8
DEFAULT_255_1_388
10
11.9871386
20
-0.1937479
40
0.3275812
50
255.4654104
51
268.7987425
0
ARC
8
DEFAULT_255_1_388
10
11.9924562
20
-0.0995455
40
0.4218877
50
268.3449238
51
270.0094605
0
ARC
8
DEFAULT_255_1_388
10
11.9950796
20
-0.1763906
40
0.3450519
50
269.5759586
51
282.0820163
0
ARC
8
DEFAULT_255_1_388
10
12.0203832
20
-0.2882637
40
0.2303642
50
281.752014
51
306.6056188
0
ARC
8
DEFAULT_255_1_388
10
12.031464
20
-0.3064198
40
0.2091906
50
307.1346085
51
314.027845
0
ARC
8
DEFAULT_255_1_388
10
12.0274152
20
-0.3034541
40
0.2141385
50
314.2552483
51
350.1694025
0
ARC
8
DEFAULT_255_1_388
10
11.9316389
20
-0.2826825
40
0.312082
50
349.4140529
51
0.2933014
0
ARC
8
DEFAULT_255_1_388
10
11.9901666
20
0.2976924
40
0.2588377
50
89.477747
51
105.729729
0
ARC
8
DEFAULT_255_1_388
10
11.9748586
20
0.3545367
40
0.1999733
50
105.9233417
51
135.1660906
0
ARC
8
DEFAULT_255_1_388
10
11.9771617
20
0.3529412
40
0.2027322
50
135.3052302
51
168.9883645
0
ARC
8
DEFAULT_255_1_388
10
12.0702633
20
0.3315996
40
0.2982129
50
168.3801673
51
180.3602268
0
ARC
8
DEFAULT_255_1_388
10
12.044575
20
0.3273622
40
0.2725291
50
179.5033122
51
194.9125571
0
ARC
8
DEFAULT_255_1_388
10
11.9787157
20
0.3100427
40
0.204431
50
194.9720816
51
224.194444
0
ARC
8
DEFAULT_255_1_388
10
11.9755522
20
0.3074635
40
0.2003651
50
224.2962453
51
262.015664
0
ARC
8
DEFAULT_255_1_388
10
11.9915526
20
0.3897315
40
0.2840925
50
261.1245923
51
270.1962896
0
ARC
8
DEFAULT_255_1_388
10
11.9949007
20
0.3686859
40
0.2630559
50
269.4827276
51
285.0987215
0
ARC
8
DEFAULT_255_1_388
10
12.0122444
20
0.3036175
40
0.1957162
50
285.1585357
51
315.9484501
0
ARC
8
DEFAULT_255_1_388
10
12.0022317
20
0.3128315
40
0.2093195
50
316.0413965
51
351.916092
0
ARC
8
DEFAULT_255_1_388
10
11.9197692
20
0.3287323
40
0.2932279
50
351.105835
51
0.1939062
0
ARC
8
DEFAULT_255_1_388
10
11.9493326
20
0.3321224
40
0.2636739
50
359.4789618
51
16.0678224
0
ARC
8
DEFAULT_255_1_388
10
12.0028797
20
0.3465721
40
0.2082215
50
16.3252067
51
44.7913869
0
ARC
8
DEFAULT_255_1_388
10
12.000886
20
0.346632
40
0.2095992
50
44.3957814
51
88.2499162
0
ARC
8
DEFAULT_255_1_388
10
11.9926194
20
0.2778006
40
0.2787189
50
86.9833854
51
90.0192215
0
LINE
8
DEFAULT_255_1_388
10
12.9864468
20
-0.0127263
11
12.9864468
21
-0.1491645
0
LINE
8
DEFAULT_255_1_388
10
12.9864468
20
-0.1491645
11
12.5455073
21
-0.1491645
0
LINE
8
DEFAULT_255_1_388
10
12.5455073
20
-0.1491645
11
12.5455073
21
-0.0127263
0
LINE
8
DEFAULT_255_1_388
10
12.5455073
20
-0.0127263
11
12.9864468
21
-0.0127263
0
LINE
8
DEFAULT_255_1_388
10
13.9812712
20
0.6757898
11
13.9812712
21
0.5818191
0
LINE
8
DEFAULT_255_1_388
10
13.9812712
20
0.5818191
11
13.4364219
21
-0.6398
0
LINE
8
DEFAULT_255_1_388
10
13.4364219
20
-0.6398
11
13.2611304
21
-0.6398
0
LINE
8
DEFAULT_255_1_388
10
13.2611304
20
-0.6398
11
13.8041726
21
0.538448
0
LINE
8
DEFAULT_255_1_388
10
13.8041726
20
0.538448
11
13.0921638
21
0.538448
0
LINE
8
DEFAULT_255_1_388
10
13.0921638
20
0.538448
11
13.0921638
21
0.6757898
0
LINE
8
DEFAULT_255_1_388
10
13.0921638
20
0.6757898
11
13.9812712
21
0.6757898
0
LINE
8
DEFAULT_255_1_388
10
14.9399531
20
0.0830516
11
14.9399531
21
-0.0588081
0
LINE
8
DEFAULT_255_1_388
10
14.9399531
20
-0.0588081
11
14.3878752
21
-0.0588081
0
LINE
8
DEFAULT_255_1_388
10
14.3878752
20
-0.0588081
11
14.3878752
21
-0.6398
0
LINE
8
DEFAULT_255_1_388
10
14.3878752
20
-0.6398
11
14.2143909
21
-0.6398
0
LINE
8
DEFAULT_255_1_388
10
14.2143909
20
-0.6398
11
14.2143909
21
0.6757898
0
LINE
8
DEFAULT_255_1_388
10
14.2143909
20
0.6757898
11
15.029406
21
0.6757898
0
LINE
8
DEFAULT_255_1_388
10
15.029406
20
0.6757898
11
15.029406
21
0.5330267
0
LINE
8
DEFAULT_255_1_388
10
15.029406
20
0.5330267
11
14.3878752
21
0.5330267
0
LINE
8
DEFAULT_255_1_388
10
14.3878752
20
0.5330267
11
14.3878752
21
0.0830516
0
LINE
8
DEFAULT_255_1_388
10
14.3878752
20
0.0830516
11
14.9399531
21
0.0830516
0
LINE
8
DEFAULT_255_1_388
10
15.9356812
20
-0.6398
11
15.8100857
21
-0.2964455
0
LINE
8
DEFAULT_255_1_388
10
15.8100857
20
-0.2964455
11
15.2589114
21
-0.2964455
0
LINE
8
DEFAULT_255_1_388
10
15.2589114
20
-0.2964455
11
15.135123
21
-0.6398
0
LINE
8
DEFAULT_255_1_388
10
15.135123
20
-0.6398
11
14.9562173
21
-0.6398
0
LINE
8
DEFAULT_255_1_388
10
14.9562173
20
-0.6398
11
15.4585991
21
0.6757898
0
LINE
8
DEFAULT_255_1_388
10
15.4585991
20
0.6757898
11
15.6103979
21
0.6757898
0
LINE
8
DEFAULT_255_1_388
10
15.6103979
20
0.6757898
11
16.1136833
21
-0.6398
0
LINE
8
DEFAULT_255_1_388
10
16.1136833
20
-0.6398
11
15.9356812
21
-0.6398
0
LINE
8
DEFAULT_255_1_388
10
15.5344985
20
0.4616451
11
15.3113181
21
-0.1536823
0
LINE
8
DEFAULT_255_1_388
10
15.3113181
20
-0.1536823
11
15.7585825
21
-0.1536823
0
LINE
8
DEFAULT_255_1_388
10
15.7585825
20
-0.1536823
11
15.5344985
21
0.4616451
0
LINE
8
DEFAULT_255_1_388
10
17.0723652
20
0.138169
11
17.0723652
21
-0.0786865
0
LINE
8
DEFAULT_255_1_388
10
16.2419895
20
-0.1012756
11
16.2419895
21
0.1219048
0
LINE
8
DEFAULT_255_1_388
10
16.9052058
20
-0.1238647
11
16.9052058
21
0.1499153
0
LINE
8
DEFAULT_255_1_388
10
16.4091489
20
0.1625652
11
16.4091489
21
-0.1048898
0
ARC
8
DEFAULT_255_1_388
10
15.6945986
20
-0.0841882
40
1.3777776
50
353.8440855
51
0.2287917
0
ARC
8
DEFAULT_255_1_388
10
16.2165004
20
-0.1424586
40
0.852639
50
344.4934746
51
353.9763743
0
ARC
8
DEFAULT_255_1_388
10
16.5531811
20
-0.2381809
40
0.5026273
50
329.2803599
51
344.7473406
0
ARC
8
DEFAULT_255_1_388
10
16.6647307
20
-0.2993962
40
0.3754848
50
324.9361395
51
328.6153007
0
ARC
8
DEFAULT_255_1_388
10
16.7072956
20
-0.3291414
40
0.3235566
50
280.5801797
51
324.9173226
0
ARC
8
DEFAULT_255_1_388
10
16.6621585
20
-0.1411764
40
0.5167077
50
269.5979457
51
281.6732777
0
ARC
8
DEFAULT_255_1_388
10
16.6540489
20
-0.1546887
40
0.5032026
50
256.6228565
51
270.5105488
0
ARC
8
DEFAULT_255_1_388
10
16.6088231
20
-0.3288655
40
0.3233092
50
215.8618351
51
257.2787793
0
ARC
8
DEFAULT_255_1_388
10
16.7236938
20
-0.2517894
40
0.4615831
50
197.9695203
51
215.2622745
0
ARC
8
DEFAULT_255_1_388
10
17.0032614
20
-0.1574359
40
0.7566307
50
187.8816486
51
198.2346584
0
ARC
8
DEFAULT_255_1_388
10
17.4485852
20
-0.0931547
40
1.2065653
50
180.8977266
51
188.0054894
0
ARC
8
DEFAULT_255_1_388
10
17.7536066
20
-0.08166
40
1.5117443
50
180.7434591
51
181.152202
0
ARC
8
DEFAULT_255_1_388
10
17.5861062
20
0.1273371
40
1.3441277
50
173.7674302
51
180.2315596
0
ARC
8
DEFAULT_255_1_388
10
17.0778931
20
0.1847779
40
0.8326847
50
164.3058537
51
173.9000553
0
ARC
8
DEFAULT_255_1_388
10
16.7502931
20
0.2791652
40
0.4917711
50
148.7922028
51
164.5682288
0
ARC
8
DEFAULT_255_1_388
10
16.6433668
20
0.3388457
40
0.3694204
50
144.5883979
51
148.1161588
0
ARC
8
DEFAULT_255_1_388
10
16.6046413
20
0.3658667
40
0.322202
50
101.6440149
51
144.5142619
0
ARC
8
DEFAULT_255_1_388
10
16.6524606
20
0.1758337
40
0.5180451
50
89.528284
51
102.5820197
0
ARC
8
DEFAULT_255_1_388
10
16.6613598
20
0.1714376
40
0.5224441
50
77.0437914
51
90.508231
0
ARC
8
DEFAULT_255_1_388
10
16.7065851
20
0.3562272
40
0.3322297
50
48.2777708
51
77.4996087
0
ARC
8
DEFAULT_255_1_388
10
16.7147591
20
0.3707557
40
0.315966
50
36.3141586
51
47.6307332
0
ARC
8
DEFAULT_255_1_388
10
16.6170313
20
0.3049159
40
0.4337313
50
18.2931065
51
35.6770203
0
ARC
8
DEFAULT_255_1_388
10
16.3309154
20
0.2067107
40
0.7362203
50
8.0246996
51
18.5605636
0
ARC
8
DEFAULT_255_1_388
10
15.862551
20
0.1375432
40
1.2096583
50
1.127539
51
8.1718423
0
ARC
8
DEFAULT_255_1_388
10
15.4976643
20
0.1232374
40
1.5747719
50
0.5432713
51
1.38669
0
ARC
8
DEFAULT_255_1_388
10
15.7034022
20
0.1539163
40
1.2018103
50
359.8092569
51
4.9408001
0
ARC
8
DEFAULT_255_1_388
10
16.1770603
20
0.19619
40
0.7262727
50
4.8364937
51
12.2906017
0
ARC
8
DEFAULT_255_1_388
10
16.4870068
20
0.2652485
40
0.4087324
50
12.0806994
51
23.8171225
0
ARC
8
DEFAULT_255_1_388
10
16.6190464
20
0.3211508
40
0.2653719
50
24.2874621
51
31.3934353
0
ARC
8
DEFAULT_255_1_388
10
16.67809
20
0.3597822
40
0.1948607
50
30.7407708
51
82.4658033
0
ARC
8
DEFAULT_255_1_388
10
16.6578561
20
0.2604017
40
0.2961198
50
81.1057101
51
90.2187368
0
ARC
8
DEFAULT_255_1_388
10
16.6538373
20
0.2894421
40
0.2670929
50
89.380395
51
105.6763916
0
ARC
8
DEFAULT_255_1_388
10
16.6332095
20
0.364432
40
0.1893189
50
105.7980655
51
149.7387869
0
ARC
8
DEFAULT_255_1_388
10
16.7529235
20
0.2924719
40
0.3289892
50
149.4208441
51
163.628295
0
ARC
8
DEFAULT_255_1_388
10
16.9881464
20
0.2207345
40
0.5749004
50
163.3764549
51
172.141138
0
ARC
8
DEFAULT_255_1_388
10
17.3594186
20
0.1675582
40
0.9499585
50
172.0258462
51
178.0705453
0
ARC
8
DEFAULT_255_1_388
10
17.7015738
20
0.1513682
40
1.2924734
50
177.8639301
51
179.5036263
0
ARC
8
DEFAULT_255_1_388
10
17.5796757
20
-0.1089849
40
1.170534
50
179.7995545
51
185.246089
0
ARC
8
DEFAULT_255_1_388
10
17.124835
20
-0.1520596
40
0.7136613
50
185.1411911
51
193.0082205
0
ARC
8
DEFAULT_255_1_388
10
16.8274611
20
-0.2223559
40
0.4080987
50
192.7897338
51
205.2507384
0
ARC
8
DEFAULT_255_1_388
10
16.7096821
20
-0.2749462
40
0.2791522
50
205.8001921
51
211.2545876
0
ARC
8
DEFAULT_255_1_388
10
16.650836
20
-0.3143868
40
0.2084074
50
210.3789935
51
238.4007996
0
ARC
8
DEFAULT_255_1_388
10
16.6486446
20
-0.3091214
40
0.2117943
50
239.6521916
51
265.9793852
0
ARC
8
DEFAULT_255_1_388
10
16.6582295
20
-0.2334642
40
0.2879689
50
265.1324455
51
270.0603288
0
ARC
8
DEFAULT_255_1_388
10
16.6614672
20
-0.2699582
40
0.2514919
50
269.3314378
51
287.2180039
0
ARC
8
DEFAULT_255_1_388
10
16.6769754
20
-0.3265709
40
0.1928357
50
287.7957942
51
329.0808983
0
ARC
8
DEFAULT_255_1_388
10
16.5692511
20
-0.2593349
40
0.319808
50
328.6635261
51
343.3325043
0
ARC
8
DEFAULT_255_1_388
10
16.324797
20
-0.1831805
40
0.5758408
50
343.0498092
51
351.9392499
0
ARC
8
DEFAULT_255_1_388
10
15.9347292
20
-0.1256795
40
0.9701202
50
351.8071632
51
357.7957897
0
ARC
8
DEFAULT_255_1_388
10
15.5712769
20
-0.1068276
40
1.3340376
50
357.5870923
51
359.2682493
0
LINE
8
DEFAULT_255_1_388
10
18.1114644
20
0.138169
11
18.1114644
21
-0.0786865
0
LINE
8
DEFAULT_255_1_388
10
17.2810886
20
-0.1012756
11
17.2810886
21
0.1219048
0
LINE
8
DEFAULT_255_1_388
10
17.9443049
20
-0.1238647
11
17.9443049
21
0.1499153
0
LINE
8
DEFAULT_255_1_388
10
17.448248
20
0.1625652
11
17.448248
21
-0.1048898
0
ARC
8
DEFAULT_255_1_388
10
16.7336978
20
-0.0841882
40
1.3777776
50
353.8440855
51
0.2287917
0
ARC
8
DEFAULT_255_1_388
10
17.2555995
20
-0.1424586
40
0.852639
50
344.4934746
51
353.9763743
0
ARC
8
DEFAULT_255_1_388
10
17.5922802
20
-0.2381809
40
0.5026273
50
329.2803599
51
344.7473406
0
ARC
8
DEFAULT_255_1_388
10
17.7038298
20
-0.2993962
40
0.3754848
50
324.9361395
51
328.6153007
0
ARC
8
DEFAULT_255_1_388
10
17.7463948
20
-0.3291414
40
0.3235566
50
280.5801797
51
324.9173226
0
ARC
8
DEFAULT_255_1_388
10
17.7012576
20
-0.1411764
40
0.5167077
50
269.5979457
51
281.6732777
0
ARC
8
DEFAULT_255_1_388
10
17.693148
20
-0.1546887
40
0.5032026
50
256.6228565
51
270.5105488
0
ARC
8
DEFAULT_255_1_388
10
17.6479223
20
-0.3288655
40
0.3233092
50
215.8618351
51
257.2787793
0
ARC
8
DEFAULT_255_1_388
10
17.762793
20
-0.2517894
40
0.4615831
50
197.9695203
51
215.2622745
0
ARC
8
DEFAULT_255_1_388
10
18.0423605
20
-0.1574359
40
0.7566307
50
187.8816486
51
198.2346584
0
ARC
8
DEFAULT_255_1_388
10
18.4876843
20
-0.0931547
40
1.2065653
50
180.8977266
51
188.0054894
0
ARC
8
DEFAULT_255_1_388
10
18.7927057
20
-0.08166
40
1.5117443
50
180.7434591
51
181.152202
0
ARC
8
DEFAULT_255_1_388
10
18.6252053
20
0.1273371
40
1.3441277
50
173.7674302
51
180.2315596
0
ARC
8
DEFAULT_255_1_388
10
18.1169922
20
0.1847779
40
0.8326847
50
164.3058537
51
173.9000553
0
ARC
8
DEFAULT_255_1_388
10
17.7893922
20
0.2791652
40
0.4917711
50
148.7922028
51
164.5682288
0
ARC
8
DEFAULT_255_1_388
10
17.6824659
20
0.3388457
40
0.3694204
50
144.5883979
51
148.1161588
0
ARC
8
DEFAULT_255_1_388
10
17.6437405
20
0.3658667
40
0.322202
50
101.6440149
51
144.5142619
0
ARC
8
DEFAULT_255_1_388
10
17.6915597
20
0.1758337
40
0.5180451
50
89.528284
51
102.5820197
0
ARC
8
DEFAULT_255_1_388
10
17.7004589
20
0.1714376
40
0.5224441
50
77.0437914
51
90.508231
0
ARC
8
DEFAULT_255_1_388
10
17.7456843
20
0.3562272
40
0.3322297
50
48.2777708
51
77.4996087
0
ARC
8
DEFAULT_255_1_388
10
17.7538583
20
0.3707557
40
0.315966
50
36.3141586
51
47.6307332
0
ARC
8
DEFAULT_255_1_388
10
17.6561305
20
0.3049159
40
0.4337313
50
18.2931065
51
35.6770203
0
ARC
8
DEFAULT_255_1_388
10
17.3700146
20
0.2067107
40
0.7362203
50
8.0246996
51
18.5605636
0
ARC
8
DEFAULT_255_1_388
10
16.9016501
20
0.1375432
40
1.2096583
50
1.127539
51
8.1718423
0
ARC
8
DEFAULT_255_1_388
10
16.5367634
20
0.1232374
40
1.5747719
50
0.5432713
51
1.38669
0
ARC
8
DEFAULT_255_1_388
10
16.7425013
20
0.1539163
40
1.2018103
50
359.8092569
51
4.9408001
0
ARC
8
DEFAULT_255_1_388
10
17.2161594
20
0.19619
40
0.7262727
50
4.8364937
51
12.2906017
0
ARC
8
DEFAULT_255_1_388
10
17.5261059
20
0.2652485
40
0.4087324
50
12.0806994
51
23.8171225
0
ARC
8
DEFAULT_255_1_388
10
17.6581455
20
0.3211508
40
0.2653719
50
24.2874621
51
31.3934353
0
ARC
8
DEFAULT_255_1_388
10
17.7171891
20
0.3597822
40
0.1948607
50
30.7407708
51
82.4658033
0
ARC
8
DEFAULT_255_1_388
10
17.6969552
20
0.2604017
40
0.2961198
50
81.1057101
51
90.2187368
0
ARC
8
DEFAULT_255_1_388
10
17.6929364
20
0.2894421
40
0.2670929
50
89.380395
51
105.6763916
0
ARC
8
DEFAULT_255_1_388
10
17.6723086
20
0.364432
40
0.1893189
50
105.7980655
51
149.7387869
0
ARC
8
DEFAULT_255_1_388
10
17.7920226
20
0.2924719
40
0.3289892
50
149.4208441
51
163.628295
0
ARC
8
DEFAULT_255_1_388
10
18.0272456
20
0.2207345
40
0.5749004
50
163.3764549
51
172.141138
0
ARC
8
DEFAULT_255_1_388
10
18.3985177
20
0.1675582
40
0.9499585
50
172.0258462
51
178.0705453
0
ARC
8
DEFAULT_255_1_388
10
18.740673
20
0.1513682
40
1.2924734
50
177.8639301
51
179.5036263
0
ARC
8
DEFAULT_255_1_388
10
18.6187748
20
-0.1089849
40
1.170534
50
179.7995545
51
185.246089
0
ARC
8
DEFAULT_255_1_388
10
18.1639342
20
-0.1520596
40
0.7136613
50
185.1411911
51
193.0082205
0
ARC
8
DEFAULT_255_1_388
10
17.8665602
20
-0.2223559
40
0.4080987
50
192.7897338
51
205.2507384
0
ARC
8
DEFAULT_255_1_388
10
17.7487812
20
-0.2749462
40
0.2791522
50
205.8001921
51
211.2545876
0
ARC
8
DEFAULT_255_1_388
10
17.6899351
20
-0.3143868
40
0.2084074
50
210.3789935
51
238.4007996
0
ARC
8
DEFAULT_255_1_388
10
17.6877437
20
-0.3091214
40
0.2117943
50
239.6521916
51
265.9793852
0
ARC
8
DEFAULT_255_1_388
10
17.6973286
20
-0.2334642
40
0.2879689
50
265.1324455
51
270.0603288
0
ARC
8
DEFAULT_255_1_388
10
17.7005663
20
-0.2699582
40
0.2514919
50
269.3314378
51
287.2180039
0
ARC
8
DEFAULT_255_1_388
10
17.7160746
20
-0.3265709
40
0.1928357
50
287.7957942
51
329.0808983
0
ARC
8
DEFAULT_255_1_388
10
17.6083503
20
-0.2593349
40
0.319808
50
328.6635261
51
343.3325043
0
ARC
8
DEFAULT_255_1_388
10
17.3638961
20
-0.1831805
40
0.5758408
50
343.0498092
51
351.9392499
0
ARC
8
DEFAULT_255_1_388
10
16.9738283
20
-0.1256795
40
0.9701202
50
351.8071632
51
357.7957897
0
ARC
8
DEFAULT_255_1_388
10
16.610376
20
-0.1068276
40
1.3340376
50
357.5870923
51
359.2682493
0
LINE
8
DEFAULT_255_1_388
10
18.6906492
20
-0.0127263
11
18.6906492
21
-0.1491645
0
LINE
8
DEFAULT_255_1_388
10
18.6906492
20
-0.1491645
11
18.2497097
21
-0.1491645
0
LINE
8
DEFAULT_255_1_388
10
18.2497097
20
-0.1491645
11
18.2497097
21
-0.0127263
0
LINE
8
DEFAULT_255_1_388
10
18.2497097
20
-0.0127263
11
18.6906492
21
-0.0127263
0
LINE
8
DEFAULT_255_1_388
10
19.6610774
20
0.138169
11
19.6610774
21
-0.0786865
0
LINE
8
DEFAULT_255_1_388
10
18.8307017
20
-0.1012756
11
18.8307017
21
0.1219048
0
LINE
8
DEFAULT_255_1_388
10
19.493918
20
-0.1238647
11
19.493918
21
0.1499153
0
LINE
8
DEFAULT_255_1_388
10
18.9978611
20
0.1625652
11
18.9978611
21
-0.1048898
0
ARC
8
DEFAULT_255_1_388
10
18.2833108
20
-0.0841882
40
1.3777776
50
353.8440855
51
0.2287917
0
ARC
8
DEFAULT_255_1_388
10
18.8052125
20
-0.1424586
40
0.852639
50
344.4934746
51
353.9763743
0
ARC
8
DEFAULT_255_1_388
10
19.1418932
20
-0.2381809
40
0.5026273
50
329.2803599
51
344.7473406
0
ARC
8
DEFAULT_255_1_388
10
19.2534428
20
-0.2993962
40
0.3754848
50
324.9361395
51
328.6153007
0
ARC
8
DEFAULT_255_1_388
10
19.2960078
20
-0.3291414
40
0.3235566
50
280.5801797
51
324.9173226
0
ARC
8
DEFAULT_255_1_388
10
19.2508707
20
-0.1411764
40
0.5167077
50
269.5979457
51
281.6732777
0
ARC
8
DEFAULT_255_1_388
10
19.242761
20
-0.1546887
40
0.5032026
50
256.6228565
51
270.5105488
0
ARC
8
DEFAULT_255_1_388
10
19.1975353
20
-0.3288655
40
0.3233092
50
215.8618351
51
257.2787793
0
ARC
8
DEFAULT_255_1_388
10
19.312406
20
-0.2517894
40
0.4615831
50
197.9695203
51
215.2622745
0
ARC
8
DEFAULT_255_1_388
10
19.5919736
20
-0.1574359
40
0.7566307
50
187.8816486
51
198.2346584
0
ARC
8
DEFAULT_255_1_388
10
20.0372974
20
-0.0931547
40
1.2065653
50
180.8977266
51
188.0054894
0
ARC
8
DEFAULT_255_1_388
10
20.3423188
20
-0.08166
40
1.5117443
50
180.7434591
51
181.152202
0
ARC
8
DEFAULT_255_1_388
10
20.1748183
20
0.1273371
40
1.3441277
50
173.7674302
51
180.2315596
0
ARC
8
DEFAULT_255_1_388
10
19.6666052
20
0.1847779
40
0.8326847
50
164.3058537
51
173.9000553
0
ARC
8
DEFAULT_255_1_388
10
19.3390052
20
0.2791652
40
0.4917711
50
148.7922028
51
164.5682288
0
ARC
8
DEFAULT_255_1_388
10
19.232079
20
0.3388457
40
0.3694204
50
144.5883979
51
148.1161588
0
ARC
8
DEFAULT_255_1_388
10
19.1933535
20
0.3658667
40
0.322202
50
101.6440149
51
144.5142619
0
ARC
8
DEFAULT_255_1_388
10
19.2411727
20
0.1758337
40
0.5180451
50
89.528284
51
102.5820197
0
ARC
8
DEFAULT_255_1_388
10
19.2500719
20
0.1714376
40
0.5224441
50
77.0437914
51
90.508231
0
ARC
8
DEFAULT_255_1_388
10
19.2952973
20
0.3562272
40
0.3322297
50
48.2777708
51
77.4996087
0
ARC
8
DEFAULT_255_1_388
10
19.3034713
20
0.3707557
40
0.315966
50
36.3141586
51
47.6307332
0
ARC
8
DEFAULT_255_1_388
10
19.2057435
20
0.3049159
40
0.4337313
50
18.2931065
51
35.6770203
0
ARC
8
DEFAULT_255_1_388
10
18.9196276
20
0.2067107
40
0.7362203
50
8.0246996
51
18.5605636
0
ARC
8
DEFAULT_255_1_388
10
18.4512631
20
0.1375432
40
1.2096583
50
1.127539
51
8.1718423
0
ARC
8
DEFAULT_255_1_388
10
18.0863765
20
0.1232374
40
1.5747719
50
0.5432713
51
1.38669
0
ARC
8
DEFAULT_255_1_388
10
18.2921144
20
0.1539163
40
1.2018103
50
359.8092569
51
4.9408001
0
ARC
8
DEFAULT_255_1_388
10
18.7657725
20
0.19619
40
0.7262727
50
4.8364937
51
12.2906017
0
ARC
8
DEFAULT_255_1_388
10
19.075719
20
0.2652485
40
0.4087324
50
12.0806994
51
23.8171225
0
ARC
8
DEFAULT_255_1_388
10
19.2077586
20
0.3211508
40
0.2653719
50
24.2874621
51
31.3934353
0
ARC
8
DEFAULT_255_1_388
10
19.2668021
20
0.3597822
40
0.1948607
50
30.7407708
51
82.4658033
0
ARC
8
DEFAULT_255_1_388
10
19.2465682
20
0.2604017
40
0.2961198
50
81.1057101
51
90.2187368
0
ARC
8
DEFAULT_255_1_388
10
19.2425494
20
0.2894421
40
0.2670929
50
89.380395
51
105.6763916
0
ARC
8
DEFAULT_255_1_388
10
19.2219216
20
0.364432
40
0.1893189
50
105.7980655
51
149.7387869
0
ARC
8
DEFAULT_255_1_388
10
19.3416356
20
0.2924719
40
0.3289892
50
149.4208441
51
163.628295
0
ARC
8
DEFAULT_255_1_388
10
19.5768586
20
0.2207345
40
0.5749004
50
163.3764549
51
172.141138
0
ARC
8
DEFAULT_255_1_388
10
19.9481307
20
0.1675582
40
0.9499585
50
172.0258462
51
178.0705453
0
ARC
8
DEFAULT_255_1_388
10
20.290286
20
0.1513682
40
1.2924734
50
177.8639301
51
179.5036263
0
ARC
8
DEFAULT_255_1_388
10
20.1683879
20
-0.1089849
40
1.170534
50
179.7995545
51
185.246089
0
ARC
8
DEFAULT_255_1_388
10
19.7135472
20
-0.1520596
40
0.7136613
50
185.1411911
51
193.0082205
0
ARC
8
DEFAULT_255_1_388
10
19.4161733
20
-0.2223559
40
0.4080987
50
192.7897338
51
205.2507384
0
ARC
8
DEFAULT_255_1_388
10
19.2983943
20
-0.2749462
40
0.2791522
50
205.8001921
51
211.2545876
0
ARC
8
DEFAULT_255_1_388
10
19.2395482
20
-0.3143868
40
0.2084074
50
210.3789935
51
238.4007996
0
ARC
8
DEFAULT_255_1_388
10
19.2373568
20
-0.3091214
40
0.2117943
50
239.6521916
51
265.9793852
0
ARC
8
DEFAULT_255_1_388
10
19.2469417
20
-0.2334642
40
0.2879689
50
265.1324455
51
270.0603288
0
ARC
8
DEFAULT_255_1_388
10
19.2501794
20
-0.2699582
40
0.2514919
50
269.3314378
51
287.2180039
0
ARC
8
DEFAULT_255_1_388
10
19.2656876
20
-0.3265709
40
0.1928357
50
287.7957942
51
329.0808983
0
ARC
8
DEFAULT_255_1_388
10
19.1579633
20
-0.2593349
40
0.319808
50
328.6635261
51
343.3325043
0
ARC
8
DEFAULT_255_1_388
10
18.9135092
20
-0.1831805
40
0.5758408
50
343.0498092
51
351.9392499
0
ARC
8
DEFAULT_255_1_388
10
18.5234413
20
-0.1256795
40
0.9701202
50
351.8071632
51
357.7957897
0
ARC
8
DEFAULT_255_1_388
10
18.159989
20
-0.1068276
40
1.3340376
50
357.5870923
51
359.2682493
0
LINE
8
DEFAULT_255_1_388
10
20.7706545
20
-0.6398
11
20.6450591
21
-0.2964455
0
LINE
8
DEFAULT_255_1_388
10
20.6450591
20
-0.2964455
11
20.0938848
21
-0.2964455
0
LINE
8
DEFAULT_255_1_388
10
20.0938848
20
-0.2964455
11
19.9700964
21
-0.6398
0
LINE
8
DEFAULT_255_1_388
10
19.9700964
20
-0.6398
11
19.7911907
21
-0.6398
0
LINE
8
DEFAULT_255_1_388
10
19.7911907
20
-0.6398
11
20.2935725
21
0.6757898
0
LINE
8
DEFAULT_255_1_388
10
20.2935725
20
0.6757898
11
20.4453713
21
0.6757898
0
LINE
8
DEFAULT_255_1_388
10
20.4453713
20
0.6757898
11
20.9486567
21
-0.6398
0
LINE
8
DEFAULT_255_1_388
10
20.9486567
20
-0.6398
11
20.7706545
21
-0.6398
0
LINE
8
DEFAULT_255_1_388
10
20.3694719
20
0.4616451
11
20.1462915
21
-0.1536823
0
LINE
8
DEFAULT_255_1_388
10
20.1462915
20
-0.1536823
11
20.5935559
21
-0.1536823
0
LINE
8
DEFAULT_255_1_388
10
20.5935559
20
-0.1536823
11
20.3694719
21
0.4616451
0
LINE
8
DEFAULT_255_1_388
10
21.5820554
20
-0.6398
11
21.1257554
21
-0.6398
0
LINE
8
DEFAULT_255_1_388
10
21.1257554
20
-0.6398
11
21.1257554
21
0.6757898
0
LINE
8
DEFAULT_255_1_388
10
21.1257554
20
0.6757898
11
21.5558521
21
0.6757898
0
LINE
8
DEFAULT_255_1_388
10
21.5883804
20
-0.0244726
11
21.2992397
21
-0.0244726
0
LINE
8
DEFAULT_255_1_388
10
21.2992397
20
-0.0244726
11
21.2992397
21
-0.4979404
0
LINE
8
DEFAULT_255_1_388
10
21.2992397
20
-0.4979404
11
21.5856697
21
-0.4979404
0
LINE
8
DEFAULT_255_1_388
10
21.2992397
20
0.5330267
11
21.2992397
21
0.1146763
0
LINE
8
DEFAULT_255_1_388
10
21.2992397
20
0.1146763
11
21.5612734
21
0.1146763
0
LINE
8
DEFAULT_255_1_388
10
21.5558521
20
0.5330267
11
21.2992397
21
0.5330267
0
ARC
8
DEFAULT_255_1_388
10
21.5600941
20
-0.1530176
40
0.8288183
50
82.1256322
51
90.2932506
0
ARC
8
DEFAULT_255_1_388
10
21.6038516
20
0.152759
40
0.5199321
50
69.9044202
51
82.2857574
0
ARC
8
DEFAULT_255_1_388
10
21.6680508
20
0.3262993
40
0.3348993
50
51.1840204
51
70.018125
0
ARC
8
DEFAULT_255_1_388
10
21.6967341
20
0.3679945
40
0.2844579
50
12.1018086
51
50.421322
0
ARC
8
DEFAULT_255_1_388
10
21.5410212
20
0.3288937
40
0.4449429
50
359.5252354
51
12.8212369
0
ARC
8
DEFAULT_255_1_388
10
21.7187642
20
0.3210943
40
0.2672162
50
323.4907456
51
0.8818258
0
ARC
8
DEFAULT_255_1_388
10
21.6717054
20
0.3574523
40
0.3266736
50
298.6824053
51
323.2758285
0
ARC
8
DEFAULT_255_1_388
10
21.6310346
20
0.4250509
40
0.4055105
50
293.1994739
51
299.139634
0
ARC
8
DEFAULT_255_1_388
10
21.7067296
20
-0.2595349
40
0.3229926
50
54.0009997
51
74.9168635
0
ARC
8
DEFAULT_255_1_388
10
21.7198222
20
-0.2373489
40
0.2973581
50
36.3578854
51
53.5293172
0
ARC
8
DEFAULT_255_1_388
10
21.7055591
20
-0.247515
40
0.3148715
50
4.8189348
51
36.3090187
0
ARC
8
DEFAULT_255_1_388
10
21.6178615
20
-0.2598617
40
0.4033265
50
359.9373213
51
5.5201284
0
ARC
8
DEFAULT_255_1_388
10
21.5813945
20
-0.2644267
40
0.4398126
50
344.7479357
51
0.5372278
0
ARC
8
DEFAULT_255_1_388
10
21.6928843
20
-0.2944795
40
0.3243441
50
311.1785587
51
344.6887681
0
ARC
8
DEFAULT_255_1_388
10
21.6600387
20
-0.2535916
40
0.3767511
50
286.0417804
51
310.8440924
0
ARC
8
DEFAULT_255_1_388
10
21.6029796
20
-0.0683115
40
0.5705957
50
274.1044074
51
286.4070149
0
ARC
8
DEFAULT_255_1_388
10
21.5831011
20
0.1434901
40
0.7832907
50
269.9235077
51
274.4458593
0
ARC
8
DEFAULT_255_1_388
10
21.588273
20
-0.1196538
40
0.3782955
50
269.6057074
51
281.3740795
0
ARC
8
DEFAULT_255_1_388
10
21.6142228
20
-0.2426431
40
0.2526069
50
281.105298
51
302.5134029
0
ARC
8
DEFAULT_255_1_388
10
21.6307616
20
-0.2723056
40
0.2187131
50
303.0365425
51
311.8818034
0
ARC
8
DEFAULT_255_1_388
10
21.6387793
20
-0.2818398
40
0.2062624
50
311.9916937
51
351.7143773
0
ARC
8
DEFAULT_255_1_388
10
21.5468818
20
-0.2632729
40
0.2999202
50
350.7343295
51
0.2221526
0
ARC
8
DEFAULT_255_1_388
10
21.5347906
20
-0.256913
40
0.3120525
50
359.045729
51
17.2295312
0
ARC
8
DEFAULT_255_1_388
10
21.6516936
20
-0.2221845
40
0.1901144
50
17.6685208
51
78.9940245
0
ARC
8
DEFAULT_255_1_388
10
21.5935297
20
-0.4309989
40
0.4065575
50
76.565218
51
90.7103392
0
LINE
8
DEFAULT_255_1_388
10
21.5884894
20
-0.0244726
11
21.5883804
21
-0.0244726
0
ARC
8
DEFAULT_255_1_388
10
21.5638123
20
0.4842949
40
0.3696273
50
269.6064514
51
281.4533785
0
ARC
8
DEFAULT_255_1_388
10
21.5888764
20
0.3660283
40
0.2487412
50
281.2044438
51
302.5143998
0
ARC
8
DEFAULT_255_1_388
10
21.6043017
20
0.3382576
40
0.2170405
50
303.0211308
51
309.8378766
0
ARC
8
DEFAULT_255_1_388
10
21.6249135
20
0.3151486
40
0.1860946
50
309.5229446
51
356.9509628
0
ARC
8
DEFAULT_255_1_388
10
21.5503261
20
0.3258831
40
0.2612347
50
355.4699226
51
0.0498632
0
ARC
8
DEFAULT_255_1_388
10
21.5188934
20
0.3283789
40
0.2926762
50
359.5558955
51
11.2092924
0
ARC
8
DEFAULT_255_1_388
10
21.6265902
20
0.3506667
40
0.1827036
50
10.9185717
51
31.322519
0
ARC
8
DEFAULT_255_1_388
10
21.658745
20
0.3685571
40
0.1459418
50
31.8850633
51
52.1415586
0
ARC
8
DEFAULT_255_1_388
10
21.6278879
20
0.3249674
40
0.1993088
50
52.8283418
51
71.9850132
0
ARC
8
DEFAULT_255_1_388
10
21.585604
20
0.2005158
40
0.3307407
50
71.686634
51
82.8453416
0
ARC
8
DEFAULT_255_1_388
10
21.5586687
20
-0.0030108
40
0.536039
50
82.6981895
51
90.1730083
0
ARC
8
DEFAULT_255_1_388
10
21.5561518
20
0.0848836
40
0.4481429
50
89.8851568
51
90.0383283
0
LINE
8
DEFAULT_255_1_388
10
23.0593833
20
0.138169
11
23.0593833
21
-0.0786865
0
LINE
8
DEFAULT_255_1_388
10
22.2290076
20
-0.1012756
11
22.2290076
21
0.1219048
0
LINE
8
DEFAULT_255_1_388
10
22.8922239
20
-0.1238647
11
22.8922239
21
0.1499153
0
LINE
8
DEFAULT_255_1_388
10
22.396167
20
0.1625652
11
22.396167
21
-0.1048898
0
ARC
8
DEFAULT_255_1_388
10
21.6816167
20
-0.0841882
40
1.3777776
50
353.8440855
51
0.2287917
0
ARC
8
DEFAULT_255_1_388
10
22.2035184
20
-0.1424586
40
0.852639
50
344.4934746
51
353.9763743
0
ARC
8
DEFAULT_255_1_388
10
22.5401992
20
-0.2381809
40
0.5026273
50
329.2803599
51
344.7473406
0
ARC
8
DEFAULT_255_1_388
10
22.6517487
20
-0.2993962
40
0.3754848
50
324.9361395
51
328.6153007
0
ARC
8
DEFAULT_255_1_388
10
22.6943137
20
-0.3291414
40
0.3235566
50
280.5801797
51
324.9173226
0
ARC
8
DEFAULT_255_1_388
10
22.6491766
20
-0.1411764
40
0.5167077
50
269.5979457
51
281.6732777
0
ARC
8
DEFAULT_255_1_388
10
22.6410669
20
-0.1546887
40
0.5032026
50
256.6228565
51
270.5105488
0
ARC
8
DEFAULT_255_1_388
10
22.5958412
20
-0.3288655
40
0.3233092
50
215.8618351
51
257.2787793
0
ARC
8
DEFAULT_255_1_388
10
22.7107119
20
-0.2517894
40
0.4615831
50
197.9695203
51
215.2622745
0
ARC
8
DEFAULT_255_1_388
10
22.9902795
20
-0.1574359
40
0.7566307
50
187.8816486
51
198.2346584
0
ARC
8
DEFAULT_255_1_388
10
23.4356033
20
-0.0931547
40
1.2065653
50
180.8977266
51
188.0054894
0
ARC
8
DEFAULT_255_1_388
10
23.7406247
20
-0.08166
40
1.5117443
50
180.7434591
51
181.152202
0
ARC
8
DEFAULT_255_1_388
10
23.5731242
20
0.1273371
40
1.3441277
50
173.7674302
51
180.2315596
0
ARC
8
DEFAULT_255_1_388
10
23.0649111
20
0.1847779
40
0.8326847
50
164.3058537
51
173.9000553
0
ARC
8
DEFAULT_255_1_388
10
22.7373111
20
0.2791652
40
0.4917711
50
148.7922028
51
164.5682288
0
ARC
8
DEFAULT_255_1_388
10
22.6303849
20
0.3388457
40
0.3694204
50
144.5883979
51
148.1161588
0
ARC
8
DEFAULT_255_1_388
10
22.5916594
20
0.3658667
40
0.322202
50
101.6440149
51
144.5142619
0
ARC
8
DEFAULT_255_1_388
10
22.6394786
20
0.1758337
40
0.5180451
50
89.528284
51
102.5820197
0
ARC
8
DEFAULT_255_1_388
10
22.6483778
20
0.1714376
40
0.5224441
50
77.0437914
51
90.508231
0
ARC
8
DEFAULT_255_1_388
10
22.6936032
20
0.3562272
40
0.3322297
50
48.2777708
51
77.4996087
0
ARC
8
DEFAULT_255_1_388
10
22.7017772
20
0.3707557
40
0.315966
50
36.3141586
51
47.6307332
0
ARC
8
DEFAULT_255_1_388
10
22.6040494
20
0.3049159
40
0.4337313
50
18.2931065
51
35.6770203
0
ARC
8
DEFAULT_255_1_388
10
22.3179335
20
0.2067107
40
0.7362203
50
8.0246996
51
18.5605636
0
ARC
8
DEFAULT_255_1_388
10
21.849569
20
0.1375432
40
1.2096583
50
1.127539
51
8.1718423
0
ARC
8
DEFAULT_255_1_388
10
21.4846824
20
0.1232374
40
1.5747719
50
0.5432713
51
1.38669
0
ARC
8
DEFAULT_255_1_388
10
21.6904203
20
0.1539163
40
1.2018103
50
359.8092569
51
4.9408001
0
ARC
8
DEFAULT_255_1_388
10
22.1640784
20
0.19619
40
0.7262727
50
4.8364937
51
12.2906017
0
ARC
8
DEFAULT_255_1_388
10
22.4740249
20
0.2652485
40
0.4087324
50
12.0806994
51
23.8171225
0
ARC
8
DEFAULT_255_1_388
10
22.6060645
20
0.3211508
40
0.2653719
50
24.2874621
51
31.3934353
0
ARC
8
DEFAULT_255_1_388
10
22.6651081
20
0.3597822
40
0.1948607
50
30.7407708
51
82.4658033
0
ARC
8
DEFAULT_255_1_388
10
22.6448741
20
0.2604017
40
0.2961198
50
81.1057101
51
90.2187368
0
ARC
8
DEFAULT_255_1_388
10
22.6408553
20
0.2894421
40
0.2670929
50
89.380395
51
105.6763916
0
ARC
8
DEFAULT_255_1_388
10
22.6202275
20
0.364432
40
0.1893189
50
105.7980655
51
149.7387869
0
ARC
8
DEFAULT_255_1_388
10
22.7399415
20
0.2924719
40
0.3289892
50
149.4208441
51
163.628295
0
ARC
8
DEFAULT_255_1_388
10
22.9751645
20
0.2207345
40
0.5749004
50
163.3764549
51
172.141138
0
ARC
8
DEFAULT_255_1_388
10
23.3464366
20
0.1675582
40
0.9499585
50
172.0258462
51
178.0705453
0
ARC
8
DEFAULT_255_1_388
10
23.6885919
20
0.1513682
40
1.2924734
50
177.8639301
51
179.5036263
0
ARC
8
DEFAULT_255_1_388
10
23.5666938
20
-0.1089849
40
1.170534
50
179.7995545
51
185.246089
0
ARC
8
DEFAULT_255_1_388
10
23.1118531
20
-0.1520596
40
0.7136613
50
185.1411911
51
193.0082205
0
ARC
8
DEFAULT_255_1_388
10
22.8144792
20
-0.2223559
40
0.4080987
50
192.7897338
51
205.2507384
0
ARC
8
DEFAULT_255_1_388
10
22.6967002
20
-0.2749462
40
0.2791522
50
205.8001921
51
211.2545876
0
ARC
8
DEFAULT_255_1_388
10
22.6378541
20
-0.3143868
40
0.2084074
50
210.3789935
51
238.4007996
0
ARC
8
DEFAULT_255_1_388
10
22.6356627
20
-0.3091214
40
0.2117943
50
239.6521916
51
265.9793852
0
ARC
8
DEFAULT_255_1_388
10
22.6452476
20
-0.2334642
40
0.2879689
50
265.1324455
51
270.0603288
0
ARC
8
DEFAULT_255_1_388
10
22.6484853
20
-0.2699582
40
0.2514919
50
269.3314378
51
287.2180039
0
ARC
8
DEFAULT_255_1_388
10
22.6639935
20
-0.3265709
40
0.1928357
50
287.7957942
51
329.0808983
0
ARC
8
DEFAULT_255_1_388
10
22.5562692
20
-0.2593349
40
0.319808
50
328.6635261
51
343.3325043
0
ARC
8
DEFAULT_255_1_388
10
22.3118151
20
-0.1831805
40
0.5758408
50
343.0498092
51
351.9392499
0
ARC
8
DEFAULT_255_1_388
10
21.9217472
20
-0.1256795
40
0.9701202
50
351.8071632
51
357.7957897
0
ARC
8
DEFAULT_255_1_388
10
21.5582949
20
-0.1068276
40
1.3340376
50
357.5870923
51
359.2682493
0
LINE
8
DEFAULT_255_2_778
10
9.3927417
20
124.2219075
11
10.7156417
21
124.2219075
0
LINE
8
DEFAULT_255_2_778
10
10.7156417
20
124.2219075
11
10.7156417
21
67.3365075
0
LINE
8
DEFAULT_255_2_778
10
9.3926834
20
67.3364333
11
12.0384834
21
67.3364333
0
LINE
8
DEFAULT_255_2_778
10
12.0384834
20
67.3364333
11
12.0384834
21
62.0447333
0
LINE
8
DEFAULT_255_2_778
10
12.0384834
20
62.0447333
11
9.3926834
21
62.0447333
0
LINE
8
DEFAULT_255_2_778
10
9.3926834
20
62.0447333
11
9.3926834
21
67.3364333
0
ARC
8
DEFAULT_255_2_778_1
10
13.1922591
20
62.147177
40
4.816461
50
120.9442904
51
122.351755
0
ARC
8
DEFAULT_255_2_778_1
10
12.7456523
20
62.8508039
40
3.9830657
50
122.3407904
51
124.1946752
0
ARC
8
DEFAULT_255_2_778_1
10
12.3057464
20
63.4973306
40
3.2010724
50
124.1855758
51
126.4338849
0
ARC
8
DEFAULT_255_2_778_1
10
11.9198129
20
64.0200611
40
2.5513094
50
126.4326926
51
128.8877368
0
ARC
8
DEFAULT_255_2_778_1
10
11.5849968
20
64.4344658
40
2.0185498
50
128.8749205
51
131.8726567
0
ARC
8
DEFAULT_255_2_778_1
10
11.2878677
20
64.7654854
40
1.5737356
50
131.8616166
51
135.4168838
0
ARC
8
DEFAULT_255_2_778_1
10
11.025068
20
65.0236765
40
1.2053256
50
135.3893975
51
139.9687014
0
ARC
8
DEFAULT_255_2_778_1
10
10.7921889
20
65.2185102
40
0.9016937
50
139.9301659
51
145.9260426
0
ARC
8
DEFAULT_255_2_778_1
10
10.596054
20
65.3505104
40
0.6652776
50
145.8787362
51
153.8146208
0
ARC
8
DEFAULT_255_2_778_1
10
10.4439553
20
65.4248797
40
0.4959714
50
153.770634
51
164.3484794
0
ARC
8
DEFAULT_255_2_778_1
10
10.3426387
20
65.4530786
40
0.3908039
50
164.3220276
51
179.8083066
0
ARC
8
DEFAULT_255_2_778_1
10
10.3636789
20
65.461215
40
0.4118985
50
180.9499449
51
213.8111542
0
ARC
8
DEFAULT_255_2_778_1
10
10.6395828
20
65.6307896
40
0.73561
50
212.8271214
51
224.258472
0
ARC
8
DEFAULT_255_2_778_1
10
11.0224335
20
66.0001236
40
1.267567
50
224.1376218
51
231.4508261
0
ARC
8
DEFAULT_255_2_778_1
10
11.6651195
20
66.8031168
40
2.2960809
50
231.3955893
51
236.1256478
0
ARC
8
DEFAULT_255_2_778_1
10
13.4974223
20
69.5496293
40
5.5976905
50
236.2233172
51
239.1314682
0
ARC
8
DEFAULT_255_2_778_1
10
25.447327
20
89.2773568
40
28.6623793
50
238.8606853
51
239.0711101
0
ARC
8
DEFAULT_255_2_778_1
10
6.2751281
20
57.1802653
40
8.7248518
50
57.2420924
51
59.4062964
0
ARC
8
DEFAULT_255_2_778_1
10
9.5028241
20
62.2112102
40
2.747542
50
52.8289294
51
57.079028
0
ARC
8
DEFAULT_255_2_778_1
10
10.2774783
20
63.2315488
40
1.466457
50
46.3041868
51
52.8596521
0
ARC
8
DEFAULT_255_2_778_1
10
10.7097073
20
63.6816842
40
0.8424061
50
36.2174211
51
46.4090895
0
ARC
8
DEFAULT_255_2_778_1
10
10.9942088
20
63.8865128
40
0.4918609
50
17.400375
51
36.5489745
0
ARC
8
DEFAULT_255_2_778_1
10
11.1082994
20
63.9263754
40
0.3710912
50
0.0676858
51
16.7951297
0
ARC
8
DEFAULT_255_2_778_1
10
11.0872613
20
63.9282428
40
0.3921317
50
343.8035191
51
359.7912046
0
ARC
8
DEFAULT_255_2_778_1
10
10.9809912
20
63.9587167
40
0.5026844
50
333.2506233
51
343.8465691
0
ARC
8
DEFAULT_255_2_778_1
10
10.8271757
20
64.0354313
40
0.6745679
50
325.6600948
51
333.3122657
0
ARC
8
DEFAULT_255_2_778_1
10
10.6317344
20
64.1682296
40
0.9108568
50
319.7560915
51
325.6976089
0
ARC
8
DEFAULT_255_2_778_1
10
10.403599
20
64.3600002
40
1.2088854
50
315.4577584
51
319.8037947
0
ARC
8
DEFAULT_255_2_778_1
10
10.1402127
20
64.6188507
40
1.5781764
50
311.7298824
51
315.4670864
0
ARC
8
DEFAULT_255_2_778_1
10
9.8311879
20
64.9644074
40
2.0417554
50
308.723055
51
311.7470879
0
ARC
8
DEFAULT_255_2_778_1
10
9.476989
20
65.4056492
40
2.6075745
50
306.1165163
51
308.7300151
0
ARC
8
DEFAULT_255_2_778_1
10
9.0740091
20
65.9569523
40
3.2904564
50
303.9559446
51
306.1266333
0
ARC
8
DEFAULT_255_2_778_1
10
8.6624432
20
66.566215
40
4.0257023
50
302.3733397
51
303.9712246
0
ARC
8
DEFAULT_255_2_778_1
10
8.2428347
20
67.2277058
40
4.8090549
50
300.9434827
51
302.3758078
0
LINE
8
DEFAULT_255_2_778
10
10.7156417
20
62.0448075
11
10.7156417
21
5.1594075
0
LINE
8
DEFAULT_255_2_778
10
10.7156417
20
5.1594075
11
9.3927417
21
5.1594075
0
ARC
8
DEFAULT_255_2_778
10
7.7537338
20
139.6512992
40
3.0484709
50
251.6854144
51
258.6071955
0
ARC
8
DEFAULT_255_2_778
10
7.539521
20
138.5696738
40
1.9458471
50
258.4992492
51
268.3986479
0
ARC
8
DEFAULT_255_2_778
10
7.5172314
20
138.1394206
40
1.5151737
50
268.7865272
51
269.9950384
0
ARC
8
DEFAULT_255_2_778
10
7.5277432
20
137.6882355
40
1.0640417
50
269.426895
51
279.6711067
0
ARC
8
DEFAULT_255_2_778
10
7.6417753
20
137.0586746
40
0.4243233
50
278.7731084
51
300.3324923
0
ARC
8
DEFAULT_255_2_778
10
7.760746
20
136.8560552
40
0.1893587
50
300.2240287
51
1.9041213
0
ARC
8
DEFAULT_255_2_778
10
7.7452705
20
136.8652089
40
0.2047497
50
359.1991369
51
359.99965
0
ARC
8
DEFAULT_255_2_778
10
7.7523233
20
136.8660378
40
0.1976988
50
359.7594145
51
47.1793976
0
ARC
8
DEFAULT_255_2_778
10
7.6187277
20
136.717431
40
0.3975169
50
47.6144502
51
60.8366176
0
ARC
8
DEFAULT_255_2_778
10
7.0190958
20
135.7014865
40
1.5771337
50
59.799464
51
64.8885807
0
ARC
8
DEFAULT_255_2_778
10
6.0948833
20
133.7724682
40
3.7160912
50
64.6076081
51
66.8386974
0
ARC
8
DEFAULT_255_2_778
10
9.6419609
20
142.1355052
40
5.368109
50
244.3032309
51
247.1393781
0
ARC
8
DEFAULT_255_2_778
10
8.5507088
20
139.875518
40
2.8584574
50
240.2323579
51
244.3709759
0
ARC
8
DEFAULT_255_2_778
10
7.7800475
20
138.5386591
40
1.315392
50
233.2209971
51
240.4606284
0
ARC
8
DEFAULT_255_2_778
10
7.3561477
20
137.9675187
40
0.6041399
50
225.6990744
51
232.9899679
0
ARC
8
DEFAULT_255_2_778
10
7.3965073
20
137.9919214
40
0.6499005
50
178.2783416
51
224.6550883
0
ARC
8
DEFAULT_255_2_778
10
7.5059624
20
138.0252974
40
0.7591885
50
157.033673
51
181.0453383
0
ARC
8
DEFAULT_255_2_778
10
7.378439
20
138.0661396
40
0.6259551
50
124.9113017
51
155.9211516
0
ARC
8
DEFAULT_255_2_778
10
7.5960466
20
137.7575681
40
1.0035357
50
100.4079723
51
125.0168617
0
ARC
8
DEFAULT_255_2_778
10
7.6991199
20
137.2635046
40
1.5081396
50
89.6483922
51
100.8684975
0
ARC
8
DEFAULT_255_2_778
10
7.7083242
20
136.9112988
40
1.8603169
50
89.5079487
51
89.9984402
0
ARC
8
DEFAULT_255_2_778
10
7.7099573
20
136.8460694
40
1.9255311
50
83.9170631
51
89.5732113
0
ARC
8
DEFAULT_255_2_778
10
7.5071517
20
134.8384957
40
3.9433074
50
80.7325723
51
84.0779772
0
ARC
8
DEFAULT_255_2_778
10
7.0208457
20
131.815582
40
7.0050837
50
78.5086351
51
80.7886813
0
ARC
8
DEFAULT_255_2_778
10
7.6620177
20
136.4150544
40
1.9415426
50
67.135818
51
78.0934208
0
ARC
8
DEFAULT_255_2_778
10
7.7851814
20
136.9854809
40
1.3579807
50
78.2126325
51
89.7333975
0
ARC
8
DEFAULT_255_2_778
10
7.7793853
20
137.4006211
40
0.9429038
50
89.2638155
51
100.5666868
0
ARC
8
DEFAULT_255_2_778
10
7.6660949
20
137.9704419
40
0.362036
50
99.4784875
51
124.329414
0
ARC
8
DEFAULT_255_2_778
10
7.5705593
20
138.118551
40
0.1859067
50
125.7571195
51
182.2824883
0
ARC
8
DEFAULT_255_2_778
10
7.5493239
20
138.1118629
40
0.1645253
50
180.2492993
51
239.8144161
0
ARC
8
DEFAULT_255_2_778
10
7.932718
20
138.7119128
40
0.876484
50
237.8725734
51
242.8068846
0
ARC
8
DEFAULT_255_2_778
10
9.4175857
20
141.5284958
40
4.0604642
50
242.3328458
51
244.031083
0
ARC
8
DEFAULT_255_2_778
10
12.3804066
20
147.5769314
40
10.7955807
50
243.950624
51
244.8024316
0
ARC
8
DEFAULT_255_2_778
10
15.4009918
20
153.9609175
40
17.8580926
50
244.7535425
51
244.9563234
0
ARC
8
DEFAULT_255_2_778
10
5.8652927
20
133.4593264
40
4.7527588
50
62.2505456
51
65.4301556
0
ARC
8
DEFAULT_255_2_778
10
6.9275435
20
135.4674172
40
2.4810291
50
57.2951304
51
62.3684211
0
ARC
8
DEFAULT_255_2_778
10
7.6807233
20
136.6307235
40
1.0952081
50
48.7345704
51
57.5685367
0
ARC
8
DEFAULT_255_2_778
10
8.0117486
20
137.0182722
40
0.5856147
50
44.3236031
51
48.0704418
0
ARC
8
DEFAULT_255_2_778
10
7.9783002
20
136.9982468
40
0.6236013
50
1.3523843
51
43.4925744
0
ARC
8
DEFAULT_255_2_778
10
7.7103531
20
136.9653151
40
0.8926473
50
359.9763756
51
3.0599076
0
ARC
8
DEFAULT_255_2_778
10
7.8645343
20
136.9502407
40
0.7386124
50
333.0361889
51
1.1408766
0
ARC
8
DEFAULT_255_2_778
10
7.8947908
20
136.9571919
40
0.7150741
50
300.8430083
51
331.4403095
0
ARC
8
DEFAULT_255_2_778
10
7.694568
20
137.2707162
40
1.0869673
50
281.4258583
51
301.4316118
0
ARC
8
DEFAULT_255_2_778
10
7.5632666
20
137.8789414
40
1.7091691
50
270.2273513
51
281.7010805
0
ARC
8
DEFAULT_255_2_778
10
7.5453797
20
138.3556043
40
2.1859577
50
269.9983113
51
270.6466065
0
LINE
8
DEFAULT_255_2_778
10
7.5453153
20
136.1696465
11
7.5438002
21
136.169647
0
ARC
8
DEFAULT_255_2_778
10
7.5509161
20
139.3525969
40
3.1829579
50
256.2431122
51
269.871909
0
ARC
8
DEFAULT_255_2_778
10
21.7538511
20
139.5771629
40
2.9720345
50
251.5709223
51
258.7508181
0
ARC
8
DEFAULT_255_2_778
10
21.5538128
20
138.5539385
40
1.9294488
50
258.6495077
51
268.8281511
0
ARC
8
DEFAULT_255_2_778
10
21.5355488
20
138.1591193
40
1.5343723
50
269.2085037
51
269.9981866
0
ARC
8
DEFAULT_255_2_778
10
21.5473849
20
137.6907184
40
1.0660376
50
269.3612297
51
279.5899087
0
ARC
8
DEFAULT_255_2_778
10
21.6608439
20
137.0592324
40
0.424527
50
278.6895227
51
300.2363944
0
ARC
8
DEFAULT_255_2_778
10
21.7799083
20
136.8557793
40
0.188796
50
300.1108484
51
1.9024905
0
ARC
8
DEFAULT_255_2_778
10
21.7439577
20
136.8664221
40
0.2246851
50
358.8842611
51
0.0019649
0
ARC
8
DEFAULT_255_2_778
10
21.7769791
20
136.8703385
40
0.1917038
50
358.831716
51
47.0900458
0
ARC
8
DEFAULT_255_2_778
10
21.6364654
20
136.710984
40
0.4041259
50
47.8812665
51
61.174665
0
ARC
8
DEFAULT_255_2_778
10
21.0418848
20
135.6910117
40
1.5846568
50
60.1210877
51
65.1917015
0
ARC
8
DEFAULT_255_2_778
10
20.1415278
20
133.7854122
40
3.6922188
50
64.9168629
51
67.1565628
0
ARC
8
DEFAULT_255_2_778
10
23.6275467
20
142.0569888
40
5.2839333
50
244.2656926
51
247.1407051
0
ARC
8
DEFAULT_255_2_778
10
22.5594997
20
139.848765
40
2.8309849
50
240.1545061
51
244.3326325
0
ARC
8
DEFAULT_255_2_778
10
21.7856548
20
138.5127346
40
1.2870531
50
232.697515
51
240.4357497
0
ARC
8
DEFAULT_255_2_778
10
21.3705506
20
137.9617218
40
0.5972006
50
225.5850892
51
232.3393736
0
ARC
8
DEFAULT_255_2_778
10
21.4133941
20
137.9912933
40
0.6483829
50
178.7795739
51
224.7095916
0
ARC
8
DEFAULT_255_2_778
10
21.6669319
20
138.0153135
40
0.9018316
50
179.997867
51
180.6487041
0
ARC
8
DEFAULT_255_2_778
10
21.5167738
20
138.0291249
40
0.7517998
50
156.9195758
51
181.050088
0
ARC
8
DEFAULT_255_2_778
10
21.3928482
20
138.0685712
40
0.6224513
50
124.7111133
51
155.7879672
0
ARC
8
DEFAULT_255_2_778
10
21.6055459
20
137.7766942
40
0.9835402
50
101.7934503
51
125.2143527
0
ARC
8
DEFAULT_255_2_778
10
21.729848
20
137.2241326
40
1.5498677
50
89.5248728
51
102.1166783
0
ARC
8
DEFAULT_255_2_778
10
21.7283109
20
136.6705834
40
2.1034129
50
83.2889725
51
89.6080411
0
ARC
8
DEFAULT_255_2_778
10
21.529975
20
134.9027668
40
3.8823067
50
79.4764054
51
83.4308492
0
ARC
8
DEFAULT_255_2_778
10
21.2186357
20
133.1495673
40
5.6628977
50
78.2224868
51
79.6190915
0
ARC
8
DEFAULT_255_2_778
10
21.6838473
20
136.4270715
40
1.9311543
50
67.1323814
51
78.3148813
0
ARC
8
DEFAULT_255_2_778
10
21.801359
20
136.9785614
40
1.3672981
50
78.4565774
51
89.7552271
0
ARC
8
DEFAULT_255_2_778
10
21.7951366
20
137.409447
40
0.9364778
50
89.2619009
51
100.5950934
0
ARC
8
DEFAULT_255_2_778
10
21.6824182
20
137.9749169
40
0.3599879
50
99.5087086
51
124.406715
0
ARC
8
DEFAULT_255_2_778
10
21.5878565
20
138.121343
40
0.1858061
50
125.8630185
51
182.2986975
0
ARC
8
DEFAULT_255_2_778
10
21.5497296
20
138.1138047
40
0.1475296
50
179.9666559
51
180.100057
0
ARC
8
DEFAULT_255_2_778
10
21.566185
20
138.113793
40
0.163985
50
180.0859454
51
239.8819968
0
ARC
8
DEFAULT_255_2_778
10
21.9379018
20
138.7005619
40
0.8584853
50
238.072871
51
243.0442008
0
ARC
8
DEFAULT_255_2_778
10
23.4872034
20
141.6655845
40
4.2038426
50
242.5409111
51
244.1884903
0
ARC
8
DEFAULT_255_2_778
10
26.6463384
20
148.160196
40
11.4260319
50
244.1076525
51
244.9219574
0
ARC
8
DEFAULT_255_2_778
10
29.9038827
20
155.083855
40
19.0777309
50
244.8743531
51
245.066969
0
ARC
8
DEFAULT_255_2_778
10
19.8865272
20
133.4916274
40
4.7250654
50
62.0340028
51
65.293009
0
ARC
8
DEFAULT_255_2_778
10
20.9507744
20
135.4865758
40
2.464003
50
57.1127289
51
62.13736
0
ARC
8
DEFAULT_255_2_778
10
21.7037139
20
136.6402906
40
1.0863604
50
48.3695509
51
57.4197129
0
ARC
8
DEFAULT_255_2_778
10
22.0286268
20
137.0170419
40
0.5889589
50
44.472493
51
47.6467012
0
ARC
8
DEFAULT_255_2_778
10
21.9979457
20
136.9999032
40
0.6229283
50
1.2061613
51
43.6203607
0
ARC
8
DEFAULT_255_2_778
10
21.7312413
20
136.9674903
40
0.890659
50
359.9779196
51
2.9299178
0
ARC
8
DEFAULT_255_2_778
10
21.8802547
20
136.9523837
40
0.7417924
50
333.172934
51
1.140392
0
ARC
8
DEFAULT_255_2_778
10
21.9146167
20
136.9570736
40
0.7135172
50
300.9808035
51
331.5913995
0
ARC
8
DEFAULT_255_2_778
10
21.7182603
20
137.2669862
40
1.0803281
50
281.9040909
51
301.4483918
0
ARC
8
DEFAULT_255_2_778
10
21.5848425
20
137.8655518
40
1.6935565
50
270.5796874
51
282.1436175
0
ARC
8
DEFAULT_255_2_778
10
21.5636722
20
138.3604735
40
2.1887267
50
269.9959074
51
271.0027751
0
LINE
8
DEFAULT_255_2_778
10
21.5635158
20
136.1717468
11
21.5625002
21
136.171747
0
ARC
8
DEFAULT_255_2_778
10
21.5700221
20
139.3605174
40
3.1887792
50
256.2556596
51
269.8648469
0
LINE
8
DEFAULT_255_2_778
10
6.7958002
20
136.262547
11
6.7958002
21
136.757247
0
LINE
8
DEFAULT_255_2_778
10
8.4164002
20
138.680247
11
8.4164002
21
138.204047
0
LINE
8
DEFAULT_255_2_778
10
6.7940002
20
136.260947
11
6.7958002
21
136.262547
0
LINE
8
DEFAULT_255_2_778
10
8.9866002
20
138.729747
11
9.6629002
21
138.729747
0
LINE
8
DEFAULT_255_2_778
10
9.6629002
20
138.729747
11
9.6629002
21
136.222347
0
LINE
8
DEFAULT_255_2_778
10
9.6629002
20
136.222347
11
8.9866002
21
136.222347
0
LINE
8
DEFAULT_255_2_778
10
8.9866002
20
136.222347
11
8.9866002
21
138.729747
0
LINE
8
DEFAULT_255_2_778
10
10.2809002
20
136.222347
11
10.2809002
21
138.729747
0
LINE
8
DEFAULT_255_2_778
10
10.2809002
20
138.729747
11
12.0132002
21
138.729747
0
LINE
8
DEFAULT_255_2_778
10
12.0132002
20
138.729747
11
12.0132002
21
138.276047
0
LINE
8
DEFAULT_255_2_778
10
12.0132002
20
138.276047
11
10.9321002
21
138.276047
0
LINE
8
DEFAULT_255_2_778
10
10.9321002
20
138.276047
11
10.9321002
21
137.709747
0
LINE
8
DEFAULT_255_2_778
10
10.9321002
20
137.709747
11
11.8735002
21
137.709747
0
LINE
8
DEFAULT_255_2_778
10
11.8735002
20
137.709747
11
11.8735002
21
137.296247
0
LINE
8
DEFAULT_255_2_778
10
11.8735002
20
137.296247
11
10.9321002
21
137.296247
0
LINE
8
DEFAULT_255_2_778
10
10.9321002
20
137.296247
11
10.9321002
21
136.700947
0
LINE
8
DEFAULT_255_2_778
10
10.9321002
20
136.700947
11
12.0412002
21
136.700947
0
LINE
8
DEFAULT_255_2_778
10
12.0412002
20
136.700947
11
12.0412002
21
136.220747
0
LINE
8
DEFAULT_255_2_778
10
12.0412002
20
136.220747
11
10.2809002
21
136.222347
0
LINE
8
DEFAULT_255_2_778
10
12.4817002
20
136.222347
11
12.4817002
21
138.729747
0
LINE
8
DEFAULT_255_2_778
10
12.4817002
20
138.729747
11
13.3575002
21
138.729747
0
LINE
8
DEFAULT_255_2_778
10
13.3575002
20
138.729747
11
13.9671002
21
137.127447
0
LINE
8
DEFAULT_255_2_778
10
13.9671002
20
137.127447
11
14.5897002
21
138.729747
0
LINE
8
DEFAULT_255_2_778
10
14.5897002
20
138.729747
11
15.4215002
21
138.729747
0
LINE
8
DEFAULT_255_2_778
10
15.4215002
20
138.729747
11
15.4215002
21
136.222347
0
LINE
8
DEFAULT_255_2_778
10
15.4215002
20
136.222347
11
14.7812002
21
136.222347
0
LINE
8
DEFAULT_255_2_778
10
14.7812002
20
136.222347
11
14.7812002
21
137.998147
0
LINE
8
DEFAULT_255_2_778
10
14.7812002
20
137.998147
11
14.0724002
21
136.197947
0
LINE
8
DEFAULT_255_2_778
10
14.0724002
20
136.197947
11
13.6515002
21
136.197947
0
LINE
8
DEFAULT_255_2_778
10
13.6515002
20
136.197947
11
12.9559002
21
137.998147
0
LINE
8
DEFAULT_255_2_778
10
12.9559002
20
137.998147
11
12.9559002
21
136.222047
0
LINE
8
DEFAULT_255_2_778
10
12.9559002
20
136.222047
11
12.4817002
21
136.222347
0
LINE
8
DEFAULT_255_2_778
10
16.0409002
20
136.222347
11
16.0409002
21
138.729747
0
LINE
8
DEFAULT_255_2_778
10
16.0409002
20
138.729747
11
17.7731002
21
138.729747
0
LINE
8
DEFAULT_255_2_778
10
17.7731002
20
138.729747
11
17.7731002
21
138.276047
0
LINE
8
DEFAULT_255_2_778
10
17.7731002
20
138.276047
11
16.6921002
21
138.276047
0
LINE
8
DEFAULT_255_2_778
10
16.6921002
20
138.276047
11
16.6921002
21
137.709747
0
LINE
8
DEFAULT_255_2_778
10
16.6921002
20
137.709747
11
17.6334002
21
137.709747
0
LINE
8
DEFAULT_255_2_778
10
17.6334002
20
137.709747
11
17.6334002
21
137.296247
0
LINE
8
DEFAULT_255_2_778
10
17.6334002
20
137.296247
11
16.6921002
21
137.296247
0
LINE
8
DEFAULT_255_2_778
10
16.6921002
20
137.296247
11
16.6921002
21
136.700947
0
LINE
8
DEFAULT_255_2_778
10
16.6921002
20
136.700947
11
17.8030002
21
136.700947
0
LINE
8
DEFAULT_255_2_778
10
17.8030002
20
136.700947
11
17.8030002
21
136.220747
0
LINE
8
DEFAULT_255_2_778
10
17.8030002
20
136.220747
11
16.0409002
21
136.222347
0
LINE
8
DEFAULT_255_2_778
10
18.2454002
20
136.222347
11
18.2454002
21
138.729747
0
LINE
8
DEFAULT_255_2_778
10
18.2454002
20
138.729747
11
19.0283002
21
138.729747
0
LINE
8
DEFAULT_255_2_778
10
19.0283002
20
138.729747
11
19.8586002
21
137.050947
0
LINE
8
DEFAULT_255_2_778
10
19.8586002
20
137.050947
11
19.8586002
21
138.729747
0
LINE
8
DEFAULT_255_2_778
10
19.8586002
20
138.729747
11
20.3343002
21
138.729747
0
LINE
8
DEFAULT_255_2_778
10
20.3343002
20
138.729747
11
20.3343002
21
136.222347
0
LINE
8
DEFAULT_255_2_778
10
20.3343002
20
136.222347
11
19.5739002
21
136.222347
0
LINE
8
DEFAULT_255_2_778
10
19.5739002
20
136.222347
11
18.7214002
21
137.923547
0
LINE
8
DEFAULT_255_2_778
10
18.7214002
20
137.923547
11
18.7214002
21
136.222347
0
LINE
8
DEFAULT_255_2_778
10
18.7214002
20
136.222347
11
18.2454002
21
136.222347
0
LINE
8
DEFAULT_255_2_778
10
20.8143002
20
136.262747
11
20.8143002
21
136.757547
0
LINE
8
DEFAULT_255_2_778
10
22.3745002
20
138.693247
11
22.4343002
21
138.682647
0
LINE
8
DEFAULT_255_2_778
10
22.4343002
20
138.682647
11
22.4343002
21
138.206447
0
LINE
8
DEFAULT_255_2_778
10
20.8124002
20
136.263047
11
20.8143002
21
136.262747
0
LINE
8
DEFAULT_255_1_388
10
7.3913457
20
134.5714892
11
7.2169577
21
134.5714892
0
LINE
8
DEFAULT_255_1_388
10
6.4380852
20
134.0176042
11
6.6124731
21
134.0176042
0
ARC
8
DEFAULT_255_1_388
10
7.2910304
20
135.5778821
40
1.4087688
50
248.9196578
51
254.1442424
0
ARC
8
DEFAULT_255_1_388
10
7.1020184
20
135.0912805
40
0.8867498
50
241.6337352
51
249.0064643
0
ARC
8
DEFAULT_255_1_388
10
6.9300498
20
134.7761764
40
0.5277799
50
230.4982261
51
241.8087583
0
ARC
8
DEFAULT_255_1_388
10
6.8418269
20
134.6637686
40
0.3849419
50
227.4062979
51
229.9877433
0
ARC
8
DEFAULT_255_1_388
10
6.7869615
20
134.6102155
40
0.3084129
50
200.6782127
51
228.1765252
0
ARC
8
DEFAULT_255_1_388
10
6.7950984
20
134.6085277
40
0.315461
50
179.506278
51
199.8695278
0
ARC
8
DEFAULT_255_1_388
10
6.7940573
20
134.6168671
40
0.3144584
50
132.4834401
51
181.0242352
0
ARC
8
DEFAULT_255_1_388
10
6.8609777
20
134.5536788
40
0.4063094
50
129.2526113
51
133.4249077
0
ARC
8
DEFAULT_255_1_388
10
6.877537
20
134.5288619
40
0.436014
50
101.9878945
51
128.8741833
0
ARC
8
DEFAULT_255_1_388
10
6.9223785
20
134.335236
40
0.6347415
50
89.5906376
51
102.3170567
0
ARC
8
DEFAULT_255_1_388
10
6.9303097
20
134.3710586
40
0.5989122
50
77.2359491
51
90.3248968
0
ARC
8
DEFAULT_255_1_388
10
6.9536028
20
134.4798554
40
0.4876594
50
63.8379856
51
77.0808925
0
ARC
8
DEFAULT_255_1_388
10
6.9848561
20
134.5380882
40
0.4216191
50
45.9863127
51
64.1608798
0
ARC
8
DEFAULT_255_1_388
10
7.0141955
20
134.571599
40
0.3771394
50
32.2747934
51
45.6544796
0
ARC
8
DEFAULT_255_1_388
10
7.0216761
20
134.5737426
40
0.3696765
50
359.6507495
51
32.6129943
0
ARC
8
DEFAULT_255_1_388
10
6.9155944
20
134.5742788
40
0.3013762
50
359.469654
51
14.983205
0
ARC
8
DEFAULT_255_1_388
10
6.9949196
20
134.5955288
40
0.2192542
50
14.9781954
51
48.2004799
0
ARC
8
DEFAULT_255_1_388
10
6.9764307
20
134.5722937
40
0.2489048
50
48.5926661
51
74.1242559
0
ARC
8
DEFAULT_255_1_388
10
6.9389109
20
134.4484607
40
0.3782845
50
73.7889321
51
86.6653996
0
ARC
8
DEFAULT_255_1_388
10
6.9273924
20
134.3126955
40
0.5145025
50
86.2642725
51
90.0533288
0
ARC
8
DEFAULT_255_1_388
10
6.9242017
20
134.3571376
40
0.4700681
50
89.669455
51
99.2313411
0
ARC
8
DEFAULT_255_1_388
10
6.8969176
20
134.5196401
40
0.3052945
50
99.0695987
51
113.7659242
0
ARC
8
DEFAULT_255_1_388
10
6.8661171
20
134.5922772
40
0.226407
50
114.0402885
51
127.9848946
0
ARC
8
DEFAULT_255_1_388
10
6.8390647
20
134.6255884
40
0.1835045
50
127.7287217
51
176.7106493
0
ARC
8
DEFAULT_255_1_388
10
6.9154312
20
134.614221
40
0.2604907
50
175.1780759
51
180.0581213
0
ARC
8
DEFAULT_255_1_388
10
6.8205656
20
134.6128411
40
0.1656287
50
179.6140658
51
228.124674
0
ARC
8
DEFAULT_255_1_388
10
6.8703013
20
134.658894
40
0.2332038
50
226.5785315
51
230.8792476
0
ARC
8
DEFAULT_255_1_388
10
6.92325
20
134.7291908
40
0.3211664
50
231.4636401
51
241.9261664
0
ARC
8
DEFAULT_255_1_388
10
7.0579283
20
134.9770349
40
0.6032345
50
241.7177136
51
248.3259138
0
ARC
8
DEFAULT_255_1_388
10
7.2137878
20
135.3631771
40
1.0196417
50
248.2007377
51
252.4527713
0
ARC
8
DEFAULT_255_1_388
10
7.3491405
20
135.7816092
40
1.4594143
50
252.3388938
51
254.347037
0
ARC
8
DEFAULT_255_1_388
10
6.5006705
20
132.7468095
40
1.6917621
50
71.0197462
51
74.4085467
0
ARC
8
DEFAULT_255_1_388
10
6.6913793
20
133.2973144
40
1.1091618
50
66.1845203
51
71.086519
0
ARC
8
DEFAULT_255_1_388
10
6.8664342
20
133.6914439
40
0.6779073
50
59.3537334
51
66.269255
0
ARC
8
DEFAULT_255_1_388
10
6.9664068
20
133.8605777
40
0.4814366
50
49.1021732
51
59.3294421
0
ARC
8
DEFAULT_255_1_388
10
7.0585056
20
133.9655575
40
0.3417875
50
32.7924183
51
49.2503526
0
ARC
8
DEFAULT_255_1_388
10
7.093467
20
133.9905311
40
0.2988789
50
31.121225
51
32.3977355
0
ARC
8
DEFAULT_255_1_388
10
7.0846848
20
133.9872728
40
0.3080861
50
8.1116803
51
30.7958224
0
ARC
8
DEFAULT_255_1_388
10
6.9935194
20
133.9717437
40
0.4005385
50
359.8390945
51
8.4707348
0
ARC
8
DEFAULT_255_1_388
10
7.0639242
20
133.9662751
40
0.3301608
50
337.4732479
51
0.7538283
0
ARC
8
DEFAULT_255_1_388
10
7.0840267
20
133.9640554
40
0.3107929
50
307.5917028
51
336.4313755
0
ARC
8
DEFAULT_255_1_388
10
7.0329324
20
134.0208509
40
0.3870096
50
307.6560665
51
308.4561779
0
ARC
8
DEFAULT_255_1_388
10
7.0063541
20
134.0616832
40
0.435591
50
284.3733666
51
307.1426212
0
ARC
8
DEFAULT_255_1_388
10
6.9506435
20
134.2666391
40
0.6479685
50
272.4384566
51
284.6464689
0
ARC
8
DEFAULT_255_1_388
10
6.936382
20
134.4690434
40
0.8508149
50
269.9708517
51
272.8180721
0
ARC
8
DEFAULT_255_1_388
10
6.9315503
20
134.2398283
40
0.6216151
50
248.2707343
51
270.4054609
0
ARC
8
DEFAULT_255_1_388
10
6.9254374
20
134.2183673
40
0.5994203
50
246.1380358
51
248.054058
0
ARC
8
DEFAULT_255_1_388
10
6.8783517
20
134.1194705
40
0.4899388
50
233.1671897
51
246.4951656
0
ARC
8
DEFAULT_255_1_388
10
6.8160152
20
134.0353137
40
0.3852115
50
215.3403381
51
233.084328
0
ARC
8
DEFAULT_255_1_388
10
6.7853516
20
134.0130093
40
0.3472969
50
179.2419235
51
215.2648426
0
ARC
8
DEFAULT_255_1_388
10
6.8717067
20
134.0145979
40
0.259251
50
179.3355796
51
199.1045873
0
ARC
8
DEFAULT_255_1_388
10
6.8343209
20
134.0048223
40
0.2207454
50
199.8830064
51
232.7061328
0
ARC
8
DEFAULT_255_1_388
10
6.8874483
20
134.0716456
40
0.306101
50
232.3736206
51
255.5136621
0
ARC
8
DEFAULT_255_1_388
10
6.9257989
20
134.2116177
40
0.4512213
50
255.2447928
51
267.5318292
0
ARC
8
DEFAULT_255_1_388
10
6.9356456
20
134.3502709
40
0.5901825
50
267.1564563
51
270.0294721
0
ARC
8
DEFAULT_255_1_388
10
6.9387781
20
134.3003623
40
0.5402814
50
269.6999944
51
278.1662446
0
ARC
8
DEFAULT_255_1_388
10
6.9675809
20
134.1056974
40
0.3435003
50
278.0229022
51
290.6255326
0
ARC
8
DEFAULT_255_1_388
10
7.0066975
20
134.0013547
40
0.2320666
50
290.6616368
51
307.0374127
0
ARC
8
DEFAULT_255_1_388
10
7.0404875
20
133.959904
40
0.1786372
50
306.3942078
51
355.303191
0
ARC
8
DEFAULT_255_1_388
10
6.9829168
20
133.9685186
40
0.2367516
50
354.3662092
51
0.0709489
0
ARC
8
DEFAULT_255_1_388
10
6.9989037
20
133.9710561
40
0.2207761
50
359.4175379
51
16.1975911
0
ARC
8
DEFAULT_255_1_388
10
7.0501155
20
133.9850954
40
0.1676828
50
16.4721294
51
52.6261798
0
ARC
8
DEFAULT_255_1_388
10
6.9577662
20
133.8631606
40
0.3206412
50
52.7381828
51
62.4979144
0
ARC
8
DEFAULT_255_1_388
10
6.8019415
20
133.5699236
40
0.6527035
50
62.2517425
51
68.1219454
0
ARC
8
DEFAULT_255_1_388
10
6.6084903
20
133.0944951
40
1.1659797
50
68.006043
51
71.8055127
0
ARC
8
DEFAULT_255_1_388
10
6.4064811
20
132.4886723
40
1.8045908
50
71.718361
51
73.9260743
0
LINE
8
DEFAULT_255_1_388
10
7.8024675
20
134.9518898
11
7.8024675
21
133.6363
0
LINE
8
DEFAULT_255_1_388
10
7.8024675
20
133.6363
11
7.6289831
21
133.6363
0
LINE
8
DEFAULT_255_1_388
10
7.6289831
20
133.6363
11
7.6289831
21
134.9518898
0
LINE
8
DEFAULT_255_1_388
10
7.6289831
20
134.9518898
11
7.8024675
21
134.9518898
0
LINE
8
DEFAULT_255_1_388
10
8.1196186
20
134.9518898
11
8.3437026
21
134.9518898
0
LINE
8
DEFAULT_255_1_388
10
8.3437026
20
134.9518898
11
8.7737993
21
133.8784553
0
LINE
8
DEFAULT_255_1_388
10
8.7737993
20
133.8784553
11
9.2038959
21
134.9518898
0
LINE
8
DEFAULT_255_1_388
10
9.2038959
20
134.9518898
11
9.4288835
21
134.9518898
0
LINE
8
DEFAULT_255_1_388
10
9.4288835
20
134.9518898
11
9.4288835
21
133.6363
0
LINE
8
DEFAULT_255_1_388
10
9.4288835
20
133.6363
11
9.2553991
21
133.6363
0
LINE
8
DEFAULT_255_1_388
10
9.2553991
20
133.6363
11
9.2553991
21
134.148621
0
LINE
8
DEFAULT_255_1_388
10
9.2553991
20
134.148621
11
9.2716633
21
134.7016025
0
LINE
8
DEFAULT_255_1_388
10
9.2716633
20
134.7016025
11
8.8397595
21
133.6363
0
LINE
8
DEFAULT_255_1_388
10
8.8397595
20
133.6363
11
8.7069355
21
133.6363
0
LINE
8
DEFAULT_255_1_388
10
8.7069355
20
133.6363
11
8.2759353
21
134.6988918
0
LINE
8
DEFAULT_255_1_388
10
8.2759353
20
134.6988918
11
8.293103
21
134.148621
0
LINE
8
DEFAULT_255_1_388
10
8.293103
20
134.148621
11
8.293103
21
133.6363
0
LINE
8
DEFAULT_255_1_388
10
8.293103
20
133.6363
11
8.1196186
21
133.6363
0
LINE
8
DEFAULT_255_1_388
10
8.1196186
20
133.6363
11
8.1196186
21
134.9518898
0
LINE
8
DEFAULT_255_1_388
10
10.6035173
20
133.6363
11
10.4779218
21
133.9796545
0
LINE
8
DEFAULT_255_1_388
10
10.4779218
20
133.9796545
11
9.9267475
21
133.9796545
0
LINE
8
DEFAULT_255_1_388
10
9.9267475
20
133.9796545
11
9.8029592
21
133.6363
0
LINE
8
DEFAULT_255_1_388
10
9.8029592
20
133.6363
11
9.6240534
21
133.6363
0
LINE
8
DEFAULT_255_1_388
10
9.6240534
20
133.6363
11
10.1264353
21
134.9518898
0
LINE
8
DEFAULT_255_1_388
10
10.1264353
20
134.9518898
11
10.2782341
21
134.9518898
0
LINE
8
DEFAULT_255_1_388
10
10.2782341
20
134.9518898
11
10.7815195
21
133.6363
0
LINE
8
DEFAULT_255_1_388
10
10.7815195
20
133.6363
11
10.6035173
21
133.6363
0
LINE
8
DEFAULT_255_1_388
10
10.2023347
20
134.7377451
11
9.9791542
21
134.1224177
0
LINE
8
DEFAULT_255_1_388
10
9.9791542
20
134.1224177
11
10.4264187
21
134.1224177
0
LINE
8
DEFAULT_255_1_388
10
10.4264187
20
134.1224177
11
10.2023347
21
134.7377451
0
LINE
8
DEFAULT_255_1_388
10
11.7510441
20
134.9518898
11
11.7510441
21
134.8091267
0
LINE
8
DEFAULT_255_1_388
10
11.7510441
20
134.8091267
11
11.328176
21
134.8091267
0
LINE
8
DEFAULT_255_1_388
10
11.328176
20
134.8091267
11
11.328176
21
133.6363
0
LINE
8
DEFAULT_255_1_388
10
11.328176
20
133.6363
11
11.1555952
21
133.6363
0
LINE
8
DEFAULT_255_1_388
10
11.1555952
20
133.6363
11
11.1555952
21
134.8091267
0
LINE
8
DEFAULT_255_1_388
10
11.1555952
20
134.8091267
11
10.7336306
21
134.8091267
0
LINE
8
DEFAULT_255_1_388
10
10.7336306
20
134.8091267
11
10.7336306
21
134.9518898
0
LINE
8
DEFAULT_255_1_388
10
10.7336306
20
134.9518898
11
11.7510441
21
134.9518898
0
LINE
8
DEFAULT_255_1_388
10
12.1323483
20
134.9518898
11
12.1323483
21
133.6363
0
LINE
8
DEFAULT_255_1_388
10
12.1323483
20
133.6363
11
11.958864
21
133.6363
0
LINE
8
DEFAULT_255_1_388
10
11.958864
20
133.6363
11
11.958864
21
134.9518898
0
LINE
8
DEFAULT_255_1_388
10
11.958864
20
134.9518898
11
12.1323483
21
134.9518898
0
LINE
8
DEFAULT_255_1_388
10
13.2428291
20
134.0537468
11
13.417217
21
134.0537468
0
LINE
8
DEFAULT_255_1_388
10
12.4043212
20
134.2326525
11
12.4043212
21
134.3591516
0
LINE
8
DEFAULT_255_1_388
10
13.417217
20
134.5290217
11
13.2428291
21
134.5290217
0
LINE
8
DEFAULT_255_1_388
10
12.5787092
20
134.3546337
11
12.5787092
21
134.2272312
0
ARC
8
DEFAULT_255_1_388
10
12.8006404
20
134.1209329
40
0.6202263
50
340.1774904
51
353.7812217
0
ARC
8
DEFAULT_255_1_388
10
12.9774257
20
134.0550893
40
0.4315926
50
311.4560052
51
340.4420756
0
ARC
8
DEFAULT_255_1_388
10
12.9736796
20
134.0675665
40
0.4434573
50
282.4332229
51
310.7514507
0
ARC
8
DEFAULT_255_1_388
10
12.9242614
20
134.2717703
40
0.6535262
50
269.9358869
51
282.8096729
0
ARC
8
DEFAULT_255_1_388
10
12.9184554
20
134.4230329
40
0.8048043
50
269.9995752
51
270.3612856
0
ARC
8
DEFAULT_255_1_388
10
12.9125044
20
134.1431781
40
0.5249831
50
250.7885263
51
270.6488451
0
ARC
8
DEFAULT_255_1_388
10
12.8935868
20
134.0714853
40
0.4510942
50
219.3628377
51
250.0611024
0
ARC
8
DEFAULT_255_1_388
10
12.9868743
20
134.1507653
40
0.5735046
50
193.5480293
51
219.5755675
0
ARC
8
DEFAULT_255_1_388
10
13.2536952
20
134.220052
40
0.849146
50
181.1220183
51
193.8754971
0
ARC
8
DEFAULT_255_1_388
10
13.4860185
20
134.2324914
40
1.0816971
50
179.9914644
51
181.5398227
0
ARC
8
DEFAULT_255_1_388
10
13.2783495
20
134.3633586
40
0.8740384
50
169.5837606
51
180.275782
0
ARC
8
DEFAULT_255_1_388
10
13.0716844
20
134.4015439
40
0.6638751
50
155.0367033
51
169.6002779
0
ARC
8
DEFAULT_255_1_388
10
12.9439302
20
134.4631336
40
0.5220662
50
136.7831557
51
155.2472983
0
ARC
8
DEFAULT_255_1_388
10
12.9001092
20
134.5003577
40
0.4646502
50
121.7633063
51
136.4281161
0
ARC
8
DEFAULT_255_1_388
10
12.9152932
20
134.4723049
40
0.4964979
50
95.6460018
51
121.5489589
0
ARC
8
DEFAULT_255_1_388
10
12.9329907
20
134.3475704
40
0.6223912
50
89.9245727
51
96.1375919
0
ARC
8
DEFAULT_255_1_388
10
12.9386612
20
134.3609721
40
0.6090084
50
76.6779212
51
90.456405
0
ARC
8
DEFAULT_255_1_388
10
12.9829425
20
134.539906
40
0.42469
50
47.4858803
51
76.9287069
0
ARC
8
DEFAULT_255_1_388
10
12.9664038
20
134.5286623
40
0.4441778
50
16.5424081
51
46.8934505
0
ARC
8
DEFAULT_255_1_388
10
12.7855088
20
134.4692265
40
0.6345318
50
5.4072971
51
17.0363711
0
ARC
8
DEFAULT_255_1_388
10
12.6236813
20
134.4432304
40
0.6250632
50
7.8888693
51
15.9242022
0
ARC
8
DEFAULT_255_1_388
10
12.8471799
20
134.5081309
40
0.3923364
50
15.7650676
51
27.9410069
0
ARC
8
DEFAULT_255_1_388
10
12.9713968
20
134.5746317
40
0.2514401
50
27.8167196
51
46.4007942
0
ARC
8
DEFAULT_255_1_388
10
12.9769809
20
134.5739882
40
0.2480958
50
47.4372362
51
75.0695672
0
ARC
8
DEFAULT_255_1_388
10
12.9422646
20
134.4531277
40
0.3738281
50
74.7009379
51
87.8124314
0
ARC
8
DEFAULT_255_1_388
10
12.9340262
20
134.3347659
40
0.4924321
50
87.3802571
51
90.0251599
0
ARC
8
DEFAULT_255_1_388
10
12.929691
20
134.4667997
40
0.3604218
50
89.3451886
51
108.5744412
0
ARC
8
DEFAULT_255_1_388
10
12.9142902
20
134.5245836
40
0.3007661
50
109.2998307
51
143.3037387
0
ARC
8
DEFAULT_255_1_388
10
13.0000192
20
134.4586584
40
0.4089031
50
143.075267
51
163.1918576
0
ARC
8
DEFAULT_255_1_388
10
13.2196026
20
134.3893652
40
0.6391492
50
162.9375929
51
174.6208776
0
ARC
8
DEFAULT_255_1_388
10
13.5150408
20
134.3569711
40
0.9363344
50
174.342123
51
180.1430283
0
ARC
8
DEFAULT_255_1_388
10
13.4102949
20
134.2226117
40
0.8315986
50
179.6817261
51
189.150555
0
ARC
8
DEFAULT_255_1_388
10
13.1289698
20
134.1757559
40
0.5464044
50
188.9911061
51
203.5772363
0
ARC
8
DEFAULT_255_1_388
10
13.007499
20
134.1253539
40
0.4149206
50
203.9075402
51
215.1312435
0
ARC
8
DEFAULT_255_1_388
10
12.9036788
20
134.0448907
40
0.2837747
50
213.9071511
51
263.8848919
0
ARC
8
DEFAULT_255_1_388
10
12.9177781
20
134.1331519
40
0.3730641
50
263.1757928
51
270.1031044
0
ARC
8
DEFAULT_255_1_388
10
12.921386
20
134.2734511
40
0.5133712
50
269.6722503
51
279.0606936
0
ARC
8
DEFAULT_255_1_388
10
12.9514016
20
134.092015
40
0.3294739
50
278.8749101
51
293.6349581
0
ARC
8
DEFAULT_255_1_388
10
12.9874219
20
134.0074251
40
0.2375405
50
293.8553806
51
310.0518171
0
ARC
8
DEFAULT_255_1_388
10
12.9879728
20
134.0004021
40
0.2318463
50
311.0644687
51
332.0111037
0
ARC
8
DEFAULT_255_1_388
10
12.8538402
20
134.0743702
40
0.3850112
50
331.6586806
51
343.2877423
0
ARC
8
DEFAULT_255_1_388
10
12.6217867
20
134.1456806
40
0.6277712
50
343.1446576
51
351.0103568
0
ARC
8
DEFAULT_255_1_388
10
12.458519
20
134.1756873
40
0.7937327
50
350.71248
51
351.1626997
0
LINE
8
DEFAULT_255_1_388
10
14.8556916
20
134.3862585
11
14.8556916
21
134.2443989
0
LINE
8
DEFAULT_255_1_388
10
14.8556916
20
134.2443989
11
14.2855424
21
134.2443989
0
LINE
8
DEFAULT_255_1_388
10
14.2855424
20
134.2443989
11
14.2855424
21
133.7781596
0
LINE
8
DEFAULT_255_1_388
10
14.2855424
20
133.7781596
11
14.9478552
21
133.7781596
0
LINE
8
DEFAULT_255_1_388
10
14.9478552
20
133.7781596
11
14.9478552
21
133.6363
0
LINE
8
DEFAULT_255_1_388
10
14.9478552
20
133.6363
11
14.1120581
21
133.6363
0
LINE
8
DEFAULT_255_1_388
10
14.1120581
20
133.6363
11
14.1120581
21
134.9518898
0
LINE
8
DEFAULT_255_1_388
10
14.1120581
20
134.9518898
11
14.9388195
21
134.9518898
0
LINE
8
DEFAULT_255_1_388
10
14.9388195
20
134.9518898
11
14.9388195
21
134.8091267
0
LINE
8
DEFAULT_255_1_388
10
14.9388195
20
134.8091267
11
14.2855424
21
134.8091267
0
LINE
8
DEFAULT_255_1_388
10
14.2855424
20
134.8091267
11
14.2855424
21
134.3862585
0
LINE
8
DEFAULT_255_1_388
10
14.2855424
20
134.3862585
11
14.8556916
21
134.3862585
0
LINE
8
DEFAULT_255_1_388
10
16.0908642
20
134.9518898
11
16.0908642
21
134.8091267
0
LINE
8
DEFAULT_255_1_388
10
16.0908642
20
134.8091267
11
15.667996
21
134.8091267
0
LINE
8
DEFAULT_255_1_388
10
15.667996
20
134.8091267
11
15.667996
21
133.6363
0
LINE
8
DEFAULT_255_1_388
10
15.667996
20
133.6363
11
15.4954152
21
133.6363
0
LINE
8
DEFAULT_255_1_388
10
15.4954152
20
133.6363
11
15.4954152
21
134.8091267
0
LINE
8
DEFAULT_255_1_388
10
15.4954152
20
134.8091267
11
15.0734506
21
134.8091267
0
LINE
8
DEFAULT_255_1_388
10
15.0734506
20
134.8091267
11
15.0734506
21
134.9518898
0
LINE
8
DEFAULT_255_1_388
10
15.0734506
20
134.9518898
11
16.0908642
21
134.9518898
0
LINE
8
DEFAULT_255_1_388
10
17.1046635
20
133.7727382
11
17.1046635
21
133.6363
0
LINE
8
DEFAULT_255_1_388
10
17.1046635
20
133.6363
11
16.242663
21
133.6363
0
LINE
8
DEFAULT_255_1_388
10
16.242663
20
133.6363
11
16.242663
21
133.7564741
0
LINE
8
DEFAULT_255_1_388
10
16.242663
20
133.7564741
11
16.6980595
21
134.2624702
0
LINE
8
DEFAULT_255_1_388
10
16.3845227
20
134.5642607
11
16.2173632
21
134.5642607
0
LINE
8
DEFAULT_255_1_388
10
16.796548
20
134.154946
11
16.4441579
21
133.7727382
0
LINE
8
DEFAULT_255_1_388
10
16.4441579
20
133.7727382
11
17.1046635
21
133.7727382
0
ARC
8
DEFAULT_255_1_388
10
15.1804655
20
135.6044983
40
2.0258655
50
318.5132526
51
320.7829045
0
ARC
8
DEFAULT_255_1_388
10
15.7752612
20
135.1203929
40
1.2589638
50
320.7372878
51
323.9739031
0
ARC
8
DEFAULT_255_1_388
10
16.2161543
20
134.8009554
40
0.7145141
50
323.8962701
51
328.64194
0
ARC
8
DEFAULT_255_1_388
10
16.4463801
20
134.6589545
40
0.4440242
50
328.8294576
51
331.7891185
0
ARC
8
DEFAULT_255_1_388
10
16.5586121
20
134.6010374
40
0.3177517
50
331.4254512
51
352.9365785
0
ARC
8
DEFAULT_255_1_388
10
16.5739121
20
134.597605
40
0.3021496
50
353.2257659
51
0.0166158
0
ARC
8
DEFAULT_255_1_388
10
16.5975882
20
134.6001894
40
0.2784847
50
359.486299
51
15.9343185
0
ARC
8
DEFAULT_255_1_388
10
16.6546148
20
134.6155269
40
0.2194403
50
16.1712913
51
43.5286088
0
ARC
8
DEFAULT_255_1_388
10
16.6633093
20
134.6242191
40
0.2071504
50
43.4417391
51
83.1661095
0
ARC
8
DEFAULT_255_1_388
10
16.6482254
20
134.5413316
40
0.2912888
50
82.160179
51
90.1505708
0
ARC
8
DEFAULT_255_1_388
10
16.6446736
20
134.4809279
40
0.3517025
50
89.5460741
51
102.5418361
0
ARC
8
DEFAULT_255_1_388
10
16.6173456
20
134.5968933
40
0.2325748
50
102.1738499
51
129.206123
0
ARC
8
DEFAULT_255_1_388
10
16.6084909
20
134.6108664
40
0.2161591
50
129.72865
51
135.753947
0
ARC
8
DEFAULT_255_1_388
10
16.6221391
20
134.5999728
40
0.2335433
50
136.1757367
51
166.3673339
0
ARC
8
DEFAULT_255_1_388
10
16.735408
20
134.5696148
40
0.3507873
50
165.9090694
51
178.8684636
0
ARC
8
DEFAULT_255_1_388
10
16.8329851
20
134.5643263
40
0.4484624
50
178.4391136
51
180.0083808
0
ARC
8
DEFAULT_255_1_388
10
16.6750553
20
134.5687197
40
0.4577138
50
163.2878482
51
180.5581842
0
ARC
8
DEFAULT_255_1_388
10
16.5848594
20
134.5935393
40
0.3641968
50
133.4540601
51
162.947111
0
ARC
8
DEFAULT_255_1_388
10
16.6049476
20
134.5721789
40
0.3935189
50
100.7869829
51
133.4382499
0
ARC
8
DEFAULT_255_1_388
10
16.6440721
20
134.3979399
40
0.5720313
50
89.660664
51
101.3702276
0
ARC
8
DEFAULT_255_1_388
10
16.651533
20
134.4048263
40
0.5651495
50
78.2172678
51
90.412935
0
ARC
8
DEFAULT_255_1_388
10
16.6914795
20
134.5875511
40
0.378122
50
55.9269121
51
78.4888449
0
ARC
8
DEFAULT_255_1_388
10
16.713551
20
134.6256187
40
0.3342379
50
47.929771
51
55.4049217
0
ARC
8
DEFAULT_255_1_388
10
16.7250041
20
134.6372618
40
0.3179217
50
4.334829
51
48.0560205
0
ARC
8
DEFAULT_255_1_388
10
16.6017842
20
134.6181487
40
0.442341
50
359.9251713
51
5.5971671
0
ARC
8
DEFAULT_255_1_388
10
16.6499997
20
134.6244728
40
0.3941854
50
337.8914027
51
358.9967534
0
ARC
8
DEFAULT_255_1_388
10
16.3447567
20
134.7422295
40
0.7213271
50
326.9132501
51
338.3508308
0
ARC
8
DEFAULT_255_1_388
10
15.8963679
20
135.0296105
40
1.2538973
50
319.6471833
51
327.0959558
0
ARC
8
DEFAULT_255_1_388
10
15.4650337
20
135.385405
40
1.8129975
50
317.2588228
51
319.9045804
0
LINE
8
DEFAULT_255_1_388
10
18.1067165
20
134.414269
11
18.1067165
21
134.1974135
0
LINE
8
DEFAULT_255_1_388
10
17.2763408
20
134.1748244
11
17.2763408
21
134.3980048
0
LINE
8
DEFAULT_255_1_388
10
17.9395571
20
134.1522353
11
17.9395571
21
134.4260153
0
LINE
8
DEFAULT_255_1_388
10
17.4435002
20
134.4386652
11
17.4435002
21
134.1712102
0
ARC
8
DEFAULT_255_1_388
10
16.7289499
20
134.1919118
40
1.3777776
50
353.8440855
51
0.2287917
0
ARC
8
DEFAULT_255_1_388
10
17.2508516
20
134.1336414
40
0.852639
50
344.4934746
51
353.9763743
0
ARC
8
DEFAULT_255_1_388
10
17.5875324
20
134.0379191
40
0.5026273
50
329.2803599
51
344.7473406
0
ARC
8
DEFAULT_255_1_388
10
17.6990819
20
133.9767038
40
0.3754848
50
324.9361395
51
328.6153007
0
ARC
8
DEFAULT_255_1_388
10
17.7416469
20
133.9469586
40
0.3235566
50
280.5801797
51
324.9173226
0
ARC
8
DEFAULT_255_1_388
10
17.6965098
20
134.1349236
40
0.5167077
50
269.5979457
51
281.6732777
0
ARC
8
DEFAULT_255_1_388
10
17.6884001
20
134.1214113
40
0.5032026
50
256.6228565
51
270.5105488
0
ARC
8
DEFAULT_255_1_388
10
17.6431744
20
133.9472345
40
0.3233092
50
215.8618351
51
257.2787793
0
ARC
8
DEFAULT_255_1_388
10
17.7580451
20
134.0243106
40
0.4615831
50
197.9695203
51
215.2622745
0
ARC
8
DEFAULT_255_1_388
10
18.0376127
20
134.1186641
40
0.7566307
50
187.8816486
51
198.2346584
0
ARC
8
DEFAULT_255_1_388
10
18.4829365
20
134.1829453
40
1.2065653
50
180.8977266
51
188.0054894
0
ARC
8
DEFAULT_255_1_388
10
18.7879579
20
134.19444
40
1.5117443
50
180.7434591
51
181.152202
0
ARC
8
DEFAULT_255_1_388
10
18.6204575
20
134.4034371
40
1.3441277
50
173.7674302
51
180.2315596
0
ARC
8
DEFAULT_255_1_388
10
18.1122443
20
134.4608779
40
0.8326847
50
164.3058537
51
173.9000553
0
ARC
8
DEFAULT_255_1_388
10
17.7846443
20
134.5552652
40
0.4917711
50
148.7922028
51
164.5682288
0
ARC
8
DEFAULT_255_1_388
10
17.6777181
20
134.6149457
40
0.3694204
50
144.5883979
51
148.1161588
0
ARC
8
DEFAULT_255_1_388
10
17.6389926
20
134.6419667
40
0.322202
50
101.6440149
51
144.5142619
0
ARC
8
DEFAULT_255_1_388
10
17.6868118
20
134.4519337
40
0.5180451
50
89.528284
51
102.5820197
0
ARC
8
DEFAULT_255_1_388
10
17.695711
20
134.4475376
40
0.5224441
50
77.0437914
51
90.508231
0
ARC
8
DEFAULT_255_1_388
10
17.7409364
20
134.6323272
40
0.3322297
50
48.2777708
51
77.4996087
0
ARC
8
DEFAULT_255_1_388
10
17.7491104
20
134.6468557
40
0.315966
50
36.3141586
51
47.6307332
0
ARC
8
DEFAULT_255_1_388
10
17.6513826
20
134.5810159
40
0.4337313
50
18.2931065
51
35.6770203
0
ARC
8
DEFAULT_255_1_388
10
17.3652667
20
134.4828107
40
0.7362203
50
8.0246996
51
18.5605636
0
ARC
8
DEFAULT_255_1_388
10
16.8969022
20
134.4136432
40
1.2096583
50
1.127539
51
8.1718423
0
ARC
8
DEFAULT_255_1_388
10
16.5320156
20
134.3993374
40
1.5747719
50
0.5432713
51
1.38669
0
ARC
8
DEFAULT_255_1_388
10
16.7377535
20
134.4300163
40
1.2018103
50
359.8092569
51
4.9408001
0
ARC
8
DEFAULT_255_1_388
10
17.2114116
20
134.47229
40
0.7262727
50
4.8364937
51
12.2906017
0
ARC
8
DEFAULT_255_1_388
10
17.5213581
20
134.5413485
40
0.4087324
50
12.0806994
51
23.8171225
0
ARC
8
DEFAULT_255_1_388
10
17.6533977
20
134.5972508
40
0.2653719
50
24.2874621
51
31.3934353
0
ARC
8
DEFAULT_255_1_388
10
17.7124413
20
134.6358822
40
0.1948607
50
30.7407708
51
82.4658033
0
ARC
8
DEFAULT_255_1_388
10
17.6922073
20
134.5365017
40
0.2961198
50
81.1057101
51
90.2187368
0
ARC
8
DEFAULT_255_1_388
10
17.6881885
20
134.5655421
40
0.2670929
50
89.380395
51
105.6763916
0
ARC
8
DEFAULT_255_1_388
10
17.6675607
20
134.640532
40
0.1893189
50
105.7980655
51
149.7387869
0
ARC
8
DEFAULT_255_1_388
10
17.7872747
20
134.5685719
40
0.3289892
50
149.4208441
51
163.628295
0
ARC
8
DEFAULT_255_1_388
10
18.0224977
20
134.4968345
40
0.5749004
50
163.3764549
51
172.141138
0
ARC
8
DEFAULT_255_1_388
10
18.3937698
20
134.4436582
40
0.9499585
50
172.0258462
51
178.0705453
0
ARC
8
DEFAULT_255_1_388
10
18.7359251
20
134.4274682
40
1.2924734
50
177.8639301
51
179.5036263
0
ARC
8
DEFAULT_255_1_388
10
18.614027
20
134.1671151
40
1.170534
50
179.7995545
51
185.246089
0
ARC
8
DEFAULT_255_1_388
10
18.1591863
20
134.1240404
40
0.7136613
50
185.1411911
51
193.0082205
0
ARC
8
DEFAULT_255_1_388
10
17.8618124
20
134.0537441
40
0.4080987
50
192.7897338
51
205.2507384
0
ARC
8
DEFAULT_255_1_388
10
17.7440334
20
134.0011538
40
0.2791522
50
205.8001921
51
211.2545876
0
ARC
8
DEFAULT_255_1_388
10
17.6851873
20
133.9617132
40
0.2084074
50
210.3789935
51
238.4007996
0
ARC
8
DEFAULT_255_1_388
10
17.6829959
20
133.9669786
40
0.2117943
50
239.6521916
51
265.9793852
0
ARC
8
DEFAULT_255_1_388
10
17.6925808
20
134.0426358
40
0.2879689
50
265.1324455
51
270.0603288
0
ARC
8
DEFAULT_255_1_388
10
17.6958185
20
134.0061418
40
0.2514919
50
269.3314378
51
287.2180039
0
ARC
8
DEFAULT_255_1_388
10
17.7113267
20
133.9495291
40
0.1928357
50
287.7957942
51
329.0808983
0
ARC
8
DEFAULT_255_1_388
10
17.6036024
20
134.0167651
40
0.319808
50
328.6635261
51
343.3325043
0
ARC
8
DEFAULT_255_1_388
10
17.3591483
20
134.0929195
40
0.5758408
50
343.0498092
51
351.9392499
0
ARC
8
DEFAULT_255_1_388
10
16.9690804
20
134.1504205
40
0.9701202
50
351.8071632
51
357.7957897
0
ARC
8
DEFAULT_255_1_388
10
16.6056281
20
134.1692724
40
1.3340376
50
357.5870923
51
359.2682493
0
LINE
8
DEFAULT_255_1_388
10
19.1458156
20
134.414269
11
19.1458156
21
134.1974135
0
LINE
8
DEFAULT_255_1_388
10
18.3154399
20
134.1748244
11
18.3154399
21
134.3980048
0
LINE
8
DEFAULT_255_1_388
10
18.9786562
20
134.1522353
11
18.9786562
21
134.4260153
0
LINE
8
DEFAULT_255_1_388
10
18.4825993
20
134.4386652
11
18.4825993
21
134.1712102
0
ARC
8
DEFAULT_255_1_388
10
17.768049
20
134.1919118
40
1.3777776
50
353.8440855
51
0.2287917
0
ARC
8
DEFAULT_255_1_388
10
18.2899508
20
134.1336414
40
0.852639
50
344.4934746
51
353.9763743
0
ARC
8
DEFAULT_255_1_388
10
18.6266315
20
134.0379191
40
0.5026273
50
329.2803599
51
344.7473406
0
ARC
8
DEFAULT_255_1_388
10
18.7381811
20
133.9767038
40
0.3754848
50
324.9361395
51
328.6153007
0
ARC
8
DEFAULT_255_1_388
10
18.780746
20
133.9469586
40
0.3235566
50
280.5801797
51
324.9173226
0
ARC
8
DEFAULT_255_1_388
10
18.7356089
20
134.1349236
40
0.5167077
50
269.5979457
51
281.6732777
0
ARC
8
DEFAULT_255_1_388
10
18.7274992
20
134.1214113
40
0.5032026
50
256.6228565
51
270.5105488
0
ARC
8
DEFAULT_255_1_388
10
18.6822735
20
133.9472345
40
0.3233092
50
215.8618351
51
257.2787793
0
ARC
8
DEFAULT_255_1_388
10
18.7971442
20
134.0243106
40
0.4615831
50
197.9695203
51
215.2622745
0
ARC
8
DEFAULT_255_1_388
10
19.0767118
20
134.1186641
40
0.7566307
50
187.8816486
51
198.2346584
0
ARC
8
DEFAULT_255_1_388
10
19.5220356
20
134.1829453
40
1.2065653
50
180.8977266
51
188.0054894
0
ARC
8
DEFAULT_255_1_388
10
19.827057
20
134.19444
40
1.5117443
50
180.7434591
51
181.152202
0
ARC
8
DEFAULT_255_1_388
10
19.6595566
20
134.4034371
40
1.3441277
50
173.7674302
51
180.2315596
0
ARC
8
DEFAULT_255_1_388
10
19.1513435
20
134.4608779
40
0.8326847
50
164.3058537
51
173.9000553
0
ARC
8
DEFAULT_255_1_388
10
18.8237435
20
134.5552652
40
0.4917711
50
148.7922028
51
164.5682288
0
ARC
8
DEFAULT_255_1_388
10
18.7168172
20
134.6149457
40
0.3694204
50
144.5883979
51
148.1161588
0
ARC
8
DEFAULT_255_1_388
10
18.6780917
20
134.6419667
40
0.322202
50
101.6440149
51
144.5142619
0
ARC
8
DEFAULT_255_1_388
10
18.725911
20
134.4519337
40
0.5180451
50
89.528284
51
102.5820197
0
ARC
8
DEFAULT_255_1_388
10
18.7348102
20
134.4475376
40
0.5224441
50
77.0437914
51
90.508231
0
ARC
8
DEFAULT_255_1_388
10
18.7800355
20
134.6323272
40
0.3322297
50
48.2777708
51
77.4996087
0
ARC
8
DEFAULT_255_1_388
10
18.7882095
20
134.6468557
40
0.315966
50
36.3141586
51
47.6307332
0
ARC
8
DEFAULT_255_1_388
10
18.6904817
20
134.5810159
40
0.4337313
50
18.2931065
51
35.6770203
0
ARC
8
DEFAULT_255_1_388
10
18.4043658
20
134.4828107
40
0.7362203
50
8.0246996
51
18.5605636
0
ARC
8
DEFAULT_255_1_388
10
17.9360014
20
134.4136432
40
1.2096583
50
1.127539
51
8.1718423
0
ARC
8
DEFAULT_255_1_388
10
17.5711147
20
134.3993374
40
1.5747719
50
0.5432713
51
1.38669
0
ARC
8
DEFAULT_255_1_388
10
17.7768526
20
134.4300163
40
1.2018103
50
359.8092569
51
4.9408001
0
ARC
8
DEFAULT_255_1_388
10
18.2505107
20
134.47229
40
0.7262727
50
4.8364937
51
12.2906017
0
ARC
8
DEFAULT_255_1_388
10
18.5604572
20
134.5413485
40
0.4087324
50
12.0806994
51
23.8171225
0
ARC
8
DEFAULT_255_1_388
10
18.6924968
20
134.5972508
40
0.2653719
50
24.2874621
51
31.3934353
0
ARC
8
DEFAULT_255_1_388
10
18.7515404
20
134.6358822
40
0.1948607
50
30.7407708
51
82.4658033
0
ARC
8
DEFAULT_255_1_388
10
18.7313065
20
134.5365017
40
0.2961198
50
81.1057101
51
90.2187368
0
ARC
8
DEFAULT_255_1_388
10
18.7272877
20
134.5655421
40
0.2670929
50
89.380395
51
105.6763916
0
ARC
8
DEFAULT_255_1_388
10
18.7066598
20
134.640532
40
0.1893189
50
105.7980655
51
149.7387869
0
ARC
8
DEFAULT_255_1_388
10
18.8263739
20
134.5685719
40
0.3289892
50
149.4208441
51
163.628295
0
ARC
8
DEFAULT_255_1_388
10
19.0615968
20
134.4968345
40
0.5749004
50
163.3764549
51
172.141138
0
ARC
8
DEFAULT_255_1_388
10
19.432869
20
134.4436582
40
0.9499585
50
172.0258462
51
178.0705453
0
ARC
8
DEFAULT_255_1_388
10
19.7750242
20
134.4274682
40
1.2924734
50
177.8639301
51
179.5036263
0
ARC
8
DEFAULT_255_1_388
10
19.6531261
20
134.1671151
40
1.170534
50
179.7995545
51
185.246089
0
ARC
8
DEFAULT_255_1_388
10
19.1982854
20
134.1240404
40
0.7136613
50
185.1411911
51
193.0082205
0
ARC
8
DEFAULT_255_1_388
10
18.9009115
20
134.0537441
40
0.4080987
50
192.7897338
51
205.2507384
0
ARC
8
DEFAULT_255_1_388
10
18.7831325
20
134.0011538
40
0.2791522
50
205.8001921
51
211.2545876
0
ARC
8
DEFAULT_255_1_388
10
18.7242864
20
133.9617132
40
0.2084074
50
210.3789935
51
238.4007996
0
ARC
8
DEFAULT_255_1_388
10
18.722095
20
133.9669786
40
0.2117943
50
239.6521916
51
265.9793852
0
ARC
8
DEFAULT_255_1_388
10
18.7316799
20
134.0426358
40
0.2879689
50
265.1324455
51
270.0603288
0
ARC
8
DEFAULT_255_1_388
10
18.7349176
20
134.0061418
40
0.2514919
50
269.3314378
51
287.2180039
0
ARC
8
DEFAULT_255_1_388
10
18.7504258
20
133.9495291
40
0.1928357
50
287.7957942
51
329.0808983
0
ARC
8
DEFAULT_255_1_388
10
18.6427015
20
134.0167651
40
0.319808
50
328.6635261
51
343.3325043
0
ARC
8
DEFAULT_255_1_388
10
18.3982474
20
134.0929195
40
0.5758408
50
343.0498092
51
351.9392499
0
ARC
8
DEFAULT_255_1_388
10
18.0081795
20
134.1504205
40
0.9701202
50
351.8071632
51
357.7957897
0
ARC
8
DEFAULT_255_1_388
10
17.6447272
20
134.1692724
40
1.3340376
50
357.5870923
51
359.2682493
0
LINE
8
DEFAULT_255_1_388
10
19.5587446
20
134.6139567
11
19.5587446
21
133.6363
0
LINE
8
DEFAULT_255_1_388
10
19.5587446
20
133.6363
11
19.3915852
21
133.6363
0
LINE
8
DEFAULT_255_1_388
10
19.3915852
20
133.6363
11
19.3915852
21
134.6139567
0
LINE
8
DEFAULT_255_1_388
10
19.3915852
20
134.6139567
11
19.5587446
21
134.6139567
0
ARC
8
DEFAULT_255_1_388
10
19.4881214
20
134.8743428
40
0.1100948
50
161.4148232
51
180.5532607
0
ARC
8
DEFAULT_255_1_388
10
19.4741524
20
134.8781875
40
0.0956324
50
138.1830164
51
160.9307633
0
ARC
8
DEFAULT_255_1_388
10
19.4617711
20
134.8889313
40
0.0792417
50
104.6371663
51
138.0036136
0
ARC
8
DEFAULT_255_1_388
10
19.473825
20
134.8476963
40
0.1221906
50
92.0601206
51
105.2198859
0
ARC
8
DEFAULT_255_1_388
10
19.4764614
20
134.8088583
40
0.161103
50
89.9790681
51
92.5006086
0
ARC
8
DEFAULT_255_1_388
10
19.477579
20
134.8344998
40
0.1354654
50
78.0234649
51
90.4478111
0
ARC
8
DEFAULT_255_1_388
10
19.4879374
20
134.8810203
40
0.0878096
50
55.0521508
51
78.336297
0
ARC
8
DEFAULT_255_1_388
10
19.4935909
20
134.8905168
40
0.0767913
50
42.0506198
51
54.4508489
0
ARC
8
DEFAULT_255_1_388
10
19.4783941
20
134.8765821
40
0.0974091
50
1.7493657
51
42.1498724
0
ARC
8
DEFAULT_255_1_388
10
19.4497847
20
134.8733166
40
0.1261276
50
359.9832635
51
2.8353994
0
ARC
8
DEFAULT_255_1_388
10
19.4684257
20
134.8722412
40
0.1074916
50
342.1062453
51
0.5535864
0
ARC
8
DEFAULT_255_1_388
10
19.4844681
20
134.8678197
40
0.0908695
50
316.7110111
51
341.6513114
0
ARC
8
DEFAULT_255_1_388
10
19.4920113
20
134.8610607
40
0.0807447
50
285.4398289
51
316.5320129
0
ARC
8
DEFAULT_255_1_388
10
19.4796284
20
134.9022023
40
0.1237022
50
272.3543902
51
285.8951677
0
ARC
8
DEFAULT_255_1_388
10
19.4765994
20
134.9437742
40
0.1653687
50
269.9725761
51
272.8112722
0
ARC
8
DEFAULT_255_1_388
10
19.4755046
20
134.9186727
40
0.1402709
50
258.8433431
51
270.4148607
0
ARC
8
DEFAULT_255_1_388
10
19.4653826
20
134.8696739
40
0.0902407
50
238.54281
51
259.1289544
0
ARC
8
DEFAULT_255_1_388
10
19.4577147
20
134.8557694
40
0.0743817
50
222.5056676
51
237.9918132
0
ARC
8
DEFAULT_255_1_388
10
19.4720741
20
134.8688295
40
0.0937918
50
184.1070774
51
222.4604165
0
ARC
8
DEFAULT_255_1_388
10
19.5023154
20
134.8731538
40
0.1242838
50
179.9419581
51
185.0970785
0
LINE
8
DEFAULT_255_1_388
10
20.7252463
20
134.5714892
11
20.5508583
21
134.5714892
0
LINE
8
DEFAULT_255_1_388
10
19.7719858
20
134.0176042
11
19.9463737
21
134.0176042
0
ARC
8
DEFAULT_255_1_388
10
20.6249311
20
135.5778821
40
1.4087688
50
248.9196578
51
254.1442424
0
ARC
8
DEFAULT_255_1_388
10
20.4359191
20
135.0912805
40
0.8867498
50
241.6337352
51
249.0064643
0
ARC
8
DEFAULT_255_1_388
10
20.2639504
20
134.7761764
40
0.5277799
50
230.4982261
51
241.8087583
0
ARC
8
DEFAULT_255_1_388
10
20.1757275
20
134.6637686
40
0.3849419
50
227.4062979
51
229.9877433
0
ARC
8
DEFAULT_255_1_388
10
20.1208622
20
134.6102155
40
0.3084129
50
200.6782127
51
228.1765252
0
ARC
8
DEFAULT_255_1_388
10
20.128999
20
134.6085277
40
0.315461
50
179.506278
51
199.8695278
0
ARC
8
DEFAULT_255_1_388
10
20.1279579
20
134.6168671
40
0.3144584
50
132.4834401
51
181.0242352
0
ARC
8
DEFAULT_255_1_388
10
20.1948784
20
134.5536788
40
0.4063094
50
129.2526113
51
133.4249077
0
ARC
8
DEFAULT_255_1_388
10
20.2114376
20
134.5288619
40
0.436014
50
101.9878945
51
128.8741833
0
ARC
8
DEFAULT_255_1_388
10
20.2562791
20
134.335236
40
0.6347415
50
89.5906376
51
102.3170567
0
ARC
8
DEFAULT_255_1_388
10
20.2642103
20
134.3710586
40
0.5989122
50
77.2359491
51
90.3248968
0
ARC
8
DEFAULT_255_1_388
10
20.2875034
20
134.4798554
40
0.4876594
50
63.8379856
51
77.0808925
0
ARC
8
DEFAULT_255_1_388
10
20.3187568
20
134.5380882
40
0.4216191
50
45.9863127
51
64.1608798
0
ARC
8
DEFAULT_255_1_388
10
20.3480961
20
134.571599
40
0.3771394
50
32.2747934
51
45.6544796
0
ARC
8
DEFAULT_255_1_388
10
20.3555767
20
134.5737426
40
0.3696765
50
359.6507495
51
32.6129943
0
ARC
8
DEFAULT_255_1_388
10
20.249495
20
134.5742788
40
0.3013762
50
359.469654
51
14.983205
0
ARC
8
DEFAULT_255_1_388
10
20.3288202
20
134.5955288
40
0.2192542
50
14.9781954
51
48.2004799
0
ARC
8
DEFAULT_255_1_388
10
20.3103313
20
134.5722937
40
0.2489048
50
48.5926661
51
74.1242559
0
ARC
8
DEFAULT_255_1_388
10
20.2728116
20
134.4484607
40
0.3782845
50
73.7889321
51
86.6653996
0
ARC
8
DEFAULT_255_1_388
10
20.261293
20
134.3126955
40
0.5145025
50
86.2642725
51
90.0533288
0
ARC
8
DEFAULT_255_1_388
10
20.2581023
20
134.3571376
40
0.4700681
50
89.669455
51
99.2313411
0
ARC
8
DEFAULT_255_1_388
10
20.2308183
20
134.5196401
40
0.3052945
50
99.0695987
51
113.7659242
0
ARC
8
DEFAULT_255_1_388
10
20.2000177
20
134.5922772
40
0.226407
50
114.0402885
51
127.9848946
0
ARC
8
DEFAULT_255_1_388
10
20.1729653
20
134.6255884
40
0.1835045
50
127.7287217
51
176.7106493
0
ARC
8
DEFAULT_255_1_388
10
20.2493319
20
134.614221
40
0.2604907
50
175.1780759
51
180.0581213
0
ARC
8
DEFAULT_255_1_388
10
20.1544662
20
134.6128411
40
0.1656287
50
179.6140658
51
228.124674
0
ARC
8
DEFAULT_255_1_388
10
20.204202
20
134.658894
40
0.2332038
50
226.5785315
51
230.8792476
0
ARC
8
DEFAULT_255_1_388
10
20.2571506
20
134.7291908
40
0.3211664
50
231.4636401
51
241.9261664
0
ARC
8
DEFAULT_255_1_388
10
20.391829
20
134.9770349
40
0.6032345
50
241.7177136
51
248.3259138
0
ARC
8
DEFAULT_255_1_388
10
20.5476884
20
135.3631771
40
1.0196417
50
248.2007377
51
252.4527713
0
ARC
8
DEFAULT_255_1_388
10
20.6830411
20
135.7816092
40
1.4594143
50
252.3388938
51
254.347037
0
ARC
8
DEFAULT_255_1_388
10
19.8345712
20
132.7468095
40
1.6917621
50
71.0197462
51
74.4085467
0
ARC
8
DEFAULT_255_1_388
10
20.0252799
20
133.2973144
40
1.1091618
50
66.1845203
51
71.086519
0
ARC
8
DEFAULT_255_1_388
10
20.2003348
20
133.6914439
40
0.6779073
50
59.3537334
51
66.269255
0
ARC
8
DEFAULT_255_1_388
10
20.3003074
20
133.8605777
40
0.4814366
50
49.1021732
51
59.3294421
0
ARC
8
DEFAULT_255_1_388
10
20.3924063
20
133.9655575
40
0.3417875
50
32.7924183
51
49.2503526
0
ARC
8
DEFAULT_255_1_388
10
20.4273677
20
133.9905311
40
0.2988789
50
31.121225
51
32.3977355
0
ARC
8
DEFAULT_255_1_388
10
20.4185855
20
133.9872728
40
0.3080861
50
8.1116803
51
30.7958224
0
ARC
8
DEFAULT_255_1_388
10
20.32742
20
133.9717437
40
0.4005385
50
359.8390945
51
8.4707348
0
ARC
8
DEFAULT_255_1_388
10
20.3978248
20
133.9662751
40
0.3301608
50
337.4732479
51
0.7538283
0
ARC
8
DEFAULT_255_1_388
10
20.4179273
20
133.9640554
40
0.3107929
50
307.5917028
51
336.4313755
0
ARC
8
DEFAULT_255_1_388
10
20.3668331
20
134.0208509
40
0.3870096
50
307.6560665
51
308.4561779
0
ARC
8
DEFAULT_255_1_388
10
20.3402547
20
134.0616832
40
0.435591
50
284.3733666
51
307.1426212
0
ARC
8
DEFAULT_255_1_388
10
20.2845442
20
134.2666391
40
0.6479685
50
272.4384566
51
284.6464689
0
ARC
8
DEFAULT_255_1_388
10
20.2702826
20
134.4690434
40
0.8508149
50
269.9708517
51
272.8180721
0
ARC
8
DEFAULT_255_1_388
10
20.2654509
20
134.2398283
40
0.6216151
50
248.2707343
51
270.4054609
0
ARC
8
DEFAULT_255_1_388
10
20.2593381
20
134.2183673
40
0.5994203
50
246.1380358
51
248.054058
0
ARC
8
DEFAULT_255_1_388
10
20.2122523
20
134.1194705
40
0.4899388
50
233.1671897
51
246.4951656
0
ARC
8
DEFAULT_255_1_388
10
20.1499158
20
134.0353137
40
0.3852115
50
215.3403381
51
233.084328
0
ARC
8
DEFAULT_255_1_388
10
20.1192522
20
134.0130093
40
0.3472969
50
179.2419235
51
215.2648426
0
ARC
8
DEFAULT_255_1_388
10
20.2056073
20
134.0145979
40
0.259251
50
179.3355796
51
199.1045873
0
ARC
8
DEFAULT_255_1_388
10
20.1682215
20
134.0048223
40
0.2207454
50
199.8830064
51
232.7061328
0
ARC
8
DEFAULT_255_1_388
10
20.2213489
20
134.0716456
40
0.306101
50
232.3736206
51
255.5136621
0
ARC
8
DEFAULT_255_1_388
10
20.2596995
20
134.2116177
40
0.4512213
50
255.2447928
51
267.5318292
0
ARC
8
DEFAULT_255_1_388
10
20.2695462
20
134.3502709
40
0.5901825
50
267.1564563
51
270.0294721
0
ARC
8
DEFAULT_255_1_388
10
20.2726788
20
134.3003623
40
0.5402814
50
269.6999944
51
278.1662446
0
ARC
8
DEFAULT_255_1_388
10
20.3014815
20
134.1056974
40
0.3435003
50
278.0229022
51
290.6255326
0
ARC
8
DEFAULT_255_1_388
10
20.3405982
20
134.0013547
40
0.2320666
50
290.6616368
51
307.0374127
0
ARC
8
DEFAULT_255_1_388
10
20.3743882
20
133.959904
40
0.1786372
50
306.3942078
51
355.303191
0
ARC
8
DEFAULT_255_1_388
10
20.3168175
20
133.9685186
40
0.2367516
50
354.3662092
51
0.0709489
0
ARC
8
DEFAULT_255_1_388
10
20.3328043
20
133.9710561
40
0.2207761
50
359.4175379
51
16.1975911
0
ARC
8
DEFAULT_255_1_388
10
20.3840161
20
133.9850954
40
0.1676828
50
16.4721294
51
52.6261798
0
ARC
8
DEFAULT_255_1_388
10
20.2916669
20
133.8631606
40
0.3206412
50
52.7381828
51
62.4979144
0
ARC
8
DEFAULT_255_1_388
10
20.1358421
20
133.5699236
40
0.6527035
50
62.2517425
51
68.1219454
0
ARC
8
DEFAULT_255_1_388
10
19.9423909
20
133.0944951
40
1.1659797
50
68.006043
51
71.8055127
0
ARC
8
DEFAULT_255_1_388
10
19.7403817
20
132.4886723
40
1.8045908
50
71.718361
51
73.9260743
0
LINE
8
DEFAULT_255_1_388
10
21.4336408
20
134.1513317
11
21.1237182
21
134.1513317
0
LINE
8
DEFAULT_255_1_388
10
21.1237182
20
134.1513317
11
21.1237182
21
133.6363
0
LINE
8
DEFAULT_255_1_388
10
21.1237182
20
133.6363
11
20.9502338
21
133.6363
0
LINE
8
DEFAULT_255_1_388
10
20.9502338
20
133.6363
11
20.9502338
21
134.9518898
0
LINE
8
DEFAULT_255_1_388
10
20.9502338
20
134.9518898
11
21.4354479
21
134.9518898
0
LINE
8
DEFAULT_255_1_388
10
21.1237182
20
134.8091267
11
21.1237182
21
134.2931914
0
LINE
8
DEFAULT_255_1_388
10
21.1237182
20
134.2931914
11
21.4354479
21
134.2931914
0
LINE
8
DEFAULT_255_1_388
10
21.4453872
20
134.8091267
11
21.1237182
21
134.8091267
0
ARC
8
DEFAULT_255_1_388
10
21.4401853
20
134.2702334
40
0.6816729
50
78.8380084
51
90.398184
0
ARC
8
DEFAULT_255_1_388
10
21.4869883
20
134.4975796
40
0.449571
50
58.9633273
51
79.0810717
0
ARC
8
DEFAULT_255_1_388
10
21.5209268
20
134.5605823
40
0.3781049
50
48.0194715
51
58.4475592
0
ARC
8
DEFAULT_255_1_388
10
21.5309088
20
134.5701818
40
0.3642936
50
3.3374546
51
48.1766642
0
ARC
8
DEFAULT_255_1_388
10
21.3923894
20
134.5502581
40
0.5038766
50
359.9483251
51
4.6822857
0
ARC
8
DEFAULT_255_1_388
10
21.4063818
20
134.5454779
40
0.4899031
50
346.1879032
51
0.5059221
0
ARC
8
DEFAULT_255_1_388
10
21.5592609
20
134.5057763
40
0.3319729
50
310.8832219
51
346.5426612
0
ARC
8
DEFAULT_255_1_388
10
21.5245458
20
134.5526853
40
0.3901853
50
286.6925305
51
310.228778
0
ARC
8
DEFAULT_255_1_388
10
21.4605187
20
134.7540585
40
0.6014737
50
274.6848219
51
287.0247342
0
ARC
8
DEFAULT_255_1_388
10
21.4351736
20
135.0025088
40
0.8511785
50
269.8968222
51
275.0192639
0
ARC
8
DEFAULT_255_1_388
10
21.4382729
20
134.7687144
40
0.4755314
50
269.6596206
51
279.4150542
0
ARC
8
DEFAULT_255_1_388
10
21.4672187
20
134.6009945
40
0.3053379
50
279.2050006
51
294.9901776
0
ARC
8
DEFAULT_255_1_388
10
21.4998822
20
134.5281353
40
0.2255036
50
295.2886769
51
311.2912669
0
ARC
8
DEFAULT_255_1_388
10
21.5078563
20
134.5162938
40
0.2113522
50
311.7853512
51
347.2860549
0
ARC
8
DEFAULT_255_1_388
10
21.3971725
20
134.544743
40
0.3256011
50
346.6891629
51
0.1057086
0
ARC
8
DEFAULT_255_1_388
10
21.3049184
20
134.5480247
40
0.417863
50
359.63239
51
359.9961329
0
ARC
8
DEFAULT_255_1_388
10
21.421379
20
134.5507987
40
0.3014155
50
359.4673371
51
15.5931159
0
ARC
8
DEFAULT_255_1_388
10
21.4916852
20
134.5697937
40
0.2285918
50
15.7441779
51
46.620186
0
ARC
8
DEFAULT_255_1_388
10
21.4750612
20
134.5506361
40
0.2539359
50
46.8628482
51
75.6676625
0
ARC
8
DEFAULT_255_1_388
10
21.4419669
20
134.4315243
40
0.3775415
50
75.2763152
51
88.2916439
0
ARC
8
DEFAULT_255_1_388
10
21.4353668
20
134.3313097
40
0.4779221
50
87.8589087
51
88.7986197
0
LINE
8
DEFAULT_255_1_388
10
4.1680903
20
132.9674898
11
4.1680903
21
131.7937596
0
LINE
8
DEFAULT_255_1_388
10
4.1680903
20
131.7937596
11
4.7915498
21
131.7937596
0
LINE
8
DEFAULT_255_1_388
10
4.7915498
20
131.7937596
11
4.7915498
21
131.6519
0
LINE
8
DEFAULT_255_1_388
10
4.7915498
20
131.6519
11
3.9937024
21
131.6519
0
LINE
8
DEFAULT_255_1_388
10
3.9937024
20
131.6519
11
3.9937024
21
132.9674898
0
LINE
8
DEFAULT_255_1_388
10
3.9937024
20
132.9674898
11
4.1680903
21
132.9674898
0
LINE
8
DEFAULT_255_1_388
10
5.4421162
20
132.7415987
11
5.4421162
21
132.3575838
0
LINE
8
DEFAULT_255_1_388
10
5.4421162
20
132.3575838
11
5.8089634
21
132.3575838
0
LINE
8
DEFAULT_255_1_388
10
5.8089634
20
132.3575838
11
5.8089634
21
132.1994601
0
LINE
8
DEFAULT_255_1_388
10
5.8089634
20
132.1994601
11
5.4421162
21
132.1994601
0
LINE
8
DEFAULT_255_1_388
10
5.4421162
20
132.1994601
11
5.4421162
21
131.7838204
0
LINE
8
DEFAULT_255_1_388
10
5.4421162
20
131.7838204
11
5.2740532
21
131.7838204
0
LINE
8
DEFAULT_255_1_388
10
5.2740532
20
131.7838204
11
5.2740532
21
132.1994601
0
LINE
8
DEFAULT_255_1_388
10
5.2740532
20
132.1994601
11
4.9072061
21
132.1994601
0
LINE
8
DEFAULT_255_1_388
10
4.9072061
20
132.1994601
11
4.9072061
21
132.3575838
0
LINE
8
DEFAULT_255_1_388
10
4.9072061
20
132.3575838
11
5.2740532
21
132.3575838
0
LINE
8
DEFAULT_255_1_388
10
5.2740532
20
132.3575838
11
5.2740532
21
132.7415987
0
LINE
8
DEFAULT_255_1_388
10
5.2740532
20
132.7415987
11
5.4421162
21
132.7415987
0
LINE
8
DEFAULT_255_1_388
10
4.5041985
20
5.9738148
11
4.5041985
21
4.6519
0
LINE
8
DEFAULT_255_1_388
10
4.5041985
20
4.6519
11
4.3361355
21
4.6519
0
LINE
8
DEFAULT_255_1_388
10
4.3361355
20
4.6519
11
4.3361355
21
5.765995
0
LINE
8
DEFAULT_255_1_388
10
4.3361355
20
5.765995
11
3.999106
21
5.6422066
0
LINE
8
DEFAULT_255_1_388
10
3.999106
20
5.6422066
11
3.999106
21
5.7940055
0
LINE
8
DEFAULT_255_1_388
10
3.999106
20
5.7940055
11
4.4779951
21
5.9738148
0
LINE
8
DEFAULT_255_1_388
10
4.4779951
20
5.9738148
11
4.5041985
21
5.9738148
0
LINE
8
DEFAULT_255_1_388
10
5.6201006
20
5.9683934
11
5.6499182
21
5.9683934
0
LINE
8
DEFAULT_255_1_388
10
5.6499182
20
5.9683934
11
5.6499182
21
5.8265338
0
LINE
8
DEFAULT_255_1_388
10
5.6499182
20
5.8265338
11
5.619197
21
5.8265338
0
LINE
8
DEFAULT_255_1_388
10
5.0038696
20
5.1524747
11
5.0038696
21
5.2166278
0
LINE
8
DEFAULT_255_1_388
10
5.1719326
20
5.1949422
11
5.1719326
21
5.1334999
0
ARC
8
DEFAULT_255_1_388
10
5.6250862
20
5.2642826
40
0.562282
50
90.6001079
51
104.5146616
0
ARC
8
DEFAULT_255_1_388
10
5.5813821
20
5.42681
40
0.3939917
50
104.2855758
51
133.8630124
0
ARC
8
DEFAULT_255_1_388
10
5.5998074
20
5.4146243
40
0.4155734
50
134.5304124
51
161.6210222
0
ARC
8
DEFAULT_255_1_388
10
5.7858006
20
5.3490421
40
0.6127682
50
161.2850533
51
174.2074364
0
ARC
8
DEFAULT_255_1_388
10
5.9447573
20
5.3271437
40
0.7731446
50
173.7817938
51
174.9251711
0
ARC
8
DEFAULT_255_1_388
10
5.4321767
20
5.171627
40
0.3412588
50
95.8332067
51
138.995412
0
ARC
8
DEFAULT_255_1_388
10
5.4573047
20
5.0277695
40
0.4870358
50
89.8755506
51
97.0540979
0
ARC
8
DEFAULT_255_1_388
10
5.4626436
20
5.1217841
40
0.3930432
50
71.6407016
51
90.6240821
0
ARC
8
DEFAULT_255_1_388
10
5.4795829
20
5.1841433
40
0.3285421
50
39.6368051
51
71.0190743
0
ARC
8
DEFAULT_255_1_388
10
5.4079737
20
5.1222586
40
0.4231706
50
10.6588054
51
39.9044509
0
ARC
8
DEFAULT_255_1_388
10
5.2338283
20
5.0844223
40
0.60133
50
359.6827842
51
11.1326896
0
ARC
8
DEFAULT_255_1_388
10
5.2293618
20
5.0764715
40
0.6058047
50
347.2485908
51
0.4371098
0
ARC
8
DEFAULT_255_1_388
10
5.4169404
20
5.0313379
40
0.4128987
50
318.1408565
51
347.6118497
0
ARC
8
DEFAULT_255_1_388
10
5.4535001
20
5.0012903
40
0.3656244
50
275.6342406
51
317.824739
0
ARC
8
DEFAULT_255_1_388
10
5.4286521
20
5.1474827
40
0.513655
50
269.8872513
51
276.7916069
0
ARC
8
DEFAULT_255_1_388
10
5.4224714
20
5.0321181
40
0.398323
50
246.9139443
51
270.7436787
0
ARC
8
DEFAULT_255_1_388
10
5.423191
20
5.0161044
40
0.3839368
50
218.1665534
51
245.8780431
0
ARC
8
DEFAULT_255_1_388
10
5.5221282
20
5.0988903
40
0.5128958
50
191.4115343
51
218.6077624
0
ARC
8
DEFAULT_255_1_388
10
5.7401598
20
5.1477777
40
0.7363054
50
179.6344971
51
191.7836758
0
ARC
8
DEFAULT_255_1_388
10
6.3681473
20
5.2241495
40
1.3642984
50
171.4523743
51
180.3158856
0
ARC
8
DEFAULT_255_1_388
10
5.87372
20
5.3010895
40
0.8639311
50
157.9802296
51
171.6246761
0
ARC
8
DEFAULT_255_1_388
10
5.624655
20
5.4004038
40
0.5958004
50
141.4299236
51
157.8541251
0
ARC
8
DEFAULT_255_1_388
10
5.5524634
20
5.4514746
40
0.5075416
50
102.871586
51
140.8564533
0
ARC
8
DEFAULT_255_1_388
10
5.6253187
20
5.1769943
40
0.7914163
50
90.377773
51
103.5868422
0
ARC
8
DEFAULT_255_1_388
10
5.4297708
20
5.1089543
40
0.2667015
50
89.8751238
51
126.2072139
0
ARC
8
DEFAULT_255_1_388
10
5.4349179
20
5.0915847
40
0.2838229
50
124.9742447
51
144.8960197
0
ARC
8
DEFAULT_255_1_388
10
5.4151424
20
5.1076981
40
0.2583845
50
145.2974778
51
160.2660922
0
ARC
8
DEFAULT_255_1_388
10
5.7607912
20
5.1299151
40
0.5888695
50
179.6512124
51
190.285571
0
ARC
8
DEFAULT_255_1_388
10
5.5702392
20
5.0939968
40
0.3949683
50
190.0944895
51
207.5099647
0
ARC
8
DEFAULT_255_1_388
10
5.5065973
20
5.0637177
40
0.3245464
50
207.9585471
51
216.325377
0
ARC
8
DEFAULT_255_1_388
10
5.4683611
20
5.0322712
40
0.2751259
50
215.7661336
51
232.5457193
0
ARC
8
DEFAULT_255_1_388
10
5.4252726
20
4.9775273
40
0.2054668
50
232.8005815
51
270.6605497
0
ARC
8
DEFAULT_255_1_388
10
5.4304151
20
5.0184853
40
0.2464268
50
269.3550767
51
288.474612
0
ARC
8
DEFAULT_255_1_388
10
5.4408658
20
4.9791721
40
0.2058436
50
289.1831976
51
322.9685307
0
ARC
8
DEFAULT_255_1_388
10
5.3720759
20
5.0334279
40
0.2934408
50
322.6007085
51
346.5183319
0
ARC
8
DEFAULT_255_1_388
10
5.2418516
20
5.0666434
40
0.4278249
50
346.2584622
51
358.7739592
0
ARC
8
DEFAULT_255_1_388
10
5.1267091
20
5.0728829
40
0.5430876
50
358.3757628
51
0.0082477
0
ARC
8
DEFAULT_255_1_388
10
5.2123909
20
5.0759856
40
0.4574157
50
359.6211417
51
11.28403
0
ARC
8
DEFAULT_255_1_388
10
5.3560516
20
5.1059535
40
0.3106708
50
11.0483152
51
31.8145585
0
ARC
8
DEFAULT_255_1_388
10
5.3908221
20
5.1248045
40
0.2711963
50
32.3028554
51
38.0820598
0
ARC
8
DEFAULT_255_1_388
10
5.4381454
20
5.1676717
40
0.2075566
50
36.8249851
51
85.741667
0
ARC
8
DEFAULT_255_1_388
10
5.4305866
20
5.1113065
40
0.2643487
50
85.0150021
51
90.050843
0
LINE
8
DEFAULT_255_1_388
10
4.5041985
20
13.9113148
11
4.5041985
21
12.5894
0
LINE
8
DEFAULT_255_1_388
10
4.5041985
20
12.5894
11
4.3361355
21
12.5894
0
LINE
8
DEFAULT_255_1_388
10
4.3361355
20
12.5894
11
4.3361355
21
13.703495
0
LINE
8
DEFAULT_255_1_388
10
4.3361355
20
13.703495
11
3.999106
21
13.5797066
0
LINE
8
DEFAULT_255_1_388
10
3.999106
20
13.5797066
11
3.999106
21
13.7315055
0
LINE
8
DEFAULT_255_1_388
10
3.999106
20
13.7315055
11
4.4779951
21
13.9113148
0
LINE
8
DEFAULT_255_1_388
10
4.4779951
20
13.9113148
11
4.5041985
21
13.9113148
0
LINE
8
DEFAULT_255_1_388
10
5.2044609
20
13.2146666
11
5.0707334
21
13.2490021
0
LINE
8
DEFAULT_255_1_388
10
5.0707334
20
13.2490021
11
5.1375972
21
13.9049898
0
LINE
8
DEFAULT_255_1_388
10
5.1375972
20
13.9049898
11
5.8116562
21
13.9049898
0
LINE
8
DEFAULT_255_1_388
10
5.8116562
20
13.9049898
11
5.8116562
21
13.7504803
0
LINE
8
DEFAULT_255_1_388
10
5.8116562
20
13.7504803
11
5.2794568
21
13.7504803
0
LINE
8
DEFAULT_255_1_388
10
5.2794568
20
13.7504803
11
5.2397
21
13.3917652
0
LINE
8
DEFAULT_255_1_388
10
5.023748
20
12.9354652
11
5.1818718
21
12.9354652
0
LINE
8
DEFAULT_255_1_388
10
5.2487356
20
13.2508092
11
5.2044609
21
13.2146666
0
ARC
8
DEFAULT_255_1_388
10
5.4483613
20
13.0340241
40
0.4141476
50
93.7181681
51
120.253934
0
ARC
8
DEFAULT_255_1_388
10
5.4589665
20
12.9431284
40
0.5055616
50
89.9660471
51
94.2495185
0
ARC
8
DEFAULT_255_1_388
10
5.4635487
20
13.0094154
40
0.4392953
50
73.8045384
51
90.5585736
0
ARC
8
DEFAULT_255_1_388
10
5.4899745
20
13.105952
40
0.3392225
50
41.3071072
51
73.543002
0
ARC
8
DEFAULT_255_1_388
10
5.4431565
20
13.0656461
40
0.4009977
50
13.5075837
51
41.2174839
0
ARC
8
DEFAULT_255_1_388
10
5.2584662
20
13.0172907
40
0.5918864
50
1.1330171
51
13.8830737
0
ARC
8
DEFAULT_255_1_388
10
5.0988308
20
13.0087522
40
0.7516787
50
359.9925091
51
1.5431298
0
ARC
8
DEFAULT_255_1_388
10
5.2432923
20
13.0041027
40
0.6072343
50
347.8572712
51
0.4294349
0
ARC
8
DEFAULT_255_1_388
10
5.4402058
20
12.9594898
40
0.4053482
50
323.6727442
51
348.1674594
0
ARC
8
DEFAULT_255_1_388
10
5.4733022
20
12.9393175
40
0.3667495
50
316.8171818
51
323.1486802
0
ARC
8
DEFAULT_255_1_388
10
5.4802146
20
12.9351612
40
0.358869
50
281.839603
51
316.5458142
0
ARC
8
DEFAULT_255_1_388
10
5.4379434
20
13.1101363
40
0.5388223
50
269.5770964
51
282.4214641
0
ARC
8
DEFAULT_255_1_388
10
5.4299354
20
13.086093
40
0.5147801
50
256.2425863
51
270.4486481
0
ARC
8
DEFAULT_255_1_388
10
5.3962882
20
12.9511124
40
0.3756708
50
228.9024379
51
256.33135
0
ARC
8
DEFAULT_255_1_388
10
5.3879862
20
12.9380054
40
0.360344
50
193.7536029
51
228.5272638
0
ARC
8
DEFAULT_255_1_388
10
5.5272427
20
12.9788463
40
0.5053599
50
184.9244437
51
194.4976052
0
ARC
8
DEFAULT_255_1_388
10
5.5489068
20
12.9828722
40
0.3700839
50
187.3596909
51
198.6733728
0
ARC
8
DEFAULT_255_1_388
10
5.4308312
20
12.9419373
40
0.2451195
50
198.4453795
51
217.7945479
0
ARC
8
DEFAULT_255_1_388
10
5.3975484
20
12.9183563
40
0.2043754
50
218.2887146
51
228.5613203
0
ARC
8
DEFAULT_255_1_388
10
5.4085491
20
12.9331902
40
0.2227819
50
228.9652423
51
258.1237049
0
ARC
8
DEFAULT_255_1_388
10
5.4316929
20
13.0322964
40
0.3245374
50
257.7260585
51
270.4013717
0
ARC
8
DEFAULT_255_1_388
10
5.4367427
20
12.9822255
40
0.2744726
50
269.4204315
51
286.420998
0
ARC
8
DEFAULT_255_1_388
10
5.4534482
20
12.9215705
40
0.2115721
50
286.7250065
51
320.6004665
0
ARC
8
DEFAULT_255_1_388
10
5.4103398
20
12.9565527
40
0.2670878
50
320.6712228
51
344.5440474
0
ARC
8
DEFAULT_255_1_388
10
5.2802112
20
12.9947394
40
0.4026927
50
344.241448
51
356.735803
0
ARC
8
DEFAULT_255_1_388
10
5.1398419
20
13.0063656
40
0.5435085
50
356.3547471
51
0.0507222
0
ARC
8
DEFAULT_255_1_388
10
5.2900684
20
13.0098812
40
0.3932934
50
359.5579289
51
12.9534322
0
ARC
8
DEFAULT_255_1_388
10
5.4087524
20
13.0386586
40
0.2711827
50
12.6489751
51
41.608121
0
ARC
8
DEFAULT_255_1_388
10
5.4346684
20
13.0606946
40
0.2371737
50
41.7851122
51
85.9892156
0
ARC
8
DEFAULT_255_1_388
10
5.4207994
20
12.9691738
40
0.3295244
50
84.6965848
51
90.0672125
0
ARC
8
DEFAULT_255_1_388
10
5.4181561
20
12.8940118
40
0.4046926
50
89.6804991
51
99.161352
0
ARC
8
DEFAULT_255_1_388
10
5.3950571
20
13.0320848
40
0.2647044
50
98.9836248
51
113.8905702
0
ARC
8
DEFAULT_255_1_388
10
5.3692246
20
13.0930118
40
0.1985386
50
114.195234
51
127.3641866
0
LINE
8
DEFAULT_255_1_388
10
4.1335024
20
21.8424898
11
4.3575864
21
21.8424898
0
LINE
8
DEFAULT_255_1_388
10
4.3575864
20
21.8424898
11
4.7876831
21
20.7690553
0
LINE
8
DEFAULT_255_1_388
10
4.7876831
20
20.7690553
11
5.2177797
21
21.8424898
0
LINE
8
DEFAULT_255_1_388
10
5.2177797
20
21.8424898
11
5.4427673
21
21.8424898
0
LINE
8
DEFAULT_255_1_388
10
5.4427673
20
21.8424898
11
5.4427673
21
20.5269
0
LINE
8
DEFAULT_255_1_388
10
5.4427673
20
20.5269
11
5.2692829
21
20.5269
0
LINE
8
DEFAULT_255_1_388
10
5.2692829
20
20.5269
11
5.2692829
21
21.039221
0
LINE
8
DEFAULT_255_1_388
10
5.2692829
20
21.039221
11
5.2855471
21
21.5922025
0
LINE
8
DEFAULT_255_1_388
10
5.2855471
20
21.5922025
11
4.8536433
21
20.5269
0
LINE
8
DEFAULT_255_1_388
10
4.8536433
20
20.5269
11
4.7208193
21
20.5269
0
LINE
8
DEFAULT_255_1_388
10
4.7208193
20
20.5269
11
4.289819
21
21.5894918
0
LINE
8
DEFAULT_255_1_388
10
4.289819
20
21.5894918
11
4.3069868
21
21.039221
0
LINE
8
DEFAULT_255_1_388
10
4.3069868
20
21.039221
11
4.3069868
21
20.5269
0
LINE
8
DEFAULT_255_1_388
10
4.3069868
20
20.5269
11
4.1335024
21
20.5269
0
LINE
8
DEFAULT_255_1_388
10
4.1335024
20
20.5269
11
4.1335024
21
21.8424898
0
LINE
8
DEFAULT_255_1_388
10
5.9487634
20
21.1295775
11
5.9487634
21
21.2660157
0
LINE
8
DEFAULT_255_1_388
10
5.9487634
20
21.2660157
11
6.0743588
21
21.2660157
0
LINE
8
DEFAULT_255_1_388
10
5.8602141
20
21.4973282
11
5.6930546
21
21.4973282
0
LINE
8
DEFAULT_255_1_388
10
5.6813083
20
20.8738687
11
5.8493713
21
20.8738687
0
LINE
8
DEFAULT_255_1_388
10
6.0743588
20
21.1295775
11
5.9487634
21
21.1295775
0
ARC
8
DEFAULT_255_1_388
10
6.0710815
20
21.6476922
40
0.3816905
50
270.491971
51
281.8953028
0
ARC
8
DEFAULT_255_1_388
10
6.0982242
20
21.5237199
40
0.2547877
50
281.6690378
51
301.2943765
0
ARC
8
DEFAULT_255_1_388
10
6.1173693
20
21.4886926
40
0.2149197
50
301.7834992
51
311.754567
0
ARC
8
DEFAULT_255_1_388
10
6.1276735
20
21.477265
40
0.1995326
50
311.7325027
51
354.2803031
0
ARC
8
DEFAULT_255_1_388
10
6.045915
20
21.491328
40
0.2823461
50
353.0941646
51
0.1174696
0
ARC
8
DEFAULT_255_1_388
10
5.9940708
20
21.4966874
40
0.3342238
50
359.1804452
51
15.0452323
0
ARC
8
DEFAULT_255_1_388
10
6.1454767
20
21.5408546
40
0.1765747
50
13.957816
51
77.6713812
0
ARC
8
DEFAULT_255_1_388
10
6.1020002
20
21.3850464
40
0.3381982
50
76.111571
51
90.7028736
0
ARC
8
DEFAULT_255_1_388
10
6.0953415
20
21.415825
40
0.3074046
50
89.5321574
51
103.5319393
0
ARC
8
DEFAULT_255_1_388
10
6.0727798
20
21.5057443
40
0.2147041
50
103.2930114
51
133.5619756
0
ARC
8
DEFAULT_255_1_388
10
6.067774
20
21.5124351
40
0.2064084
50
133.8349761
51
173.5343225
0
ARC
8
DEFAULT_255_1_388
10
6.1491397
20
21.4980144
40
0.2889266
50
172.5097183
51
180.1360699
0
ARC
8
DEFAULT_255_1_388
10
6.0421161
20
21.501888
40
0.3490913
50
155.3483706
51
180.7484035
0
ARC
8
DEFAULT_255_1_388
10
6.0366137
20
21.4986519
40
0.3454798
50
131.5745177
51
154.4799474
0
ARC
8
DEFAULT_255_1_388
10
6.0718419
20
21.4630422
40
0.3955058
50
96.9874487
51
131.9690874
0
ARC
8
DEFAULT_255_1_388
10
6.0965312
20
21.3229407
40
0.537622
50
89.8592909
51
97.7827481
0
ARC
8
DEFAULT_255_1_388
10
6.1019421
20
21.293436
40
0.5671399
50
78.3654493
51
90.4132586
0
ARC
8
DEFAULT_255_1_388
10
6.1422062
20
21.4800918
40
0.3762034
50
56.6229818
51
78.6387103
0
ARC
8
DEFAULT_255_1_388
10
6.1663892
20
21.5223846
40
0.3275964
50
47.0254604
51
56.085558
0
ARC
8
DEFAULT_255_1_388
10
6.1686143
20
21.5268189
40
0.3228382
50
10.9207523
51
46.777927
0
ARC
8
DEFAULT_255_1_388
10
6.0151736
20
21.4913401
40
0.4802559
50
359.6364235
51
11.6087615
0
ARC
8
DEFAULT_255_1_388
10
6.2215902
20
21.4896404
40
0.273833
50
332.3549969
51
359.7179765
0
ARC
8
DEFAULT_255_1_388
10
6.1484303
20
21.5243285
40
0.3547505
50
325.2332381
51
332.8746682
0
ARC
8
DEFAULT_255_1_388
10
6.1655886
20
21.5123763
40
0.3338396
50
292.9803892
51
325.2391113
0
ARC
8
DEFAULT_255_1_388
10
6.1345081
20
21.5728679
40
0.4016959
50
292.542178
51
293.6931461
0
ARC
8
DEFAULT_255_1_388
10
6.1788653
20
20.8463036
40
0.372079
50
57.643292
51
72.8626085
0
ARC
8
DEFAULT_255_1_388
10
6.2187488
20
20.9109273
40
0.2961455
50
36.7246661
51
57.4701329
0
ARC
8
DEFAULT_255_1_388
10
6.2174645
20
20.912347
40
0.2963321
50
8.054535
51
36.3561529
0
ARC
8
DEFAULT_255_1_388
10
6.1204317
20
20.8949073
40
0.3948682
50
359.8316595
51
8.5873361
0
ARC
8
DEFAULT_255_1_388
10
6.0781791
20
20.889497
40
0.4371398
50
343.9831631
51
0.557075
0
ARC
8
DEFAULT_255_1_388
10
6.1778841
20
20.8621963
40
0.3337749
50
311.6358204
51
343.7652116
0
ARC
8
DEFAULT_255_1_388
10
6.1353095
20
20.9101955
40
0.3979351
50
279.7829743
51
311.625622
0
ARC
8
DEFAULT_255_1_388
10
6.101423
20
21.0718642
40
0.5630417
50
269.7285092
51
280.3857694
0
ARC
8
DEFAULT_255_1_388
10
6.0944543
20
21.0672241
40
0.5584119
50
256.6827433
51
270.4412869
0
ARC
8
DEFAULT_255_1_388
10
6.0563529
20
20.9114698
40
0.3980715
50
229.4223821
51
256.8554507
0
ARC
8
DEFAULT_255_1_388
10
6.0097083
20
20.8589683
40
0.3278564
50
181.8183354
51
229.6455015
0
ARC
8
DEFAULT_255_1_388
10
6.1266692
20
20.8736825
40
0.4453611
50
179.9760419
51
183.2330638
0
ARC
8
DEFAULT_255_1_388
10
6.1073245
20
20.8713781
40
0.2579652
50
179.4467996
51
196.2871626
0
ARC
8
DEFAULT_255_1_388
10
6.0524698
20
20.8563709
40
0.2011057
50
196.5661293
51
227.7059371
0
ARC
8
DEFAULT_255_1_388
10
6.0709305
20
20.8770155
40
0.2287994
50
227.7653015
51
257.8763321
0
ARC
8
DEFAULT_255_1_388
10
6.0962389
20
20.9830961
40
0.3378385
50
257.4583525
51
270.4267406
0
ARC
8
DEFAULT_255_1_388
10
6.1013638
20
21.015723
40
0.3704652
50
269.5965319
51
280.8788143
0
ARC
8
DEFAULT_255_1_388
10
6.1271866
20
20.8867529
40
0.2389415
50
280.6347277
51
299.8594068
0
ARC
8
DEFAULT_255_1_388
10
6.1486636
20
20.8459736
40
0.19289
50
300.3575552
51
314.5515667
0
ARC
8
DEFAULT_255_1_388
10
6.1393312
20
20.8528025
40
0.204312
50
315.0730962
51
345.0429362
0
ARC
8
DEFAULT_255_1_388
10
6.0354819
20
20.8830539
40
0.31246
50
344.598526
51
357.9270698
0
ARC
8
DEFAULT_255_1_388
10
5.9345124
20
20.8899705
40
0.4136265
50
357.4755098
51
0.0224936
0
ARC
8
DEFAULT_255_1_388
10
6.0498002
20
20.8927099
40
0.2983498
50
359.5051035
51
13.4236939
0
ARC
8
DEFAULT_255_1_388
10
6.1473091
20
20.9176637
40
0.1977186
50
12.9497905
51
48.7550905
0
ARC
8
DEFAULT_255_1_388
10
6.1268013
20
20.8896373
40
0.2323321
50
49.509109
51
72.1832965
0
ARC
8
DEFAULT_255_1_388
10
6.0865482
20
20.7701632
40
0.358397
50
71.9008458
51
84.3555134
0
ARC
8
DEFAULT_255_1_388
10
6.0683876
20
20.6169712
40
0.512641
50
84.019632
51
89.3326067
0
LINE
8
DEFAULT_255_1_388
10
7.1098437
20
21.1539737
11
7.1098437
21
21.0175355
0
LINE
8
DEFAULT_255_1_388
10
7.1098437
20
21.0175355
11
6.6689042
21
21.0175355
0
LINE
8
DEFAULT_255_1_388
10
6.6689042
20
21.0175355
11
6.6689042
21
21.1539737
0
LINE
8
DEFAULT_255_1_388
10
6.6689042
20
21.1539737
11
7.1098437
21
21.1539737
0
LINE
8
DEFAULT_255_1_388
10
3.9970024
20
29.7799898
11
4.2210864
21
29.7799898
0
LINE
8
DEFAULT_255_1_388
10
4.2210864
20
29.7799898
11
4.6511831
21
28.7065553
0
LINE
8
DEFAULT_255_1_388
10
4.6511831
20
28.7065553
11
5.0812797
21
29.7799898
0
LINE
8
DEFAULT_255_1_388
10
5.0812797
20
29.7799898
11
5.3062673
21
29.7799898
0
LINE
8
DEFAULT_255_1_388
10
5.3062673
20
29.7799898
11
5.3062673
21
28.4644
0
LINE
8
DEFAULT_255_1_388
10
5.3062673
20
28.4644
11
5.1327829
21
28.4644
0
LINE
8
DEFAULT_255_1_388
10
5.1327829
20
28.4644
11
5.1327829
21
28.976721
0
LINE
8
DEFAULT_255_1_388
10
5.1327829
20
28.976721
11
5.1490471
21
29.5297025
0
LINE
8
DEFAULT_255_1_388
10
5.1490471
20
29.5297025
11
4.7171433
21
28.4644
0
LINE
8
DEFAULT_255_1_388
10
4.7171433
20
28.4644
11
4.5843193
21
28.4644
0
LINE
8
DEFAULT_255_1_388
10
4.5843193
20
28.4644
11
4.153319
21
29.5269918
0
LINE
8
DEFAULT_255_1_388
10
4.153319
20
29.5269918
11
4.1704868
21
28.976721
0
LINE
8
DEFAULT_255_1_388
10
4.1704868
20
28.976721
11
4.1704868
21
28.4644
0
LINE
8
DEFAULT_255_1_388
10
4.1704868
20
28.4644
11
3.9970024
21
28.4644
0
LINE
8
DEFAULT_255_1_388
10
3.9970024
20
28.4644
11
3.9970024
21
29.7799898
0
LINE
8
DEFAULT_255_1_388
10
5.8122634
20
29.0670775
11
5.8122634
21
29.2035157
0
LINE
8
DEFAULT_255_1_388
10
5.8122634
20
29.2035157
11
5.9378588
21
29.2035157
0
LINE
8
DEFAULT_255_1_388
10
5.7237141
20
29.4348282
11
5.5565546
21
29.4348282
0
LINE
8
DEFAULT_255_1_388
10
5.5448083
20
28.8113687
11
5.7128713
21
28.8113687
0
LINE
8
DEFAULT_255_1_388
10
5.9378588
20
29.0670775
11
5.8122634
21
29.0670775
0
ARC
8
DEFAULT_255_1_388
10
5.9345815
20
29.5851922
40
0.3816905
50
270.491971
51
281.8953028
0
ARC
8
DEFAULT_255_1_388
10
5.9617242
20
29.4612199
40
0.2547877
50
281.6690378
51
301.2943765
0
ARC
8
DEFAULT_255_1_388
10
5.9808693
20
29.4261926
40
0.2149197
50
301.7834992
51
311.754567
0
ARC
8
DEFAULT_255_1_388
10
5.9911735
20
29.414765
40
0.1995326
50
311.7325027
51
354.2803031
0
ARC
8
DEFAULT_255_1_388
10
5.909415
20
29.428828
40
0.2823461
50
353.0941646
51
0.1174696
0
ARC
8
DEFAULT_255_1_388
10
5.8575708
20
29.4341874
40
0.3342238
50
359.1804452
51
15.0452323
0
ARC
8
DEFAULT_255_1_388
10
6.0089767
20
29.4783546
40
0.1765747
50
13.957816
51
77.6713812
0
ARC
8
DEFAULT_255_1_388
10
5.9655002
20
29.3225464
40
0.3381982
50
76.111571
51
90.7028736
0
ARC
8
DEFAULT_255_1_388
10
5.9588415
20
29.353325
40
0.3074046
50
89.5321574
51
103.5319393
0
ARC
8
DEFAULT_255_1_388
10
5.9362798
20
29.4432443
40
0.2147041
50
103.2930114
51
133.5619756
0
ARC
8
DEFAULT_255_1_388
10
5.931274
20
29.4499351
40
0.2064084
50
133.8349761
51
173.5343225
0
ARC
8
DEFAULT_255_1_388
10
6.0126397
20
29.4355144
40
0.2889266
50
172.5097183
51
180.1360699
0
ARC
8
DEFAULT_255_1_388
10
5.9056161
20
29.439388
40
0.3490913
50
155.3483706
51
180.7484035
0
ARC
8
DEFAULT_255_1_388
10
5.9001137
20
29.4361519
40
0.3454798
50
131.5745177
51
154.4799474
0
ARC
8
DEFAULT_255_1_388
10
5.9353419
20
29.4005422
40
0.3955058
50
96.9874487
51
131.9690874
0
ARC
8
DEFAULT_255_1_388
10
5.9600312
20
29.2604407
40
0.537622
50
89.8592909
51
97.7827481
0
ARC
8
DEFAULT_255_1_388
10
5.9654421
20
29.230936
40
0.5671399
50
78.3654493
51
90.4132586
0
ARC
8
DEFAULT_255_1_388
10
6.0057062
20
29.4175918
40
0.3762034
50
56.6229818
51
78.6387103
0
ARC
8
DEFAULT_255_1_388
10
6.0298892
20
29.4598846
40
0.3275964
50
47.0254604
51
56.085558
0
ARC
8
DEFAULT_255_1_388
10
6.0321143
20
29.4643189
40
0.3228382
50
10.9207523
51
46.777927
0
ARC
8
DEFAULT_255_1_388
10
5.8786736
20
29.4288401
40
0.4802559
50
359.6364235
51
11.6087615
0
ARC
8
DEFAULT_255_1_388
10
6.0850902
20
29.4271404
40
0.273833
50
332.3549969
51
359.7179765
0
ARC
8
DEFAULT_255_1_388
10
6.0119303
20
29.4618285
40
0.3547505
50
325.2332381
51
332.8746682
0
ARC
8
DEFAULT_255_1_388
10
6.0290886
20
29.4498763
40
0.3338396
50
292.9803892
51
325.2391113
0
ARC
8
DEFAULT_255_1_388
10
5.9980081
20
29.5103679
40
0.4016959
50
292.542178
51
293.6931461
0
ARC
8
DEFAULT_255_1_388
10
6.0423653
20
28.7838036
40
0.372079
50
57.643292
51
72.8626085
0
ARC
8
DEFAULT_255_1_388
10
6.0822488
20
28.8484273
40
0.2961455
50
36.7246661
51
57.4701329
0
ARC
8
DEFAULT_255_1_388
10
6.0809645
20
28.849847
40
0.2963321
50
8.054535
51
36.3561529
0
ARC
8
DEFAULT_255_1_388
10
5.9839317
20
28.8324073
40
0.3948682
50
359.8316595
51
8.5873361
0
ARC
8
DEFAULT_255_1_388
10
5.9416791
20
28.826997
40
0.4371398
50
343.9831631
51
0.557075
0
ARC
8
DEFAULT_255_1_388
10
6.0413841
20
28.7996963
40
0.3337749
50
311.6358204
51
343.7652116
0
ARC
8
DEFAULT_255_1_388
10
5.9988095
20
28.8476955
40
0.3979351
50
279.7829743
51
311.625622
0
ARC
8
DEFAULT_255_1_388
10
5.964923
20
29.0093642
40
0.5630417
50
269.7285092
51
280.3857694
0
ARC
8
DEFAULT_255_1_388
10
5.9579543
20
29.0047241
40
0.5584119
50
256.6827433
51
270.4412869
0
ARC
8
DEFAULT_255_1_388
10
5.9198529
20
28.8489698
40
0.3980715
50
229.4223821
51
256.8554507
0
ARC
8
DEFAULT_255_1_388
10
5.8732083
20
28.7964683
40
0.3278564
50
181.8183354
51
229.6455015
0
ARC
8
DEFAULT_255_1_388
10
5.9901692
20
28.8111825
40
0.4453611
50
179.9760419
51
183.2330638
0
ARC
8
DEFAULT_255_1_388
10
5.9708245
20
28.8088781
40
0.2579652
50
179.4467996
51
196.2871626
0
ARC
8
DEFAULT_255_1_388
10
5.9159698
20
28.7938709
40
0.2011057
50
196.5661293
51
227.7059371
0
ARC
8
DEFAULT_255_1_388
10
5.9344305
20
28.8145155
40
0.2287994
50
227.7653015
51
257.8763321
0
ARC
8
DEFAULT_255_1_388
10
5.9597389
20
28.9205961
40
0.3378385
50
257.4583525
51
270.4267406
0
ARC
8
DEFAULT_255_1_388
10
5.9648638
20
28.953223
40
0.3704652
50
269.5965319
51
280.8788143
0
ARC
8
DEFAULT_255_1_388
10
5.9906866
20
28.8242529
40
0.2389415
50
280.6347277
51
299.8594068
0
ARC
8
DEFAULT_255_1_388
10
6.0121636
20
28.7834736
40
0.19289
50
300.3575552
51
314.5515667
0
ARC
8
DEFAULT_255_1_388
10
6.0028312
20
28.7903025
40
0.204312
50
315.0730962
51
345.0429362
0
ARC
8
DEFAULT_255_1_388
10
5.8989819
20
28.8205539
40
0.31246
50
344.598526
51
357.9270698
0
ARC
8
DEFAULT_255_1_388
10
5.7980124
20
28.8274705
40
0.4136265
50
357.4755098
51
0.0224936
0
ARC
8
DEFAULT_255_1_388
10
5.9133002
20
28.8302099
40
0.2983498
50
359.5051035
51
13.4236939
0
ARC
8
DEFAULT_255_1_388
10
6.0108091
20
28.8551637
40
0.1977186
50
12.9497905
51
48.7550905
0
ARC
8
DEFAULT_255_1_388
10
5.9903013
20
28.8271373
40
0.2323321
50
49.509109
51
72.1832965
0
ARC
8
DEFAULT_255_1_388
10
5.9500482
20
28.7076632
40
0.358397
50
71.9008458
51
84.3555134
0
ARC
8
DEFAULT_255_1_388
10
5.9318876
20
28.5544712
40
0.512641
50
84.019632
51
89.3326067
0
LINE
8
DEFAULT_255_1_388
10
7.1043605
20
29.5540987
11
7.1043605
21
29.1700838
0
LINE
8
DEFAULT_255_1_388
10
7.1043605
20
29.1700838
11
7.4712077
21
29.1700838
0
LINE
8
DEFAULT_255_1_388
10
7.4712077
20
29.1700838
11
7.4712077
21
29.0119601
0
LINE
8
DEFAULT_255_1_388
10
7.4712077
20
29.0119601
11
7.1043605
21
29.0119601
0
LINE
8
DEFAULT_255_1_388
10
7.1043605
20
29.0119601
11
7.1043605
21
28.5963204
0
LINE
8
DEFAULT_255_1_388
10
7.1043605
20
28.5963204
11
6.9362976
21
28.5963204
0
LINE
8
DEFAULT_255_1_388
10
6.9362976
20
28.5963204
11
6.9362976
21
29.0119601
0
LINE
8
DEFAULT_255_1_388
10
6.9362976
20
29.0119601
11
6.5694504
21
29.0119601
0
LINE
8
DEFAULT_255_1_388
10
6.5694504
20
29.0119601
11
6.5694504
21
29.1700838
0
LINE
8
DEFAULT_255_1_388
10
6.5694504
20
29.1700838
11
6.9362976
21
29.1700838
0
LINE
8
DEFAULT_255_1_388
10
6.9362976
20
29.1700838
11
6.9362976
21
29.5540987
0
LINE
8
DEFAULT_255_1_388
10
6.9362976
20
29.5540987
11
7.1043605
21
29.5540987
0
LINE
8
DEFAULT_255_1_388
10
4.5041985
20
37.7238148
11
4.5041985
21
36.4019
0
LINE
8
DEFAULT_255_1_388
10
4.5041985
20
36.4019
11
4.3361355
21
36.4019
0
LINE
8
DEFAULT_255_1_388
10
4.3361355
20
36.4019
11
4.3361355
21
37.515995
0
LINE
8
DEFAULT_255_1_388
10
4.3361355
20
37.515995
11
3.999106
21
37.3922066
0
LINE
8
DEFAULT_255_1_388
10
3.999106
20
37.3922066
11
3.999106
21
37.5440055
0
LINE
8
DEFAULT_255_1_388
10
3.999106
20
37.5440055
11
4.4779951
21
37.7238148
0
LINE
8
DEFAULT_255_1_388
10
4.4779951
20
37.7238148
11
4.5041985
21
37.7238148
0
LINE
8
DEFAULT_255_1_388
10
5.8559309
20
36.5383382
11
5.8559309
21
36.4019
0
LINE
8
DEFAULT_255_1_388
10
5.8559309
20
36.4019
11
4.9939304
21
36.4019
0
LINE
8
DEFAULT_255_1_388
10
4.9939304
20
36.4019
11
4.9939304
21
36.5220741
0
LINE
8
DEFAULT_255_1_388
10
4.9939304
20
36.5220741
11
5.4493269
21
37.0280702
0
LINE
8
DEFAULT_255_1_388
10
5.13579
20
37.3298607
11
4.9686306
21
37.3298607
0
LINE
8
DEFAULT_255_1_388
10
5.5478154
20
36.920546
11
5.1954253
21
36.5383382
0
LINE
8
DEFAULT_255_1_388
10
5.1954253
20
36.5383382
11
5.8559309
21
36.5383382
0
ARC
8
DEFAULT_255_1_388
10
3.9317329
20
38.3700983
40
2.0258655
50
318.5132526
51
320.7829045
0
ARC
8
DEFAULT_255_1_388
10
4.5265286
20
37.8859929
40
1.2589638
50
320.7372878
51
323.9739031
0
ARC
8
DEFAULT_255_1_388
10
4.9674217
20
37.5665554
40
0.7145141
50
323.8962701
51
328.64194
0
ARC
8
DEFAULT_255_1_388
10
5.1976475
20
37.4245545
40
0.4440242
50
328.8294576
51
331.7891185
0
ARC
8
DEFAULT_255_1_388
10
5.3098795
20
37.3666374
40
0.3177517
50
331.4254512
51
352.9365785
0
ARC
8
DEFAULT_255_1_388
10
5.3251795
20
37.363205
40
0.3021496
50
353.2257659
51
0.0166158
0
ARC
8
DEFAULT_255_1_388
10
5.3488555
20
37.3657894
40
0.2784847
50
359.486299
51
15.9343185
0
ARC
8
DEFAULT_255_1_388
10
5.4058822
20
37.3811269
40
0.2194403
50
16.1712913
51
43.5286088
0
ARC
8
DEFAULT_255_1_388
10
5.4145767
20
37.3898191
40
0.2071504
50
43.4417391
51
83.1661095
0
ARC
8
DEFAULT_255_1_388
10
5.3994928
20
37.3069316
40
0.2912888
50
82.160179
51
90.1505708
0
ARC
8
DEFAULT_255_1_388
10
5.395941
20
37.2465279
40
0.3517025
50
89.5460741
51
102.5418361
0
ARC
8
DEFAULT_255_1_388
10
5.368613
20
37.3624933
40
0.2325748
50
102.1738499
51
129.206123
0
ARC
8
DEFAULT_255_1_388
10
5.3597583
20
37.3764664
40
0.2161591
50
129.72865
51
135.753947
0
ARC
8
DEFAULT_255_1_388
10
5.3734065
20
37.3655728
40
0.2335433
50
136.1757367
51
166.3673339
0
ARC
8
DEFAULT_255_1_388
10
5.4866754
20
37.3352148
40
0.3507873
50
165.9090694
51
178.8684636
0
ARC
8
DEFAULT_255_1_388
10
5.5842525
20
37.3299263
40
0.4484624
50
178.4391136
51
180.0083808
0
ARC
8
DEFAULT_255_1_388
10
5.4263227
20
37.3343197
40
0.4577138
50
163.2878482
51
180.5581842
0
ARC
8
DEFAULT_255_1_388
10
5.3361268
20
37.3591393
40
0.3641968
50
133.4540601
51
162.947111
0
ARC
8
DEFAULT_255_1_388
10
5.3562149
20
37.3377789
40
0.3935189
50
100.7869829
51
133.4382499
0
ARC
8
DEFAULT_255_1_388
10
5.3953394
20
37.1635399
40
0.5720313
50
89.660664
51
101.3702276
0
ARC
8
DEFAULT_255_1_388
10
5.4028003
20
37.1704263
40
0.5651495
50
78.2172678
51
90.412935
0
ARC
8
DEFAULT_255_1_388
10
5.4427469
20
37.3531511
40
0.378122
50
55.9269121
51
78.4888449
0
ARC
8
DEFAULT_255_1_388
10
5.4648184
20
37.3912187
40
0.3342379
50
47.929771
51
55.4049217
0
ARC
8
DEFAULT_255_1_388
10
5.4762715
20
37.4028618
40
0.3179217
50
4.334829
51
48.0560205
0
ARC
8
DEFAULT_255_1_388
10
5.3530516
20
37.3837487
40
0.442341
50
359.9251713
51
5.5971671
0
ARC
8
DEFAULT_255_1_388
10
5.4012671
20
37.3900728
40
0.3941854
50
337.8914027
51
358.9967534
0
ARC
8
DEFAULT_255_1_388
10
5.0960241
20
37.5078295
40
0.7213271
50
326.9132501
51
338.3508308
0
ARC
8
DEFAULT_255_1_388
10
4.6476353
20
37.7952105
40
1.2538973
50
319.6471833
51
327.0959558
0
ARC
8
DEFAULT_255_1_388
10
4.2163011
20
38.151005
40
1.8129975
50
317.2588228
51
319.9045804
0
LINE
8
DEFAULT_255_1_388
10
4.4967985
20
45.6613148
11
4.4967985
21
44.3394
0
LINE
8
DEFAULT_255_1_388
10
4.4967985
20
44.3394
11
4.3287355
21
44.3394
0
LINE
8
DEFAULT_255_1_388
10
4.3287355
20
44.3394
11
4.3287355
21
45.453495
0
LINE
8
DEFAULT_255_1_388
10
4.3287355
20
45.453495
11
3.991706
21
45.3297066
0
LINE
8
DEFAULT_255_1_388
10
3.991706
20
45.3297066
11
3.991706
21
45.4815055
0
LINE
8
DEFAULT_255_1_388
10
3.991706
20
45.4815055
11
4.4705951
21
45.6613148
0
LINE
8
DEFAULT_255_1_388
10
4.4705951
20
45.6613148
11
4.4967985
21
45.6613148
0
LINE
8
DEFAULT_255_1_388
10
5.5358976
20
45.6613148
11
5.5358976
21
44.3394
0
LINE
8
DEFAULT_255_1_388
10
5.5358976
20
44.3394
11
5.3678346
21
44.3394
0
LINE
8
DEFAULT_255_1_388
10
5.3678346
20
44.3394
11
5.3678346
21
45.453495
0
LINE
8
DEFAULT_255_1_388
10
5.3678346
20
45.453495
11
5.0308051
21
45.3297066
0
LINE
8
DEFAULT_255_1_388
10
5.0308051
20
45.3297066
11
5.0308051
21
45.4815055
0
LINE
8
DEFAULT_255_1_388
10
5.0308051
20
45.4815055
11
5.5096942
21
45.6613148
0
LINE
8
DEFAULT_255_1_388
10
5.5096942
20
45.6613148
11
5.5358976
21
45.6613148
0
LINE
8
DEFAULT_255_1_388
10
4.1335024
20
53.5924898
11
4.3575864
21
53.5924898
0
LINE
8
DEFAULT_255_1_388
10
4.3575864
20
53.5924898
11
4.7876831
21
52.5190553
0
LINE
8
DEFAULT_255_1_388
10
4.7876831
20
52.5190553
11
5.2177797
21
53.5924898
0
LINE
8
DEFAULT_255_1_388
10
5.2177797
20
53.5924898
11
5.4427673
21
53.5924898
0
LINE
8
DEFAULT_255_1_388
10
5.4427673
20
53.5924898
11
5.4427673
21
52.2769
0
LINE
8
DEFAULT_255_1_388
10
5.4427673
20
52.2769
11
5.2692829
21
52.2769
0
LINE
8
DEFAULT_255_1_388
10
5.2692829
20
52.2769
11
5.2692829
21
52.789221
0
LINE
8
DEFAULT_255_1_388
10
5.2692829
20
52.789221
11
5.2855471
21
53.3422025
0
LINE
8
DEFAULT_255_1_388
10
5.2855471
20
53.3422025
11
4.8536433
21
52.2769
0
LINE
8
DEFAULT_255_1_388
10
4.8536433
20
52.2769
11
4.7208193
21
52.2769
0
LINE
8
DEFAULT_255_1_388
10
4.7208193
20
52.2769
11
4.289819
21
53.3394918
0
LINE
8
DEFAULT_255_1_388
10
4.289819
20
53.3394918
11
4.3069868
21
52.789221
0
LINE
8
DEFAULT_255_1_388
10
4.3069868
20
52.789221
11
4.3069868
21
52.2769
0
LINE
8
DEFAULT_255_1_388
10
4.3069868
20
52.2769
11
4.1335024
21
52.2769
0
LINE
8
DEFAULT_255_1_388
10
4.1335024
20
52.2769
11
4.1335024
21
53.5924898
0
LINE
8
DEFAULT_255_1_388
10
6.567705
20
52.4133382
11
6.567705
21
52.2769
0
LINE
8
DEFAULT_255_1_388
10
6.567705
20
52.2769
11
5.7057045
21
52.2769
0
LINE
8
DEFAULT_255_1_388
10
5.7057045
20
52.2769
11
5.7057045
21
52.3970741
0
LINE
8
DEFAULT_255_1_388
10
5.7057045
20
52.3970741
11
6.161101
21
52.9030702
0
LINE
8
DEFAULT_255_1_388
10
5.8475642
20
53.2048607
11
5.6804047
21
53.2048607
0
LINE
8
DEFAULT_255_1_388
10
6.2595896
20
52.795546
11
5.9071994
21
52.4133382
0
LINE
8
DEFAULT_255_1_388
10
5.9071994
20
52.4133382
11
6.567705
21
52.4133382
0
ARC
8
DEFAULT_255_1_388
10
4.643507
20
54.2450983
40
2.0258655
50
318.5132526
51
320.7829045
0
ARC
8
DEFAULT_255_1_388
10
5.2383027
20
53.7609929
40
1.2589638
50
320.7372878
51
323.9739031
0
ARC
8
DEFAULT_255_1_388
10
5.6791958
20
53.4415554
40
0.7145141
50
323.8962701
51
328.64194
0
ARC
8
DEFAULT_255_1_388
10
5.9094216
20
53.2995545
40
0.4440242
50
328.8294576
51
331.7891185
0
ARC
8
DEFAULT_255_1_388
10
6.0216536
20
53.2416374
40
0.3177517
50
331.4254512
51
352.9365785
0
ARC
8
DEFAULT_255_1_388
10
6.0369536
20
53.238205
40
0.3021496
50
353.2257659
51
0.0166158
0
ARC
8
DEFAULT_255_1_388
10
6.0606297
20
53.2407894
40
0.2784847
50
359.486299
51
15.9343185
0
ARC
8
DEFAULT_255_1_388
10
6.1176563
20
53.2561269
40
0.2194403
50
16.1712913
51
43.5286088
0
ARC
8
DEFAULT_255_1_388
10
6.1263508
20
53.2648191
40
0.2071504
50
43.4417391
51
83.1661095
0
ARC
8
DEFAULT_255_1_388
10
6.1112669
20
53.1819316
40
0.2912888
50
82.160179
51
90.1505708
0
ARC
8
DEFAULT_255_1_388
10
6.1077151
20
53.1215279
40
0.3517025
50
89.5460741
51
102.5418361
0
ARC
8
DEFAULT_255_1_388
10
6.0803871
20
53.2374933
40
0.2325748
50
102.1738499
51
129.206123
0
ARC
8
DEFAULT_255_1_388
10
6.0715324
20
53.2514664
40
0.2161591
50
129.72865
51
135.753947
0
ARC
8
DEFAULT_255_1_388
10
6.0851806
20
53.2405728
40
0.2335433
50
136.1757367
51
166.3673339
0
ARC
8
DEFAULT_255_1_388
10
6.1984495
20
53.2102148
40
0.3507873
50
165.9090694
51
178.8684636
0
ARC
8
DEFAULT_255_1_388
10
6.2960266
20
53.2049263
40
0.4484624
50
178.4391136
51
180.0083808
0
ARC
8
DEFAULT_255_1_388
10
6.1380968
20
53.2093197
40
0.4577138
50
163.2878482
51
180.5581842
0
ARC
8
DEFAULT_255_1_388
10
6.0479009
20
53.2341393
40
0.3641968
50
133.4540601
51
162.947111
0
ARC
8
DEFAULT_255_1_388
10
6.0679891
20
53.2127789
40
0.3935189
50
100.7869829
51
133.4382499
0
ARC
8
DEFAULT_255_1_388
10
6.1071136
20
53.0385399
40
0.5720313
50
89.660664
51
101.3702276
0
ARC
8
DEFAULT_255_1_388
10
6.1145745
20
53.0454263
40
0.5651495
50
78.2172678
51
90.412935
0
ARC
8
DEFAULT_255_1_388
10
6.154521
20
53.2281511
40
0.378122
50
55.9269121
51
78.4888449
0
ARC
8
DEFAULT_255_1_388
10
6.1765925
20
53.2662187
40
0.3342379
50
47.929771
51
55.4049217
0
ARC
8
DEFAULT_255_1_388
10
6.1880456
20
53.2778618
40
0.3179217
50
4.334829
51
48.0560205
0
ARC
8
DEFAULT_255_1_388
10
6.0648257
20
53.2587487
40
0.442341
50
359.9251713
51
5.5971671
0
ARC
8
DEFAULT_255_1_388
10
6.1130412
20
53.2650728
40
0.3941854
50
337.8914027
51
358.9967534
0
ARC
8
DEFAULT_255_1_388
10
5.8077982
20
53.3828295
40
0.7213271
50
326.9132501
51
338.3508308
0
ARC
8
DEFAULT_255_1_388
10
5.3594094
20
53.6702105
40
1.2538973
50
319.6471833
51
327.0959558
0
ARC
8
DEFAULT_255_1_388
10
4.9280752
20
54.026005
40
1.8129975
50
317.2588228
51
319.9045804
0
LINE
8
DEFAULT_255_1_388
10
7.1098437
20
52.9039737
11
7.1098437
21
52.7675355
0
LINE
8
DEFAULT_255_1_388
10
7.1098437
20
52.7675355
11
6.6689042
21
52.7675355
0
LINE
8
DEFAULT_255_1_388
10
6.6689042
20
52.7675355
11
6.6689042
21
52.9039737
0
LINE
8
DEFAULT_255_1_388
10
6.6689042
20
52.9039737
11
7.1098437
21
52.9039737
0
LINE
8
DEFAULT_255_1_388
10
3.9970024
20
61.5299898
11
4.2210864
21
61.5299898
0
LINE
8
DEFAULT_255_1_388
10
4.2210864
20
61.5299898
11
4.6511831
21
60.4565553
0
LINE
8
DEFAULT_255_1_388
10
4.6511831
20
60.4565553
11
5.0812797
21
61.5299898
0
LINE
8
DEFAULT_255_1_388
10
5.0812797
20
61.5299898
11
5.3062673
21
61.5299898
0
LINE
8
DEFAULT_255_1_388
10
5.3062673
20
61.5299898
11
5.3062673
21
60.2144
0
LINE
8
DEFAULT_255_1_388
10
5.3062673
20
60.2144
11
5.1327829
21
60.2144
0
LINE
8
DEFAULT_255_1_388
10
5.1327829
20
60.2144
11
5.1327829
21
60.726721
0
LINE
8
DEFAULT_255_1_388
10
5.1327829
20
60.726721
11
5.1490471
21
61.2797025
0
LINE
8
DEFAULT_255_1_388
10
5.1490471
20
61.2797025
11
4.7171433
21
60.2144
0
LINE
8
DEFAULT_255_1_388
10
4.7171433
20
60.2144
11
4.5843193
21
60.2144
0
LINE
8
DEFAULT_255_1_388
10
4.5843193
20
60.2144
11
4.153319
21
61.2769918
0
LINE
8
DEFAULT_255_1_388
10
4.153319
20
61.2769918
11
4.1704868
21
60.726721
0
LINE
8
DEFAULT_255_1_388
10
4.1704868
20
60.726721
11
4.1704868
21
60.2144
0
LINE
8
DEFAULT_255_1_388
10
4.1704868
20
60.2144
11
3.9970024
21
60.2144
0
LINE
8
DEFAULT_255_1_388
10
3.9970024
20
60.2144
11
3.9970024
21
61.5299898
0
LINE
8
DEFAULT_255_1_388
10
6.431205
20
60.3508382
11
6.431205
21
60.2144
0
LINE
8
DEFAULT_255_1_388
10
6.431205
20
60.2144
11
5.5692045
21
60.2144
0
LINE
8
DEFAULT_255_1_388
10
5.5692045
20
60.2144
11
5.5692045
21
60.3345741
0
LINE
8
DEFAULT_255_1_388
10
5.5692045
20
60.3345741
11
6.024601
21
60.8405702
0
LINE
8
DEFAULT_255_1_388
10
5.7110642
20
61.1423607
11
5.5439047
21
61.1423607
0
LINE
8
DEFAULT_255_1_388
10
6.1230896
20
60.733046
11
5.7706994
21
60.3508382
0
LINE
8
DEFAULT_255_1_388
10
5.7706994
20
60.3508382
11
6.431205
21
60.3508382
0
ARC
8
DEFAULT_255_1_388
10
4.507007
20
62.1825983
40
2.0258655
50
318.5132526
51
320.7829045
0
ARC
8
DEFAULT_255_1_388
10
5.1018027
20
61.6984929
40
1.2589638
50
320.7372878
51
323.9739031
0
ARC
8
DEFAULT_255_1_388
10
5.5426958
20
61.3790554
40
0.7145141
50
323.8962701
51
328.64194
0
ARC
8
DEFAULT_255_1_388
10
5.7729216
20
61.2370545
40
0.4440242
50
328.8294576
51
331.7891185
0
ARC
8
DEFAULT_255_1_388
10
5.8851536
20
61.1791374
40
0.3177517
50
331.4254512
51
352.9365785
0
ARC
8
DEFAULT_255_1_388
10
5.9004536
20
61.175705
40
0.3021496
50
353.2257659
51
0.0166158
0
ARC
8
DEFAULT_255_1_388
10
5.9241297
20
61.1782894
40
0.2784847
50
359.486299
51
15.9343185
0
ARC
8
DEFAULT_255_1_388
10
5.9811563
20
61.1936269
40
0.2194403
50
16.1712913
51
43.5286088
0
ARC
8
DEFAULT_255_1_388
10
5.9898508
20
61.2023191
40
0.2071504
50
43.4417391
51
83.1661095
0
ARC
8
DEFAULT_255_1_388
10
5.9747669
20
61.1194316
40
0.2912888
50
82.160179
51
90.1505708
0
ARC
8
DEFAULT_255_1_388
10
5.9712151
20
61.0590279
40
0.3517025
50
89.5460741
51
102.5418361
0
ARC
8
DEFAULT_255_1_388
10
5.9438871
20
61.1749933
40
0.2325748
50
102.1738499
51
129.206123
0
ARC
8
DEFAULT_255_1_388
10
5.9350324
20
61.1889664
40
0.2161591
50
129.72865
51
135.753947
0
ARC
8
DEFAULT_255_1_388
10
5.9486806
20
61.1780728
40
0.2335433
50
136.1757367
51
166.3673339
0
ARC
8
DEFAULT_255_1_388
10
6.0619495
20
61.1477148
40
0.3507873
50
165.9090694
51
178.8684636
0
ARC
8
DEFAULT_255_1_388
10
6.1595266
20
61.1424263
40
0.4484624
50
178.4391136
51
180.0083808
0
ARC
8
DEFAULT_255_1_388
10
6.0015968
20
61.1468197
40
0.4577138
50
163.2878482
51
180.5581842
0
ARC
8
DEFAULT_255_1_388
10
5.9114009
20
61.1716393
40
0.3641968
50
133.4540601
51
162.947111
0
ARC
8
DEFAULT_255_1_388
10
5.9314891
20
61.1502789
40
0.3935189
50
100.7869829
51
133.4382499
0
ARC
8
DEFAULT_255_1_388
10
5.9706136
20
60.9760399
40
0.5720313
50
89.660664
51
101.3702276
0
ARC
8
DEFAULT_255_1_388
10
5.9780745
20
60.9829263
40
0.5651495
50
78.2172678
51
90.412935
0
ARC
8
DEFAULT_255_1_388
10
6.018021
20
61.1656511
40
0.378122
50
55.9269121
51
78.4888449
0
ARC
8
DEFAULT_255_1_388
10
6.0400925
20
61.2037187
40
0.3342379
50
47.929771
51
55.4049217
0
ARC
8
DEFAULT_255_1_388
10
6.0515456
20
61.2153618
40
0.3179217
50
4.334829
51
48.0560205
0
ARC
8
DEFAULT_255_1_388
10
5.9283257
20
61.1962487
40
0.442341
50
359.9251713
51
5.5971671
0
ARC
8
DEFAULT_255_1_388
10
5.9765412
20
61.2025728
40
0.3941854
50
337.8914027
51
358.9967534
0
ARC
8
DEFAULT_255_1_388
10
5.6712982
20
61.3203295
40
0.7213271
50
326.9132501
51
338.3508308
0
ARC
8
DEFAULT_255_1_388
10
5.2229094
20
61.6077105
40
1.2538973
50
319.6471833
51
327.0959558
0
ARC
8
DEFAULT_255_1_388
10
4.7915752
20
61.963505
40
1.8129975
50
317.2588228
51
319.9045804
0
LINE
8
DEFAULT_255_1_388
10
7.1043605
20
61.3040987
11
7.1043605
21
60.9200838
0
LINE
8
DEFAULT_255_1_388
10
7.1043605
20
60.9200838
11
7.4712077
21
60.9200838
0
LINE
8
DEFAULT_255_1_388
10
7.4712077
20
60.9200838
11
7.4712077
21
60.7619601
0
LINE
8
DEFAULT_255_1_388
10
7.4712077
20
60.7619601
11
7.1043605
21
60.7619601
0
LINE
8
DEFAULT_255_1_388
10
7.1043605
20
60.7619601
11
7.1043605
21
60.3463204
0
LINE
8
DEFAULT_255_1_388
10
7.1043605
20
60.3463204
11
6.9362976
21
60.3463204
0
LINE
8
DEFAULT_255_1_388
10
6.9362976
20
60.3463204
11
6.9362976
21
60.7619601
0
LINE
8
DEFAULT_255_1_388
10
6.9362976
20
60.7619601
11
6.5694504
21
60.7619601
0
LINE
8
DEFAULT_255_1_388
10
6.5694504
20
60.7619601
11
6.5694504
21
60.9200838
0
LINE
8
DEFAULT_255_1_388
10
6.5694504
20
60.9200838
11
6.9362976
21
60.9200838
0
LINE
8
DEFAULT_255_1_388
10
6.9362976
20
60.9200838
11
6.9362976
21
61.3040987
0
LINE
8
DEFAULT_255_1_388
10
6.9362976
20
61.3040987
11
7.1043605
21
61.3040987
0
ARC
8
DEFAULT_255_1_388
10
4.4353818
20
69.121272
40
0.3175098
50
338.8762533
51
0.5167111
0
ARC
8
DEFAULT_255_1_388
10
4.4543412
20
69.11616
40
0.2979894
50
325.8415285
51
338.4793574
0
ARC
8
DEFAULT_255_1_388
10
4.4104046
20
69.1466242
40
0.351452
50
296.7587686
51
325.7536481
0
ARC
8
DEFAULT_255_1_388
10
4.3775673
20
69.2020363
40
0.4157374
50
296.0927901
51
297.3613472
0
ARC
8
DEFAULT_255_1_388
10
4.4069869
20
68.4637593
40
0.395855
50
47.9007294
51
67.1948823
0
ARC
8
DEFAULT_255_1_388
10
4.4290511
20
68.4914599
40
0.360516
50
35.2363914
51
47.551141
0
ARC
8
DEFAULT_255_1_388
10
4.4584915
20
68.5111093
40
0.3251343
50
359.2759765
51
35.4014143
0
ARC
8
DEFAULT_255_1_388
10
4.3746841
20
68.5028787
40
0.4089365
50
343.1293083
51
0.5775513
0
ARC
8
DEFAULT_255_1_388
10
4.4561955
20
68.4804336
40
0.3244269
50
310.8496669
51
342.7449331
0
ARC
8
DEFAULT_255_1_388
10
4.4091829
20
68.5340913
40
0.3957651
50
281.5472888
51
310.9170406
0
ARC
8
DEFAULT_255_1_388
10
4.3690704
20
68.7087814
40
0.5749654
50
269.619248
51
281.9789564
0
ARC
8
DEFAULT_255_1_388
10
4.3609482
20
68.7088776
40
0.5750649
50
257.4585678
51
270.4285689
0
ARC
8
DEFAULT_255_1_388
10
4.3181002
20
68.5284741
40
0.389671
50
228.7554326
51
257.8484789
0
ARC
8
DEFAULT_255_1_388
10
4.2832487
20
68.4865228
40
0.335154
50
184.0104975
51
228.5071184
0
ARC
8
DEFAULT_255_1_388
10
4.414088
20
68.506443
40
0.4671891
50
179.9315832
51
185.3253753
0
ARC
8
DEFAULT_255_1_388
10
4.2817392
20
68.5106592
40
0.33486
50
145.6796023
51
180.6259786
0
ARC
8
DEFAULT_255_1_388
10
4.3001158
20
68.4978271
40
0.3572723
50
115.5537685
51
145.6415986
0
ARC
8
DEFAULT_255_1_388
10
4.3384202
20
68.4292087
40
0.4357296
50
113.243307
51
116.2057839
0
ARC
8
DEFAULT_255_1_388
10
4.3212854
20
69.1489379
40
0.3549126
50
222.9549744
51
244.1370481
0
ARC
8
DEFAULT_255_1_388
10
4.3075497
20
69.1335378
40
0.3343711
50
213.3436887
51
222.6274467
0
ARC
8
DEFAULT_255_1_388
10
4.2859566
20
69.1188653
40
0.3082678
50
180.431584
51
213.271499
0
ARC
8
DEFAULT_255_1_388
10
4.3494565
20
69.1241296
40
0.3718363
50
179.9991191
51
181.1690594
0
ARC
8
DEFAULT_255_1_388
10
4.3967021
20
69.1280072
40
0.4190996
50
164.6186169
51
180.529336
0
ARC
8
DEFAULT_255_1_388
10
4.295667
20
69.155178
40
0.3144772
50
132.2455553
51
164.5090724
0
ARC
8
DEFAULT_255_1_388
10
4.3279649
20
69.118607
40
0.3632644
50
100.7053914
51
132.1386381
0
ARC
8
DEFAULT_255_1_388
10
4.362271
20
68.9636118
40
0.5219578
50
89.6730358
51
101.2451698
0
ARC
8
DEFAULT_255_1_388
10
4.3692701
20
68.9832648
40
0.5023124
50
76.287748
51
90.4586006
0
ARC
8
DEFAULT_255_1_388
10
4.4037203
20
69.1207671
40
0.3605639
50
47.8240511
51
76.4266241
0
ARC
8
DEFAULT_255_1_388
10
4.4287587
20
69.1500599
40
0.3220463
50
6.9168387
51
47.6262497
0
ARC
8
DEFAULT_255_1_388
10
4.295304
20
69.1254004
40
0.4575765
50
359.8415968
51
7.9697453
0
ARC
8
DEFAULT_255_1_388
10
4.333731
20
68.5133519
40
0.2827228
50
359.445363
51
16.9256873
0
ARC
8
DEFAULT_255_1_388
10
4.3864744
20
68.5278781
40
0.2280396
50
17.2920767
51
45.4630727
0
ARC
8
DEFAULT_255_1_388
10
4.3803879
20
68.5226324
40
0.2360485
50
45.30305
51
83.1920945
0
ARC
8
DEFAULT_255_1_388
10
4.3642624
20
68.4324473
40
0.3275527
50
82.2612665
51
90.1434275
0
ARC
8
DEFAULT_255_1_388
10
4.36079
20
68.4586869
40
0.3013237
50
89.4956434
51
104.8580688
0
ARC
8
DEFAULT_255_1_388
10
4.340909
20
68.5340455
40
0.2233867
50
104.8856641
51
135.244616
0
ARC
8
DEFAULT_255_1_388
10
4.3465079
20
68.5290352
40
0.2308906
50
135.3399546
51
172.1044062
0
ARC
8
DEFAULT_255_1_388
10
4.4372603
20
68.5116667
40
0.3232034
50
171.2645637
51
180.186429
0
ARC
8
DEFAULT_255_1_388
10
4.4182608
20
68.5080426
40
0.304213
50
179.5154935
51
193.6464289
0
ARC
8
DEFAULT_255_1_388
10
4.3264284
20
68.4846473
40
0.209456
50
193.3540274
51
225.8258581
0
ARC
8
DEFAULT_255_1_388
10
4.3310156
20
68.4926076
40
0.2183738
50
226.4180634
51
255.8552336
0
ARC
8
DEFAULT_255_1_388
10
4.3598623
20
68.5979521
40
0.3275812
50
255.4654104
51
268.7987425
0
ARC
8
DEFAULT_255_1_388
10
4.3651799
20
68.6921545
40
0.4218877
50
268.3449238
51
270.0094605
0
ARC
8
DEFAULT_255_1_388
10
4.3678032
20
68.6153094
40
0.3450519
50
269.5759586
51
282.0820163
0
ARC
8
DEFAULT_255_1_388
10
4.3931069
20
68.5034363
40
0.2303642
50
281.752014
51
306.6056188
0
ARC
8
DEFAULT_255_1_388
10
4.4041877
20
68.4852802
40
0.2091906
50
307.1346085
51
314.027845
0
ARC
8
DEFAULT_255_1_388
10
4.4001389
20
68.4882459
40
0.2141385
50
314.2552483
51
350.1694025
0
ARC
8
DEFAULT_255_1_388
10
4.3043626
20
68.5090175
40
0.312082
50
349.4140529
51
0.2933014
0
ARC
8
DEFAULT_255_1_388
10
4.3628903
20
69.0893924
40
0.2588377
50
89.477747
51
105.729729
0
ARC
8
DEFAULT_255_1_388
10
4.3475823
20
69.1462367
40
0.1999733
50
105.9233417
51
135.1660906
0
ARC
8
DEFAULT_255_1_388
10
4.3498854
20
69.1446412
40
0.2027322
50
135.3052302
51
168.9883645
0
ARC
8
DEFAULT_255_1_388
10
4.442987
20
69.1232996
40
0.2982129
50
168.3801673
51
180.3602268
0
ARC
8
DEFAULT_255_1_388
10
4.4172987
20
69.1190622
40
0.2725291
50
179.5033122
51
194.9125571
0
ARC
8
DEFAULT_255_1_388
10
4.3514394
20
69.1017427
40
0.204431
50
194.9720816
51
224.194444
0
ARC
8
DEFAULT_255_1_388
10
4.3482759
20
69.0991635
40
0.2003651
50
224.2962453
51
262.015664
0
ARC
8
DEFAULT_255_1_388
10
4.3642763
20
69.1814315
40
0.2840925
50
261.1245923
51
270.1962896
0
ARC
8
DEFAULT_255_1_388
10
4.3676244
20
69.1603859
40
0.2630559
50
269.4827276
51
285.0987215
0
ARC
8
DEFAULT_255_1_388
10
4.384968
20
69.0953175
40
0.1957162
50
285.1585357
51
315.9484501
0
ARC
8
DEFAULT_255_1_388
10
4.3749554
20
69.1045315
40
0.2093195
50
316.0413965
51
351.916092
0
ARC
8
DEFAULT_255_1_388
10
4.2924928
20
69.1204323
40
0.2932279
50
351.105835
51
0.1939062
0
ARC
8
DEFAULT_255_1_388
10
4.3220562
20
69.1238224
40
0.2636739
50
359.4789618
51
16.0678224
0
ARC
8
DEFAULT_255_1_388
10
4.3756034
20
69.1382721
40
0.2082215
50
16.3252067
51
44.7913869
0
ARC
8
DEFAULT_255_1_388
10
4.3736096
20
69.138332
40
0.2095992
50
44.3957814
51
88.2499162
0
ARC
8
DEFAULT_255_1_388
10
4.3653431
20
69.0695006
40
0.2787189
50
86.9833854
51
90.0192215
0
LINE
8
DEFAULT_255_1_388
10
4.8043819
20
77.4049898
11
4.8043819
21
77.3110191
0
LINE
8
DEFAULT_255_1_388
10
4.8043819
20
77.3110191
11
4.2595325
21
76.0894
0
LINE
8
DEFAULT_255_1_388
10
4.2595325
20
76.0894
11
4.084241
21
76.0894
0
LINE
8
DEFAULT_255_1_388
10
4.084241
20
76.0894
11
4.6272833
21
77.267648
0
LINE
8
DEFAULT_255_1_388
10
4.6272833
20
77.267648
11
3.9152745
21
77.267648
0
LINE
8
DEFAULT_255_1_388
10
3.9152745
20
77.267648
11
3.9152745
21
77.4049898
0
LINE
8
DEFAULT_255_1_388
10
3.9152745
20
77.4049898
11
4.8043819
21
77.4049898
0
LINE
8
DEFAULT_255_1_388
10
4.1335024
20
85.3424898
11
4.3575864
21
85.3424898
0
LINE
8
DEFAULT_255_1_388
10
4.3575864
20
85.3424898
11
4.7876831
21
84.2690553
0
LINE
8
DEFAULT_255_1_388
10
4.7876831
20
84.2690553
11
5.2177797
21
85.3424898
0
LINE
8
DEFAULT_255_1_388
10
5.2177797
20
85.3424898
11
5.4427673
21
85.3424898
0
LINE
8
DEFAULT_255_1_388
10
5.4427673
20
85.3424898
11
5.4427673
21
84.0269
0
LINE
8
DEFAULT_255_1_388
10
5.4427673
20
84.0269
11
5.2692829
21
84.0269
0
LINE
8
DEFAULT_255_1_388
10
5.2692829
20
84.0269
11
5.2692829
21
84.539221
0
LINE
8
DEFAULT_255_1_388
10
5.2692829
20
84.539221
11
5.2855471
21
85.0922025
0
LINE
8
DEFAULT_255_1_388
10
5.2855471
20
85.0922025
11
4.8536433
21
84.0269
0
LINE
8
DEFAULT_255_1_388
10
4.8536433
20
84.0269
11
4.7208193
21
84.0269
0
LINE
8
DEFAULT_255_1_388
10
4.7208193
20
84.0269
11
4.289819
21
85.0894918
0
LINE
8
DEFAULT_255_1_388
10
4.289819
20
85.0894918
11
4.3069868
21
84.539221
0
LINE
8
DEFAULT_255_1_388
10
4.3069868
20
84.539221
11
4.3069868
21
84.0269
0
LINE
8
DEFAULT_255_1_388
10
4.3069868
20
84.0269
11
4.1335024
21
84.0269
0
LINE
8
DEFAULT_255_1_388
10
4.1335024
20
84.0269
11
4.1335024
21
85.3424898
0
LINE
8
DEFAULT_255_1_388
10
6.2550717
20
85.3488148
11
6.2550717
21
84.0269
0
LINE
8
DEFAULT_255_1_388
10
6.2550717
20
84.0269
11
6.0870087
21
84.0269
0
LINE
8
DEFAULT_255_1_388
10
6.0870087
20
84.0269
11
6.0870087
21
85.140995
0
LINE
8
DEFAULT_255_1_388
10
6.0870087
20
85.140995
11
5.7499792
21
85.0172066
0
LINE
8
DEFAULT_255_1_388
10
5.7499792
20
85.0172066
11
5.7499792
21
85.1690055
0
LINE
8
DEFAULT_255_1_388
10
5.7499792
20
85.1690055
11
6.2288684
21
85.3488148
0
LINE
8
DEFAULT_255_1_388
10
6.2288684
20
85.3488148
11
6.2550717
21
85.3488148
0
LINE
8
DEFAULT_255_1_388
10
7.1098437
20
84.6539737
11
7.1098437
21
84.5175355
0
LINE
8
DEFAULT_255_1_388
10
7.1098437
20
84.5175355
11
6.6689042
21
84.5175355
0
LINE
8
DEFAULT_255_1_388
10
6.6689042
20
84.5175355
11
6.6689042
21
84.6539737
0
LINE
8
DEFAULT_255_1_388
10
6.6689042
20
84.6539737
11
7.1098437
21
84.6539737
0
LINE
8
DEFAULT_255_1_388
10
3.9970024
20
93.2799898
11
4.2210864
21
93.2799898
0
LINE
8
DEFAULT_255_1_388
10
4.2210864
20
93.2799898
11
4.6511831
21
92.2065553
0
LINE
8
DEFAULT_255_1_388
10
4.6511831
20
92.2065553
11
5.0812797
21
93.2799898
0
LINE
8
DEFAULT_255_1_388
10
5.0812797
20
93.2799898
11
5.3062673
21
93.2799898
0
LINE
8
DEFAULT_255_1_388
10
5.3062673
20
93.2799898
11
5.3062673
21
91.9644
0
LINE
8
DEFAULT_255_1_388
10
5.3062673
20
91.9644
11
5.1327829
21
91.9644
0
LINE
8
DEFAULT_255_1_388
10
5.1327829
20
91.9644
11
5.1327829
21
92.476721
0
LINE
8
DEFAULT_255_1_388
10
5.1327829
20
92.476721
11
5.1490471
21
93.0297025
0
LINE
8
DEFAULT_255_1_388
10
5.1490471
20
93.0297025
11
4.7171433
21
91.9644
0
LINE
8
DEFAULT_255_1_388
10
4.7171433
20
91.9644
11
4.5843193
21
91.9644
0
LINE
8
DEFAULT_255_1_388
10
4.5843193
20
91.9644
11
4.153319
21
93.0269918
0
LINE
8
DEFAULT_255_1_388
10
4.153319
20
93.0269918
11
4.1704868
21
92.476721
0
LINE
8
DEFAULT_255_1_388
10
4.1704868
20
92.476721
11
4.1704868
21
91.9644
0
LINE
8
DEFAULT_255_1_388
10
4.1704868
20
91.9644
11
3.9970024
21
91.9644
0
LINE
8
DEFAULT_255_1_388
10
3.9970024
20
91.9644
11
3.9970024
21
93.2799898
0
LINE
8
DEFAULT_255_1_388
10
6.1185717
20
93.2863148
11
6.1185717
21
91.9644
0
LINE
8
DEFAULT_255_1_388
10
6.1185717
20
91.9644
11
5.9505087
21
91.9644
0
LINE
8
DEFAULT_255_1_388
10
5.9505087
20
91.9644
11
5.9505087
21
93.078495
0
LINE
8
DEFAULT_255_1_388
10
5.9505087
20
93.078495
11
5.6134792
21
92.9547066
0
LINE
8
DEFAULT_255_1_388
10
5.6134792
20
92.9547066
11
5.6134792
21
93.1065055
0
LINE
8
DEFAULT_255_1_388
10
5.6134792
20
93.1065055
11
6.0923684
21
93.2863148
0
LINE
8
DEFAULT_255_1_388
10
6.0923684
20
93.2863148
11
6.1185717
21
93.2863148
0
LINE
8
DEFAULT_255_1_388
10
7.1043605
20
93.0540987
11
7.1043605
21
92.6700838
0
LINE
8
DEFAULT_255_1_388
10
7.1043605
20
92.6700838
11
7.4712077
21
92.6700838
0
LINE
8
DEFAULT_255_1_388
10
7.4712077
20
92.6700838
11
7.4712077
21
92.5119601
0
LINE
8
DEFAULT_255_1_388
10
7.4712077
20
92.5119601
11
7.1043605
21
92.5119601
0
LINE
8
DEFAULT_255_1_388
10
7.1043605
20
92.5119601
11
7.1043605
21
92.0963204
0
LINE
8
DEFAULT_255_1_388
10
7.1043605
20
92.0963204
11
6.9362976
21
92.0963204
0
LINE
8
DEFAULT_255_1_388
10
6.9362976
20
92.0963204
11
6.9362976
21
92.5119601
0
LINE
8
DEFAULT_255_1_388
10
6.9362976
20
92.5119601
11
6.5694504
21
92.5119601
0
LINE
8
DEFAULT_255_1_388
10
6.5694504
20
92.5119601
11
6.5694504
21
92.6700838
0
LINE
8
DEFAULT_255_1_388
10
6.5694504
20
92.6700838
11
6.9362976
21
92.6700838
0
LINE
8
DEFAULT_255_1_388
10
6.9362976
20
92.6700838
11
6.9362976
21
93.0540987
0
LINE
8
DEFAULT_255_1_388
10
6.9362976
20
93.0540987
11
7.1043605
21
93.0540987
0
LINE
8
DEFAULT_255_1_388
10
4.9253151
20
101.2174898
11
4.9253151
21
100.343743
0
LINE
8
DEFAULT_255_1_388
10
4.9253151
20
100.343743
11
5.1078352
21
100.343743
0
LINE
8
DEFAULT_255_1_388
10
5.1078352
20
100.343743
11
5.1078352
21
100.2073048
0
LINE
8
DEFAULT_255_1_388
10
5.1078352
20
100.2073048
11
4.9253151
21
100.2073048
0
LINE
8
DEFAULT_255_1_388
10
4.9253151
20
100.2073048
11
4.9253151
21
99.9019
0
LINE
8
DEFAULT_255_1_388
10
4.9253151
20
99.9019
11
4.7572521
21
99.9019
0
LINE
8
DEFAULT_255_1_388
10
4.7572521
20
99.9019
11
4.7572521
21
100.2073048
0
LINE
8
DEFAULT_255_1_388
10
4.7572521
20
100.2073048
11
4.1581889
21
100.2073048
0
LINE
8
DEFAULT_255_1_388
10
4.1581889
20
100.2073048
11
4.1581889
21
100.3057933
0
LINE
8
DEFAULT_255_1_388
10
4.1581889
20
100.3057933
11
4.7473129
21
101.2174898
0
LINE
8
DEFAULT_255_1_388
10
4.7473129
20
101.2174898
11
4.9253151
21
101.2174898
0
LINE
8
DEFAULT_255_1_388
10
4.7373737
20
100.9527455
11
4.3479375
21
100.343743
0
LINE
8
DEFAULT_255_1_388
10
4.3479375
20
100.343743
11
4.7572521
21
100.343743
0
LINE
8
DEFAULT_255_1_388
10
4.7572521
20
100.343743
11
4.7572521
21
100.988888
0
LINE
8
DEFAULT_255_1_388
10
4.7572521
20
100.988888
11
4.7373737
21
100.9527455
0
LINE
8
DEFAULT_255_1_388
10
4.1980901
20
108.4420775
11
4.1980901
21
108.5785157
0
LINE
8
DEFAULT_255_1_388
10
4.1980901
20
108.5785157
11
4.3236856
21
108.5785157
0
LINE
8
DEFAULT_255_1_388
10
4.1095408
20
108.8098282
11
3.9423814
21
108.8098282
0
LINE
8
DEFAULT_255_1_388
10
3.9306351
20
108.1863688
11
4.098698
21
108.1863688
0
LINE
8
DEFAULT_255_1_388
10
4.3236856
20
108.4420775
11
4.1980901
21
108.4420775
0
ARC
8
DEFAULT_255_1_388
10
4.3204082
20
108.9601922
40
0.3816905
50
270.491971
51
281.8953028
0
ARC
8
DEFAULT_255_1_388
10
4.3475509
20
108.8362199
40
0.2547877
50
281.6690378
51
301.2943765
0
ARC
8
DEFAULT_255_1_388
10
4.3666961
20
108.8011926
40
0.2149197
50
301.7834992
51
311.754567
0
ARC
8
DEFAULT_255_1_388
10
4.3770002
20
108.789765
40
0.1995326
50
311.7325027
51
354.2803031
0
ARC
8
DEFAULT_255_1_388
10
4.2952418
20
108.803828
40
0.2823461
50
353.0941646
51
0.1174696
0
ARC
8
DEFAULT_255_1_388
10
4.2433976
20
108.8091874
40
0.3342238
50
359.1804452
51
15.0452323
0
ARC
8
DEFAULT_255_1_388
10
4.3948034
20
108.8533546
40
0.1765747
50
13.957816
51
77.6713812
0
ARC
8
DEFAULT_255_1_388
10
4.351327
20
108.6975464
40
0.3381982
50
76.111571
51
90.7028736
0
ARC
8
DEFAULT_255_1_388
10
4.3446682
20
108.728325
40
0.3074046
50
89.5321574
51
103.5319393
0
ARC
8
DEFAULT_255_1_388
10
4.3221066
20
108.8182443
40
0.2147041
50
103.2930114
51
133.5619756
0
ARC
8
DEFAULT_255_1_388
10
4.3171007
20
108.8249351
40
0.2064084
50
133.8349761
51
173.5343225
0
ARC
8
DEFAULT_255_1_388
10
4.3984665
20
108.8105144
40
0.2889266
50
172.5097183
51
180.1360699
0
ARC
8
DEFAULT_255_1_388
10
4.2914429
20
108.814388
40
0.3490913
50
155.3483706
51
180.7484035
0
ARC
8
DEFAULT_255_1_388
10
4.2859404
20
108.8111519
40
0.3454798
50
131.5745177
51
154.4799474
0
ARC
8
DEFAULT_255_1_388
10
4.3211687
20
108.7755422
40
0.3955058
50
96.9874487
51
131.9690874
0
ARC
8
DEFAULT_255_1_388
10
4.345858
20
108.6354407
40
0.537622
50
89.8592909
51
97.7827481
0
ARC
8
DEFAULT_255_1_388
10
4.3512689
20
108.605936
40
0.5671399
50
78.3654493
51
90.4132586
0
ARC
8
DEFAULT_255_1_388
10
4.391533
20
108.7925918
40
0.3762034
50
56.6229818
51
78.6387103
0
ARC
8
DEFAULT_255_1_388
10
4.4157159
20
108.8348846
40
0.3275964
50
47.0254604
51
56.085558
0
ARC
8
DEFAULT_255_1_388
10
4.417941
20
108.8393189
40
0.3228382
50
10.9207523
51
46.777927
0
ARC
8
DEFAULT_255_1_388
10
4.2645004
20
108.8038401
40
0.4802559
50
359.6364235
51
11.6087615
0
ARC
8
DEFAULT_255_1_388
10
4.470917
20
108.8021404
40
0.273833
50
332.3549969
51
359.7179765
0
ARC
8
DEFAULT_255_1_388
10
4.397757
20
108.8368285
40
0.3547505
50
325.2332381
51
332.8746682
0
ARC
8
DEFAULT_255_1_388
10
4.4149153
20
108.8248763
40
0.3338396
50
292.9803892
51
325.2391113
0
ARC
8
DEFAULT_255_1_388
10
4.3838349
20
108.8853679
40
0.4016959
50
292.542178
51
293.6931461
0
ARC
8
DEFAULT_255_1_388
10
4.4281921
20
108.1588036
40
0.372079
50
57.643292
51
72.8626085
0
ARC
8
DEFAULT_255_1_388
10
4.4680755
20
108.2234273
40
0.2961455
50
36.7246661
51
57.4701329
0
ARC
8
DEFAULT_255_1_388
10
4.4667912
20
108.224847
40
0.2963321
50
8.054535
51
36.3561529
0
ARC
8
DEFAULT_255_1_388
10
4.3697585
20
108.2074073
40
0.3948682
50
359.8316595
51
8.5873361
0
ARC
8
DEFAULT_255_1_388
10
4.3275059
20
108.201997
40
0.4371398
50
343.9831631
51
0.557075
0
ARC
8
DEFAULT_255_1_388
10
4.4272108
20
108.1746963
40
0.3337749
50
311.6358204
51
343.7652116
0
ARC
8
DEFAULT_255_1_388
10
4.3846362
20
108.2226955
40
0.3979351
50
279.7829743
51
311.625622
0
ARC
8
DEFAULT_255_1_388
10
4.3507497
20
108.3843642
40
0.5630417
50
269.7285092
51
280.3857694
0
ARC
8
DEFAULT_255_1_388
10
4.343781
20
108.3797241
40
0.5584119
50
256.6827433
51
270.4412869
0
ARC
8
DEFAULT_255_1_388
10
4.3056797
20
108.2239698
40
0.3980715
50
229.4223821
51
256.8554507
0
ARC
8
DEFAULT_255_1_388
10
4.259035
20
108.1714683
40
0.3278564
50
181.8183354
51
229.6455015
0
ARC
8
DEFAULT_255_1_388
10
4.375996
20
108.1861825
40
0.4453611
50
179.9760419
51
183.2330638
0
ARC
8
DEFAULT_255_1_388
10
4.3566512
20
108.1838781
40
0.2579652
50
179.4467996
51
196.2871626
0
ARC
8
DEFAULT_255_1_388
10
4.3017966
20
108.1688709
40
0.2011057
50
196.5661293
51
227.7059371
0
ARC
8
DEFAULT_255_1_388
10
4.3202573
20
108.1895155
40
0.2287994
50
227.7653015
51
257.8763321
0
ARC
8
DEFAULT_255_1_388
10
4.3455656
20
108.2955961
40
0.3378385
50
257.4583525
51
270.4267406
0
ARC
8
DEFAULT_255_1_388
10
4.3506906
20
108.328223
40
0.3704652
50
269.5965319
51
280.8788143
0
ARC
8
DEFAULT_255_1_388
10
4.3765134
20
108.1992529
40
0.2389415
50
280.6347277
51
299.8594068
0
ARC
8
DEFAULT_255_1_388
10
4.3979903
20
108.1584736
40
0.19289
50
300.3575552
51
314.5515667
0
ARC
8
DEFAULT_255_1_388
10
4.3886579
20
108.1653025
40
0.204312
50
315.0730962
51
345.0429362
0
ARC
8
DEFAULT_255_1_388
10
4.2848087
20
108.1955539
40
0.31246
50
344.598526
51
357.9270698
0
ARC
8
DEFAULT_255_1_388
10
4.1838391
20
108.2024705
40
0.4136265
50
357.4755098
51
0.0224936
0
ARC
8
DEFAULT_255_1_388
10
4.2991269
20
108.2052099
40
0.2983498
50
359.5051035
51
13.4236939
0
ARC
8
DEFAULT_255_1_388
10
4.3966359
20
108.2301637
40
0.1977186
50
12.9497905
51
48.7550905
0
ARC
8
DEFAULT_255_1_388
10
4.3761281
20
108.2021373
40
0.2323321
50
49.509109
51
72.1832965
0
ARC
8
DEFAULT_255_1_388
10
4.3358749
20
108.0826632
40
0.358397
50
71.9008458
51
84.3555134
0
ARC
8
DEFAULT_255_1_388
10
4.3177144
20
107.9294712
40
0.512641
50
84.019632
51
89.3326067
0
LINE
8
DEFAULT_255_1_388
10
4.1335024
20
117.0924898
11
4.3575864
21
117.0924898
0
LINE
8
DEFAULT_255_1_388
10
4.3575864
20
117.0924898
11
4.7876831
21
116.0190553
0
LINE
8
DEFAULT_255_1_388
10
4.7876831
20
116.0190553
11
5.2177797
21
117.0924898
0
LINE
8
DEFAULT_255_1_388
10
5.2177797
20
117.0924898
11
5.4427673
21
117.0924898
0
LINE
8
DEFAULT_255_1_388
10
5.4427673
20
117.0924898
11
5.4427673
21
115.7769
0
LINE
8
DEFAULT_255_1_388
10
5.4427673
20
115.7769
11
5.2692829
21
115.7769
0
LINE
8
DEFAULT_255_1_388
10
5.2692829
20
115.7769
11
5.2692829
21
116.289221
0
LINE
8
DEFAULT_255_1_388
10
5.2692829
20
116.289221
11
5.2855471
21
116.8422025
0
LINE
8
DEFAULT_255_1_388
10
5.2855471
20
116.8422025
11
4.8536433
21
115.7769
0
LINE
8
DEFAULT_255_1_388
10
4.8536433
20
115.7769
11
4.7208193
21
115.7769
0
LINE
8
DEFAULT_255_1_388
10
4.7208193
20
115.7769
11
4.289819
21
116.8394918
0
LINE
8
DEFAULT_255_1_388
10
4.289819
20
116.8394918
11
4.3069868
21
116.289221
0
LINE
8
DEFAULT_255_1_388
10
4.3069868
20
116.289221
11
4.3069868
21
115.7769
0
LINE
8
DEFAULT_255_1_388
10
4.3069868
20
115.7769
11
4.1335024
21
115.7769
0
LINE
8
DEFAULT_255_1_388
10
4.1335024
20
115.7769
11
4.1335024
21
117.0924898
0
LINE
8
DEFAULT_255_1_388
10
6.5306589
20
116.554869
11
6.5306589
21
116.3380135
0
LINE
8
DEFAULT_255_1_388
10
5.7002832
20
116.3154244
11
5.7002832
21
116.5386048
0
LINE
8
DEFAULT_255_1_388
10
6.3634995
20
116.2928353
11
6.3634995
21
116.5666153
0
LINE
8
DEFAULT_255_1_388
10
5.8674426
20
116.5792652
11
5.8674426
21
116.3118102
0
ARC
8
DEFAULT_255_1_388
10
5.1528923
20
116.3325118
40
1.3777776
50
353.8440855
51
0.2287917
0
ARC
8
DEFAULT_255_1_388
10
5.674794
20
116.2742414
40
0.852639
50
344.4934746
51
353.9763743
0
ARC
8
DEFAULT_255_1_388
10
6.0114747
20
116.1785191
40
0.5026273
50
329.2803599
51
344.7473406
0
ARC
8
DEFAULT_255_1_388
10
6.1230243
20
116.1173038
40
0.3754848
50
324.9361395
51
328.6153007
0
ARC
8
DEFAULT_255_1_388
10
6.1655893
20
116.0875586
40
0.3235566
50
280.5801797
51
324.9173226
0
ARC
8
DEFAULT_255_1_388
10
6.1204522
20
116.2755236
40
0.5167077
50
269.5979457
51
281.6732777
0
ARC
8
DEFAULT_255_1_388
10
6.1123425
20
116.2620113
40
0.5032026
50
256.6228565
51
270.5105488
0
ARC
8
DEFAULT_255_1_388
10
6.0671168
20
116.0878345
40
0.3233092
50
215.8618351
51
257.2787793
0
ARC
8
DEFAULT_255_1_388
10
6.1819875
20
116.1649106
40
0.4615831
50
197.9695203
51
215.2622745
0
ARC
8
DEFAULT_255_1_388
10
6.4615551
20
116.2592641
40
0.7566307
50
187.8816486
51
198.2346584
0
ARC
8
DEFAULT_255_1_388
10
6.9068789
20
116.3235453
40
1.2065653
50
180.8977266
51
188.0054894
0
ARC
8
DEFAULT_255_1_388
10
7.2119002
20
116.33504
40
1.5117443
50
180.7434591
51
181.152202
0
ARC
8
DEFAULT_255_1_388
10
7.0443998
20
116.5440371
40
1.3441277
50
173.7674302
51
180.2315596
0
ARC
8
DEFAULT_255_1_388
10
6.5361867
20
116.6014779
40
0.8326847
50
164.3058537
51
173.9000553
0
ARC
8
DEFAULT_255_1_388
10
6.2085867
20
116.6958652
40
0.4917711
50
148.7922028
51
164.5682288
0
ARC
8
DEFAULT_255_1_388
10
6.1016605
20
116.7555457
40
0.3694204
50
144.5883979
51
148.1161588
0
ARC
8
DEFAULT_255_1_388
10
6.062935
20
116.7825667
40
0.322202
50
101.6440149
51
144.5142619
0
ARC
8
DEFAULT_255_1_388
10
6.1107542
20
116.5925337
40
0.5180451
50
89.528284
51
102.5820197
0
ARC
8
DEFAULT_255_1_388
10
6.1196534
20
116.5881376
40
0.5224441
50
77.0437914
51
90.508231
0
ARC
8
DEFAULT_255_1_388
10
6.1648788
20
116.7729272
40
0.3322297
50
48.2777708
51
77.4996087
0
ARC
8
DEFAULT_255_1_388
10
6.1730528
20
116.7874557
40
0.315966
50
36.3141586
51
47.6307332
0
ARC
8
DEFAULT_255_1_388
10
6.075325
20
116.7216159
40
0.4337313
50
18.2931065
51
35.6770203
0
ARC
8
DEFAULT_255_1_388
10
5.7892091
20
116.6234107
40
0.7362203
50
8.0246996
51
18.5605636
0
ARC
8
DEFAULT_255_1_388
10
5.3208446
20
116.5542432
40
1.2096583
50
1.127539
51
8.1718423
0
ARC
8
DEFAULT_255_1_388
10
4.955958
20
116.5399374
40
1.5747719
50
0.5432713
51
1.38669
0
ARC
8
DEFAULT_255_1_388
10
5.1616958
20
116.5706163
40
1.2018103
50
359.8092569
51
4.9408001
0
ARC
8
DEFAULT_255_1_388
10
5.635354
20
116.61289
40
0.7262727
50
4.8364937
51
12.2906017
0
ARC
8
DEFAULT_255_1_388
10
5.9453005
20
116.6819485
40
0.4087324
50
12.0806994
51
23.8171225
0
ARC
8
DEFAULT_255_1_388
10
6.0773401
20
116.7378508
40
0.2653719
50
24.2874621
51
31.3934353
0
ARC
8
DEFAULT_255_1_388
10
6.1363836
20
116.7764822
40
0.1948607
50
30.7407708
51
82.4658033
0
ARC
8
DEFAULT_255_1_388
10
6.1161497
20
116.6771017
40
0.2961198
50
81.1057101
51
90.2187368
0
ARC
8
DEFAULT_255_1_388
10
6.1121309
20
116.7061421
40
0.2670929
50
89.380395
51
105.6763916
0
ARC
8
DEFAULT_255_1_388
10
6.0915031
20
116.781132
40
0.1893189
50
105.7980655
51
149.7387869
0
ARC
8
DEFAULT_255_1_388
10
6.2112171
20
116.7091719
40
0.3289892
50
149.4208441
51
163.628295
0
ARC
8
DEFAULT_255_1_388
10
6.4464401
20
116.6374345
40
0.5749004
50
163.3764549
51
172.141138
0
ARC
8
DEFAULT_255_1_388
10
6.8177122
20
116.5842582
40
0.9499585
50
172.0258462
51
178.0705453
0
ARC
8
DEFAULT_255_1_388
10
7.1598675
20
116.5680682
40
1.2924734
50
177.8639301
51
179.5036263
0
ARC
8
DEFAULT_255_1_388
10
7.0379694
20
116.3077151
40
1.170534
50
179.7995545
51
185.246089
0
ARC
8
DEFAULT_255_1_388
10
6.5831287
20
116.2646404
40
0.7136613
50
185.1411911
51
193.0082205
0
ARC
8
DEFAULT_255_1_388
10
6.2857548
20
116.1943441
40
0.4080987
50
192.7897338
51
205.2507384
0
ARC
8
DEFAULT_255_1_388
10
6.1679757
20
116.1417538
40
0.2791522
50
205.8001921
51
211.2545876
0
ARC
8
DEFAULT_255_1_388
10
6.1091297
20
116.1023132
40
0.2084074
50
210.3789935
51
238.4007996
0
ARC
8
DEFAULT_255_1_388
10
6.1069383
20
116.1075786
40
0.2117943
50
239.6521916
51
265.9793852
0
ARC
8
DEFAULT_255_1_388
10
6.1165232
20
116.1832358
40
0.2879689
50
265.1324455
51
270.0603288
0
ARC
8
DEFAULT_255_1_388
10
6.1197609
20
116.1467418
40
0.2514919
50
269.3314378
51
287.2180039
0
ARC
8
DEFAULT_255_1_388
10
6.1352691
20
116.0901291
40
0.1928357
50
287.7957942
51
329.0808983
0
ARC
8
DEFAULT_255_1_388
10
6.0275448
20
116.1573651
40
0.319808
50
328.6635261
51
343.3325043
0
ARC
8
DEFAULT_255_1_388
10
5.7830907
20
116.2335195
40
0.5758408
50
343.0498092
51
351.9392499
0
ARC
8
DEFAULT_255_1_388
10
5.3930228
20
116.2910205
40
0.9701202
50
351.8071632
51
357.7957897
0
ARC
8
DEFAULT_255_1_388
10
5.0295705
20
116.3098724
40
1.3340376
50
357.5870923
51
359.2682493
0
LINE
8
DEFAULT_255_1_388
10
7.1098437
20
116.4039737
11
7.1098437
21
116.2675355
0
LINE
8
DEFAULT_255_1_388
10
7.1098437
20
116.2675355
11
6.6689042
21
116.2675355
0
LINE
8
DEFAULT_255_1_388
10
6.6689042
20
116.2675355
11
6.6689042
21
116.4039737
0
LINE
8
DEFAULT_255_1_388
10
6.6689042
20
116.4039737
11
7.1098437
21
116.4039737
0
LINE
8
DEFAULT_255_1_388
10
3.9970024
20
125.0299898
11
4.2210864
21
125.0299898
0
LINE
8
DEFAULT_255_1_388
10
4.2210864
20
125.0299898
11
4.6511831
21
123.9565553
0
LINE
8
DEFAULT_255_1_388
10
4.6511831
20
123.9565553
11
5.0812797
21
125.0299898
0
LINE
8
DEFAULT_255_1_388
10
5.0812797
20
125.0299898
11
5.3062673
21
125.0299898
0
LINE
8
DEFAULT_255_1_388
10
5.3062673
20
125.0299898
11
5.3062673
21
123.7144
0
LINE
8
DEFAULT_255_1_388
10
5.3062673
20
123.7144
11
5.1327829
21
123.7144
0
LINE
8
DEFAULT_255_1_388
10
5.1327829
20
123.7144
11
5.1327829
21
124.226721
0
LINE
8
DEFAULT_255_1_388
10
5.1327829
20
124.226721
11
5.1490471
21
124.7797025
0
LINE
8
DEFAULT_255_1_388
10
5.1490471
20
124.7797025
11
4.7171433
21
123.7144
0
LINE
8
DEFAULT_255_1_388
10
4.7171433
20
123.7144
11
4.5843193
21
123.7144
0
LINE
8
DEFAULT_255_1_388
10
4.5843193
20
123.7144
11
4.153319
21
124.7769918
0
LINE
8
DEFAULT_255_1_388
10
4.153319
20
124.7769918
11
4.1704868
21
124.226721
0
LINE
8
DEFAULT_255_1_388
10
4.1704868
20
124.226721
11
4.1704868
21
123.7144
0
LINE
8
DEFAULT_255_1_388
10
4.1704868
20
123.7144
11
3.9970024
21
123.7144
0
LINE
8
DEFAULT_255_1_388
10
3.9970024
20
123.7144
11
3.9970024
21
125.0299898
0
LINE
8
DEFAULT_255_1_388
10
6.3941589
20
124.492369
11
6.3941589
21
124.2755135
0
LINE
8
DEFAULT_255_1_388
10
5.5637832
20
124.2529244
11
5.5637832
21
124.4761048
0
LINE
8
DEFAULT_255_1_388
10
6.2269995
20
124.2303353
11
6.2269995
21
124.5041153
0
LINE
8
DEFAULT_255_1_388
10
5.7309426
20
124.5167652
11
5.7309426
21
124.2493102
0
ARC
8
DEFAULT_255_1_388
10
5.0163923
20
124.2700118
40
1.3777776
50
353.8440855
51
0.2287917
0
ARC
8
DEFAULT_255_1_388
10
5.538294
20
124.2117414
40
0.852639
50
344.4934746
51
353.9763743
0
ARC
8
DEFAULT_255_1_388
10
5.8749747
20
124.1160191
40
0.5026273
50
329.2803599
51
344.7473406
0
ARC
8
DEFAULT_255_1_388
10
5.9865243
20
124.0548038
40
0.3754848
50
324.9361395
51
328.6153007
0
ARC
8
DEFAULT_255_1_388
10
6.0290893
20
124.0250586
40
0.3235566
50
280.5801797
51
324.9173226
0
ARC
8
DEFAULT_255_1_388
10
5.9839522
20
124.2130236
40
0.5167077
50
269.5979457
51
281.6732777
0
ARC
8
DEFAULT_255_1_388
10
5.9758425
20
124.1995113
40
0.5032026
50
256.6228565
51
270.5105488
0
ARC
8
DEFAULT_255_1_388
10
5.9306168
20
124.0253345
40
0.3233092
50
215.8618351
51
257.2787793
0
ARC
8
DEFAULT_255_1_388
10
6.0454875
20
124.1024106
40
0.4615831
50
197.9695203
51
215.2622745
0
ARC
8
DEFAULT_255_1_388
10
6.3250551
20
124.1967641
40
0.7566307
50
187.8816486
51
198.2346584
0
ARC
8
DEFAULT_255_1_388
10
6.7703789
20
124.2610453
40
1.2065653
50
180.8977266
51
188.0054894
0
ARC
8
DEFAULT_255_1_388
10
7.0754002
20
124.27254
40
1.5117443
50
180.7434591
51
181.152202
0
ARC
8
DEFAULT_255_1_388
10
6.9078998
20
124.4815371
40
1.3441277
50
173.7674302
51
180.2315596
0
ARC
8
DEFAULT_255_1_388
10
6.3996867
20
124.5389779
40
0.8326847
50
164.3058537
51
173.9000553
0
ARC
8
DEFAULT_255_1_388
10
6.0720867
20
124.6333652
40
0.4917711
50
148.7922028
51
164.5682288
0
ARC
8
DEFAULT_255_1_388
10
5.9651605
20
124.6930457
40
0.3694204
50
144.5883979
51
148.1161588
0
ARC
8
DEFAULT_255_1_388
10
5.926435
20
124.7200667
40
0.322202
50
101.6440149
51
144.5142619
0
ARC
8
DEFAULT_255_1_388
10
5.9742542
20
124.5300337
40
0.5180451
50
89.528284
51
102.5820197
0
ARC
8
DEFAULT_255_1_388
10
5.9831534
20
124.5256376
40
0.5224441
50
77.0437914
51
90.508231
0
ARC
8
DEFAULT_255_1_388
10
6.0283788
20
124.7104272
40
0.3322297
50
48.2777708
51
77.4996087
0
ARC
8
DEFAULT_255_1_388
10
6.0365528
20
124.7249557
40
0.315966
50
36.3141586
51
47.6307332
0
ARC
8
DEFAULT_255_1_388
10
5.938825
20
124.6591159
40
0.4337313
50
18.2931065
51
35.6770203
0
ARC
8
DEFAULT_255_1_388
10
5.6527091
20
124.5609107
40
0.7362203
50
8.0246996
51
18.5605636
0
ARC
8
DEFAULT_255_1_388
10
5.1843446
20
124.4917432
40
1.2096583
50
1.127539
51
8.1718423
0
ARC
8
DEFAULT_255_1_388
10
4.819458
20
124.4774374
40
1.5747719
50
0.5432713
51
1.38669
0
ARC
8
DEFAULT_255_1_388
10
5.0251958
20
124.5081163
40
1.2018103
50
359.8092569
51
4.9408001
0
ARC
8
DEFAULT_255_1_388
10
5.498854
20
124.55039
40
0.7262727
50
4.8364937
51
12.2906017
0
ARC
8
DEFAULT_255_1_388
10
5.8088005
20
124.6194485
40
0.4087324
50
12.0806994
51
23.8171225
0
ARC
8
DEFAULT_255_1_388
10
5.9408401
20
124.6753508
40
0.2653719
50
24.2874621
51
31.3934353
0
ARC
8
DEFAULT_255_1_388
10
5.9998836
20
124.7139822
40
0.1948607
50
30.7407708
51
82.4658033
0
ARC
8
DEFAULT_255_1_388
10
5.9796497
20
124.6146017
40
0.2961198
50
81.1057101
51
90.2187368
0
ARC
8
DEFAULT_255_1_388
10
5.9756309
20
124.6436421
40
0.2670929
50
89.380395
51
105.6763916
0
ARC
8
DEFAULT_255_1_388
10
5.9550031
20
124.718632
40
0.1893189
50
105.7980655
51
149.7387869
0
ARC
8
DEFAULT_255_1_388
10
6.0747171
20
124.6466719
40
0.3289892
50
149.4208441
51
163.628295
0
ARC
8
DEFAULT_255_1_388
10
6.3099401
20
124.5749345
40
0.5749004
50
163.3764549
51
172.141138
0
ARC
8
DEFAULT_255_1_388
10
6.6812122
20
124.5217582
40
0.9499585
50
172.0258462
51
178.0705453
0
ARC
8
DEFAULT_255_1_388
10
7.0233675
20
124.5055682
40
1.2924734
50
177.8639301
51
179.5036263
0
ARC
8
DEFAULT_255_1_388
10
6.9014694
20
124.2452151
40
1.170534
50
179.7995545
51
185.246089
0
ARC
8
DEFAULT_255_1_388
10
6.4466287
20
124.2021404
40
0.7136613
50
185.1411911
51
193.0082205
0
ARC
8
DEFAULT_255_1_388
10
6.1492548
20
124.1318441
40
0.4080987
50
192.7897338
51
205.2507384
0
ARC
8
DEFAULT_255_1_388
10
6.0314757
20
124.0792538
40
0.2791522
50
205.8001921
51
211.2545876
0
ARC
8
DEFAULT_255_1_388
10
5.9726297
20
124.0398132
40
0.2084074
50
210.3789935
51
238.4007996
0
ARC
8
DEFAULT_255_1_388
10
5.9704383
20
124.0450786
40
0.2117943
50
239.6521916
51
265.9793852
0
ARC
8
DEFAULT_255_1_388
10
5.9800232
20
124.1207358
40
0.2879689
50
265.1324455
51
270.0603288
0
ARC
8
DEFAULT_255_1_388
10
5.9832609
20
124.0842418
40
0.2514919
50
269.3314378
51
287.2180039
0
ARC
8
DEFAULT_255_1_388
10
5.9987691
20
124.0276291
40
0.1928357
50
287.7957942
51
329.0808983
0
ARC
8
DEFAULT_255_1_388
10
5.8910448
20
124.0948651
40
0.319808
50
328.6635261
51
343.3325043
0
ARC
8
DEFAULT_255_1_388
10
5.6465907
20
124.1710195
40
0.5758408
50
343.0498092
51
351.9392499
0
ARC
8
DEFAULT_255_1_388
10
5.2565228
20
124.2285205
40
0.9701202
50
351.8071632
51
357.7957897
0
ARC
8
DEFAULT_255_1_388
10
4.8930705
20
124.2473724
40
1.3340376
50
357.5870923
51
359.2682493
0
LINE
8
DEFAULT_255_1_388
10
7.1043605
20
124.8040987
11
7.1043605
21
124.4200838
0
LINE
8
DEFAULT_255_1_388
10
7.1043605
20
124.4200838
11
7.4712077
21
124.4200838
0
LINE
8
DEFAULT_255_1_388
10
7.4712077
20
124.4200838
11
7.4712077
21
124.2619601
0
LINE
8
DEFAULT_255_1_388
10
7.4712077
20
124.2619601
11
7.1043605
21
124.2619601
0
LINE
8
DEFAULT_255_1_388
10
7.1043605
20
124.2619601
11
7.1043605
21
123.8463204
0
LINE
8
DEFAULT_255_1_388
10
7.1043605
20
123.8463204
11
6.9362976
21
123.8463204
0
LINE
8
DEFAULT_255_1_388
10
6.9362976
20
123.8463204
11
6.9362976
21
124.2619601
0
LINE
8
DEFAULT_255_1_388
10
6.9362976
20
124.2619601
11
6.5694504
21
124.2619601
0
LINE
8
DEFAULT_255_1_388
10
6.5694504
20
124.2619601
11
6.5694504
21
124.4200838
0
LINE
8
DEFAULT_255_1_388
10
6.5694504
20
124.4200838
11
6.9362976
21
124.4200838
0
LINE
8
DEFAULT_255_1_388
10
6.9362976
20
124.4200838
11
6.9362976
21
124.8040987
0
LINE
8
DEFAULT_255_1_388
10
6.9362976
20
124.8040987
11
7.1043605
21
124.8040987
0
LINE
8
DEFAULT_255_1_388
10
23.0065024
20
132.9674898
11
23.2305864
21
132.9674898
0
LINE
8
DEFAULT_255_1_388
10
23.2305864
20
132.9674898
11
23.6606831
21
131.8940553
0
LINE
8
DEFAULT_255_1_388
10
23.6606831
20
131.8940553
11
24.0907797
21
132.9674898
0
LINE
8
DEFAULT_255_1_388
10
24.0907797
20
132.9674898
11
24.3157673
21
132.9674898
0
LINE
8
DEFAULT_255_1_388
10
24.3157673
20
132.9674898
11
24.3157673
21
131.6519
0
LINE
8
DEFAULT_255_1_388
10
24.3157673
20
131.6519
11
24.1422829
21
131.6519
0
LINE
8
DEFAULT_255_1_388
10
24.1422829
20
131.6519
11
24.1422829
21
132.164221
0
LINE
8
DEFAULT_255_1_388
10
24.1422829
20
132.164221
11
24.1585471
21
132.7172025
0
LINE
8
DEFAULT_255_1_388
10
24.1585471
20
132.7172025
11
23.7266433
21
131.6519
0
LINE
8
DEFAULT_255_1_388
10
23.7266433
20
131.6519
11
23.5938193
21
131.6519
0
LINE
8
DEFAULT_255_1_388
10
23.5938193
20
131.6519
11
23.162819
21
132.7144918
0
LINE
8
DEFAULT_255_1_388
10
23.162819
20
132.7144918
11
23.1799868
21
132.164221
0
LINE
8
DEFAULT_255_1_388
10
23.1799868
20
132.164221
11
23.1799868
21
131.6519
0
LINE
8
DEFAULT_255_1_388
10
23.1799868
20
131.6519
11
23.0065024
21
131.6519
0
LINE
8
DEFAULT_255_1_388
10
23.0065024
20
131.6519
11
23.0065024
21
132.9674898
0
ENDSEC
0
EOF