0
SECTION
2
HEADER
9
$MEASUREMENT
70
1
0
ENDSEC
0
SECTION
2
TABLES
0
TABLE
2
LTYPE
0
LTYPE
72
65
70
64
2
CONTINUOUS
3
______
73
0
40
0
0
ENDTAB
0
TABLE
2
LAYER
0
LAYER
2
DEFAULT_255_2_778
70
0
62
255
6
CONTINUOUS
0
LAYER
2
DEFAULT_150_2_778_2
70
0
62
150
6
CONTINUOUS
0
LAYER
2
DEFAULT_255_2_005
70
0
62
255
6
CONTINUOUS
0
ENDTAB
0
ENDSEC
0
SECTION
2
ENTITIES
0
LINE
8
DEFAULT_255_2_778
10
19.5792105
20
2.8958895
11
15.8004105
21
6.6746895
0
LINE
8
DEFAULT_255_2_778
10
14.0229221
20
8.4520779
11
16.4551221
21
7.1424779
0
LINE
8
DEFAULT_255_2_778
10
16.4551221
20
7.1424779
11
15.3325221
21
6.0198779
0
LINE
8
DEFAULT_255_2_778
10
15.3325221
20
6.0198779
11
14.0229221
21
8.4520779
0
LINE
8
DEFAULT_255_2_778
10
7.0115
20
16.5219333
11
7.0115
21
14.4052333
0
LINE
8
DEFAULT_255_2_778
10
5.9531667
20
15.4636
11
8.0698667
21
15.4636
0
ARC
8
DEFAULT_150_2_778_2
10
7.1550054
20
15.4678265
40
9.8007978
50
170.7067728
51
180.0247583
0
ARC
8
DEFAULT_150_2_778_2
10
6.9712226
20
15.4964755
40
9.6148008
50
159.1763583
51
170.6983969
0
ARC
8
DEFAULT_150_2_778_2
10
6.9708936
20
15.4937633
40
9.6154579
50
141.9658158
51
159.1605559
0
ARC
8
DEFAULT_150_2_778_2
10
6.9986593
20
15.4763707
40
9.6480441
50
114.8269165
51
141.9860554
0
ARC
8
DEFAULT_150_2_778_2
10
6.9732598
20
15.5212421
40
9.5966558
50
102.4929436
51
114.8017718
0
ARC
8
DEFAULT_150_2_778_2
10
6.9989459
20
15.3976224
40
9.7229052
50
92.720493
51
102.4831415
0
ARC
8
DEFAULT_150_2_778_2
10
7.0110599
20
15.2099102
40
9.9109812
50
89.997406
51
92.7389391
0
ARC
8
DEFAULT_150_2_778_2
10
7.0157437
20
15.3200946
40
9.8007978
50
80.7067728
51
90.0247583
0
ARC
8
DEFAULT_150_2_778_2
10
7.0443927
20
15.5038774
40
9.6148008
50
69.1763583
51
80.6983969
0
ARC
8
DEFAULT_150_2_778_2
10
7.0416805
20
15.5042064
40
9.6154579
50
51.9658158
51
69.1605559
0
ARC
8
DEFAULT_150_2_778_2
10
7.0242879
20
15.4764407
40
9.6480441
50
24.8269165
51
51.9860554
0
ARC
8
DEFAULT_150_2_778_2
10
7.0691593
20
15.5018402
40
9.5966558
50
12.4929436
51
24.8017718
0
ARC
8
DEFAULT_150_2_778_2
10
6.9455396
20
15.4761541
40
9.7229052
50
2.720493
51
12.4831415
0
ARC
8
DEFAULT_150_2_778_2
10
6.7578274
20
15.4640401
40
9.9109812
50
359.997406
51
2.7389391
0
ARC
8
DEFAULT_150_2_778_2
10
6.8680118
20
15.4593563
40
9.8007978
50
350.7067728
51
0.0247583
0
ARC
8
DEFAULT_150_2_778_2
10
7.0517946
20
15.4307073
40
9.6148008
50
339.1763583
51
350.6983969
0
ARC
8
DEFAULT_150_2_778_2
10
7.0521236
20
15.4334195
40
9.6154579
50
321.9658158
51
339.1605559
0
ARC
8
DEFAULT_150_2_778_2
10
7.0243579
20
15.4508121
40
9.6480441
50
294.8269165
51
321.9860554
0
ARC
8
DEFAULT_150_2_778_2
10
7.0497574
20
15.4059407
40
9.5966558
50
282.4929436
51
294.8017718
0
ARC
8
DEFAULT_150_2_778_2
10
7.0240713
20
15.5295604
40
9.7229052
50
272.720493
51
282.4831415
0
ARC
8
DEFAULT_150_2_778_2
10
7.0119573
20
15.7172726
40
9.9109812
50
269.997406
51
272.7389391
0
ARC
8
DEFAULT_150_2_778_2
10
7.0072735
20
15.6070882
40
9.8007978
50
260.7067728
51
270.0247583
0
ARC
8
DEFAULT_150_2_778_2
10
6.9786245
20
15.4233054
40
9.6148008
50
249.1763583
51
260.6983969
0
ARC
8
DEFAULT_150_2_778_2
10
6.9813367
20
15.4229764
40
9.6154579
50
231.9658158
51
249.1605559
0
ARC
8
DEFAULT_150_2_778_2
10
6.9987293
20
15.4507421
40
9.6480441
50
204.8269165
51
231.9860554
0
ARC
8
DEFAULT_150_2_778_2
10
6.9538579
20
15.4253426
40
9.5966558
50
192.4929436
51
204.8017718
0
ARC
8
DEFAULT_150_2_778_2
10
7.0774776
20
15.4510287
40
9.7229052
50
182.720493
51
192.4831415
0
ARC
8
DEFAULT_150_2_778_2
10
7.2651898
20
15.4631427
40
9.9109812
50
179.997406
51
182.7389391
0
LINE
8
DEFAULT_150_2_778_2
10
-2.6457914
20
15.4635914
11
-2.6457914
21
15.4635914
0
LINE
8
DEFAULT_255_2_005
10
12.3908126
20
4.2911474
11
12.6192099
21
4.2911474
0
LINE
8
DEFAULT_255_2_005
10
12.6192099
20
4.2911474
11
12.6257355
21
4.1345321
0
LINE
8
DEFAULT_255_2_005
10
14.3706902
20
3.825217
11
14.3706902
21
2.879
0
LINE
8
DEFAULT_255_2_005
10
14.3706902
20
2.879
11
14.1292417
21
2.879
0
LINE
8
DEFAULT_255_2_005
10
14.1292417
20
2.879
11
14.1292417
21
3.8108606
0
LINE
8
DEFAULT_255_2_005
10
13.5014757
20
3.8160812
11
13.5014757
21
2.879
0
LINE
8
DEFAULT_255_2_005
10
13.5014757
20
2.879
11
13.2587221
21
2.879
0
LINE
8
DEFAULT_255_2_005
10
13.2587221
20
2.879
11
13.2587221
21
3.804335
0
LINE
8
DEFAULT_255_2_005
10
12.6322611
20
3.9100503
11
12.6322611
21
2.879
0
LINE
8
DEFAULT_255_2_005
10
12.6322611
20
2.879
11
12.3908126
21
2.879
0
LINE
8
DEFAULT_255_2_005
10
12.3908126
20
2.879
11
12.3908126
21
4.2911474
0
ARC
8
DEFAULT_255_2_005
10
13.0151789
20
3.806744
40
0.5090297
50
93.026098
51
139.9132343
0
ARC
8
DEFAULT_255_2_005
10
13.0440728
20
3.6048686
40
0.7123815
50
89.951062
51
94.4897649
0
ARC
8
DEFAULT_255_2_005
10
13.0509362
20
3.7207119
40
0.5965708
50
75.8910539
51
90.6007524
0
ARC
8
DEFAULT_255_2_005
10
13.110345
20
3.9398816
40
0.3695545
50
23.9940338
51
76.5407496
0
ARC
8
DEFAULT_255_2_005
10
13.8872156
20
3.7848182
40
0.5349514
50
118.5759625
51
145.1953557
0
ARC
8
DEFAULT_255_2_005
10
13.8664238
20
3.8246186
40
0.4900547
50
99.1480548
51
118.6669724
0
ARC
8
DEFAULT_255_2_005
10
13.895704
20
3.6610706
40
0.6561842
50
89.7790649
51
99.4017916
0
ARC
8
DEFAULT_255_2_005
10
13.908289
20
3.6878908
40
0.6294394
50
73.2646992
51
90.9152861
0
ARC
8
DEFAULT_255_2_005
10
13.9796537
20
3.9303874
40
0.376667
50
10.7564591
51
73.0388203
0
ARC
8
DEFAULT_255_2_005
10
13.5911904
20
3.8209714
40
0.7795114
50
0.3120638
51
13.3293625
0
ARC
8
DEFAULT_255_2_005
10
13.6001936
20
3.8138801
40
0.5290568
50
359.6729971
51
8.7127631
0
ARC
8
DEFAULT_255_2_005
10
13.7947671
20
3.8448162
40
0.3320444
50
8.5221129
51
22.6805005
0
ARC
8
DEFAULT_255_2_005
10
13.893528
20
3.8858814
40
0.2250863
50
22.7293056
51
42.2768719
0
ARC
8
DEFAULT_255_2_005
10
13.9135517
20
3.8985054
40
0.2018207
50
43.4493569
51
69.2722073
0
ARC
8
DEFAULT_255_2_005
10
13.8636088
20
3.7737563
40
0.3361812
50
68.8362427
51
81.9788192
0
ARC
8
DEFAULT_255_2_005
10
13.8310258
20
3.5555775
40
0.5567751
50
81.7915581
51
90.3002151
0
LINE
8
DEFAULT_255_2_005
10
13.8281085
20
4.1123449
11
13.8277574
21
4.112345
0
ARC
8
DEFAULT_255_2_005
10
13.8244076
20
3.7424841
40
0.369876
50
89.4810835
51
106.5054455
0
ARC
8
DEFAULT_255_2_005
10
13.8059049
20
3.8106358
40
0.2992804
50
106.8159899
51
132.2753283
0
ARC
8
DEFAULT_255_2_005
10
13.8129152
20
3.8031425
40
0.3095408
50
132.3024261
51
166.9931219
0
ARC
8
DEFAULT_255_2_005
10
13.9180593
20
3.7730343
40
0.4188018
50
166.2172412
51
174.1003967
0
ARC
8
DEFAULT_255_2_005
10
12.8037525
20
3.8105206
40
0.4550116
50
359.221078
51
14.4875458
0
ARC
8
DEFAULT_255_2_005
10
13.0172686
20
3.8719285
40
0.2330007
50
13.0021074
51
76.7082593
0
ARC
8
DEFAULT_255_2_005
10
12.9628424
20
3.6796818
40
0.4326997
50
75.5470401
51
90.7421543
0
ARC
8
DEFAULT_255_2_005
10
12.9518114
20
3.6846972
40
0.4276822
50
89.2730258
51
106.8381212
0
ARC
8
DEFAULT_255_2_005
10
12.9196591
20
3.8014031
40
0.3066814
50
107.4046305
51
156.6218379
0
ARC
8
DEFAULT_255_2_005
10
13.0301456
20
3.7381273
40
0.4334393
50
154.739066
51
156.631173
0
LINE
8
DEFAULT_255_2_005
10
14.7335155
20
4.2911474
11
14.9619127
21
4.2911474
0
LINE
8
DEFAULT_255_2_005
10
14.9619127
20
4.2911474
11
14.9684384
21
4.1345321
0
LINE
8
DEFAULT_255_2_005
10
16.7133931
20
3.825217
11
16.7133931
21
2.879
0
LINE
8
DEFAULT_255_2_005
10
16.7133931
20
2.879
11
16.4719446
21
2.879
0
LINE
8
DEFAULT_255_2_005
10
16.4719446
20
2.879
11
16.4719446
21
3.8108606
0
LINE
8
DEFAULT_255_2_005
10
15.8441786
20
3.8160812
11
15.8441786
21
2.879
0
LINE
8
DEFAULT_255_2_005
10
15.8441786
20
2.879
11
15.601425
21
2.879
0
LINE
8
DEFAULT_255_2_005
10
15.601425
20
2.879
11
15.601425
21
3.804335
0
LINE
8
DEFAULT_255_2_005
10
14.974964
20
3.9100503
11
14.974964
21
2.879
0
LINE
8
DEFAULT_255_2_005
10
14.974964
20
2.879
11
14.7335155
21
2.879
0
LINE
8
DEFAULT_255_2_005
10
14.7335155
20
2.879
11
14.7335155
21
4.2911474
0
ARC
8
DEFAULT_255_2_005
10
15.3578818
20
3.806744
40
0.5090297
50
93.026098
51
139.9132343
0
ARC
8
DEFAULT_255_2_005
10
15.3867757
20
3.6048686
40
0.7123815
50
89.951062
51
94.4897649
0
ARC
8
DEFAULT_255_2_005
10
15.3936391
20
3.7207119
40
0.5965708
50
75.8910539
51
90.6007524
0
ARC
8
DEFAULT_255_2_005
10
15.4530479
20
3.9398816
40
0.3695545
50
23.9940338
51
76.5407496
0
ARC
8
DEFAULT_255_2_005
10
16.2299185
20
3.7848182
40
0.5349514
50
118.5759625
51
145.1953557
0
ARC
8
DEFAULT_255_2_005
10
16.2091267
20
3.8246186
40
0.4900547
50
99.1480548
51
118.6669724
0
ARC
8
DEFAULT_255_2_005
10
16.2384069
20
3.6610706
40
0.6561842
50
89.7790649
51
99.4017916
0
ARC
8
DEFAULT_255_2_005
10
16.2509919
20
3.6878908
40
0.6294394
50
73.2646992
51
90.9152861
0
ARC
8
DEFAULT_255_2_005
10
16.3223566
20
3.9303874
40
0.376667
50
10.7564591
51
73.0388203
0
ARC
8
DEFAULT_255_2_005
10
15.9338933
20
3.8209714
40
0.7795114
50
0.3120638
51
13.3293625
0
ARC
8
DEFAULT_255_2_005
10
15.9428965
20
3.8138801
40
0.5290568
50
359.6729971
51
8.7127631
0
ARC
8
DEFAULT_255_2_005
10
16.13747
20
3.8448162
40
0.3320444
50
8.5221129
51
22.6805005
0
ARC
8
DEFAULT_255_2_005
10
16.2362309
20
3.8858814
40
0.2250863
50
22.7293056
51
42.2768719
0
ARC
8
DEFAULT_255_2_005
10
16.2562546
20
3.8985054
40
0.2018207
50
43.4493569
51
69.2722073
0
ARC
8
DEFAULT_255_2_005
10
16.2063117
20
3.7737563
40
0.3361812
50
68.8362427
51
81.9788192
0
ARC
8
DEFAULT_255_2_005
10
16.1737287
20
3.5555775
40
0.5567751
50
81.7915581
51
90.3002151
0
LINE
8
DEFAULT_255_2_005
10
16.1708113
20
4.1123449
11
16.1704603
21
4.112345
0
ARC
8
DEFAULT_255_2_005
10
16.1671105
20
3.7424841
40
0.369876
50
89.4810835
51
106.5054455
0
ARC
8
DEFAULT_255_2_005
10
16.1486078
20
3.8106358
40
0.2992804
50
106.8159899
51
132.2753283
0
ARC
8
DEFAULT_255_2_005
10
16.1556181
20
3.8031425
40
0.3095408
50
132.3024261
51
166.9931219
0
ARC
8
DEFAULT_255_2_005
10
16.2607621
20
3.7730343
40
0.4188018
50
166.2172412
51
174.1003967
0
ARC
8
DEFAULT_255_2_005
10
15.1464554
20
3.8105206
40
0.4550116
50
359.221078
51
14.4875458
0
ARC
8
DEFAULT_255_2_005
10
15.3599715
20
3.8719285
40
0.2330007
50
13.0021074
51
76.7082593
0
ARC
8
DEFAULT_255_2_005
10
15.3055452
20
3.6796818
40
0.4326997
50
75.5470401
51
90.7421543
0
ARC
8
DEFAULT_255_2_005
10
15.2945143
20
3.6846972
40
0.4276822
50
89.2730258
51
106.8381212
0
ARC
8
DEFAULT_255_2_005
10
15.262362
20
3.8014031
40
0.3066814
50
107.4046305
51
156.6218379
0
ARC
8
DEFAULT_255_2_005
10
15.3728485
20
3.7381273
40
0.4334393
50
154.739066
51
156.631173
0
ENDSEC
0
EOF