0
SECTION
2
HEADER
9
$MEASUREMENT
70
1
0
ENDSEC
0
SECTION
2
TABLES
0
TABLE
2
LTYPE
0
LTYPE
72
65
70
64
2
CONTINUOUS
3
______
73
0
40
0
0
ENDTAB
0
TABLE
2
LAYER
0
LAYER
2
DEFAULT_255_2_778
70
0
62
255
6
CONTINUOUS
0
LAYER
2
DEFAULT_255_2_005
70
0
62
255
6
CONTINUOUS
0
ENDTAB
0
ENDSEC
0
SECTION
2
ENTITIES
0
LINE
8
DEFAULT_255_2_778
10
3.508845
20
10.148655
11
13.424545
21
0.232955
0
LINE
8
DEFAULT_255_2_778
10
14.3599787
20
-0.7024787
11
12.6761787
21
-0.5153787
0
LINE
8
DEFAULT_255_2_778
10
12.6761787
20
-0.5153787
11
14.1728787
21
0.9813213
0
LINE
8
DEFAULT_255_2_778
10
14.1728787
20
0.9813213
11
14.3599787
21
-0.7024787
0
LINE
8
DEFAULT_255_2_778
10
14.3599787
20
-0.7024787
11
15.1083787
21
0.0458213
0
LINE
8
DEFAULT_255_2_778
10
15.1083787
20
0.0458213
11
15.2953787
21
-0.1411787
0
LINE
8
DEFAULT_255_2_778
10
15.2953787
20
-0.1411787
11
13.7986787
21
-1.6378787
0
LINE
8
DEFAULT_255_2_778
10
13.7986787
20
-1.6378787
11
13.6115787
21
-1.4508787
0
LINE
8
DEFAULT_255_2_778
10
13.6115787
20
-1.4508787
11
14.3599787
21
-0.7024787
0
LINE
8
DEFAULT_255_2_778
10
2.5732787
20
11.0841213
11
4.2570787
21
10.8970213
0
LINE
8
DEFAULT_255_2_778
10
4.2570787
20
10.8970213
11
2.7603787
21
9.4003213
0
LINE
8
DEFAULT_255_2_778
10
2.7603787
20
9.4003213
11
2.5732787
21
11.0841213
0
LINE
8
DEFAULT_255_2_778
10
2.5732787
20
11.0841213
11
1.8249787
21
10.3357213
0
LINE
8
DEFAULT_255_2_778
10
1.8249787
20
10.3357213
11
1.6378787
21
10.5228213
0
LINE
8
DEFAULT_255_2_778
10
1.6378787
20
10.5228213
11
3.1345787
21
12.0195213
0
LINE
8
DEFAULT_255_2_778
10
3.1345787
20
12.0195213
11
3.3216787
21
11.8324213
0
LINE
8
DEFAULT_255_2_778
10
3.3216787
20
11.8324213
11
2.5732787
21
11.0841213
0
LINE
8
DEFAULT_255_2_005
10
5.0381483
20
4.0388474
11
5.0381483
21
2.6267
0
LINE
8
DEFAULT_255_2_005
10
5.0381483
20
2.6267
11
4.7966998
21
2.6267
0
LINE
8
DEFAULT_255_2_005
10
4.7966998
20
2.6267
11
4.7966998
21
4.0388474
0
LINE
8
DEFAULT_255_2_005
10
4.7966998
20
4.0388474
11
5.0381483
21
4.0388474
0
ARC
8
DEFAULT_255_2_005
10
4.9361502
20
4.4149529
40
0.1590347
50
161.4156485
51
180.5526974
0
ARC
8
DEFAULT_255_2_005
10
4.9159624
20
4.4205066
40
0.1381345
50
138.1828947
51
160.9304331
0
ARC
8
DEFAULT_255_2_005
10
4.8980768
20
4.4360274
40
0.1144568
50
104.6368128
51
138.0036747
0
ARC
8
DEFAULT_255_2_005
10
4.9154902
20
4.3764502
40
0.1765099
50
92.0604333
51
105.219051
0
ARC
8
DEFAULT_255_2_005
10
4.9192946
20
4.3202811
40
0.2327863
50
89.9785638
51
92.4991737
0
ARC
8
DEFAULT_255_2_005
10
4.9209133
20
4.3574172
40
0.1956562
50
78.0233386
51
90.4485133
0
ARC
8
DEFAULT_255_2_005
10
4.9358748
20
4.4246036
40
0.1268295
50
55.051772
51
78.3367465
0
ARC
8
DEFAULT_255_2_005
10
4.9440351
20
4.4383109
40
0.1109256
50
42.0514041
51
54.4508958
0
ARC
8
DEFAULT_255_2_005
10
4.9220882
20
4.4181888
40
0.1406999
50
1.7493249
51
42.1497644
0
ARC
8
DEFAULT_255_2_005
10
4.8805875
20
4.4134681
40
0.1823582
50
359.9845177
51
2.8338858
0
ARC
8
DEFAULT_255_2_005
10
4.907686
20
4.4119195
40
0.1552669
50
342.1063993
51
0.5532756
0
ARC
8
DEFAULT_255_2_005
10
4.9308612
20
4.405532
40
0.1312543
50
316.7112631
51
341.6514858
0
ARC
8
DEFAULT_255_2_005
10
4.9417565
20
4.3957709
40
0.1166311
50
285.4400499
51
316.5317622
0
ARC
8
DEFAULT_255_2_005
10
4.9238714
20
4.4551949
40
0.1786777
50
272.3543423
51
285.8951402
0
ARC
8
DEFAULT_255_2_005
10
4.9195058
20
4.5148801
40
0.2384995
50
269.9701987
51
272.8132085
0
ARC
8
DEFAULT_255_2_005
10
4.9179155
20
4.4789848
40
0.2026096
50
258.8431133
51
270.4146522
0
ARC
8
DEFAULT_255_2_005
10
4.9032972
20
4.4082184
40
0.1303539
50
238.5435354
51
259.1283389
0
ARC
8
DEFAULT_255_2_005
10
4.8922197
20
4.3881278
40
0.10744
50
222.5058027
51
237.9917197
0
ARC
8
DEFAULT_255_2_005
10
4.9129595
20
4.4069906
40
0.1354747
50
184.1070273
51
222.4604015
0
ARC
8
DEFAULT_255_2_005
10
4.9566598
20
4.4132379
40
0.179537
50
179.9422615
51
185.0968382
0
LINE
8
DEFAULT_255_2_005
10
5.4244659
20
4.0388474
11
5.6528631
21
4.0388474
0
LINE
8
DEFAULT_255_2_005
10
5.6528631
20
4.0388474
11
5.6606938
21
3.8613501
0
LINE
8
DEFAULT_255_2_005
10
6.5351289
20
3.5598658
11
6.5351289
21
2.6267
0
LINE
8
DEFAULT_255_2_005
10
6.5351289
20
2.6267
11
6.2936804
21
2.6267
0
LINE
8
DEFAULT_255_2_005
10
6.2936804
20
2.6267
11
6.2936804
21
3.5611709
0
LINE
8
DEFAULT_255_2_005
10
5.6659144
20
3.6329529
11
5.6659144
21
2.6267
0
LINE
8
DEFAULT_255_2_005
10
5.6659144
20
2.6267
11
5.4244659
21
2.6267
0
LINE
8
DEFAULT_255_2_005
10
5.4244659
20
2.6267
11
5.4244659
21
4.0388474
0
ARC
8
DEFAULT_255_2_005
10
6.0839539
20
3.5344967
40
0.5347731
50
116.4596177
51
142.3236631
0
ARC
8
DEFAULT_255_2_005
10
6.0747486
20
3.5310837
40
0.5338162
50
89.9345018
51
115.4118023
0
ARC
8
DEFAULT_255_2_005
10
6.0835429
20
3.4004421
40
0.6645077
50
89.9989583
51
90.705674
0
ARC
8
DEFAULT_255_2_005
10
6.093591
20
3.4992885
40
0.5657504
50
71.65038
51
91.0164376
0
ARC
8
DEFAULT_255_2_005
10
6.1515213
20
3.691308
40
0.365298
50
13.4486896
51
70.7930504
0
ARC
8
DEFAULT_255_2_005
10
5.7774696
20
3.5726955
40
0.7572102
50
1.3249749
51
15.5954931
0
ARC
8
DEFAULT_255_2_005
10
5.4461286
20
3.5516533
40
1.0890313
50
0.4320786
51
2.0286746
0
ARC
8
DEFAULT_255_2_005
10
5.748261
20
3.559606
40
0.5454217
50
0.1643925
51
8.9347656
0
ARC
8
DEFAULT_255_2_005
10
5.953188
20
3.5929048
40
0.3378113
50
8.7536866
51
22.290023
0
ARC
8
DEFAULT_255_2_005
10
6.0618647
20
3.6377194
40
0.2202575
50
22.226207
51
42.6535513
0
ARC
8
DEFAULT_255_2_005
10
6.0721251
20
3.6416302
40
0.210101
50
43.7651334
51
71.2773119
0
ARC
8
DEFAULT_255_2_005
10
6.0307523
20
3.5268271
40
0.3321175
50
70.8748205
51
84.3175534
0
ARC
8
DEFAULT_255_2_005
10
6.011789
20
3.3671212
40
0.4929256
50
83.9622242
51
90.1535575
0
ARC
8
DEFAULT_255_2_005
10
6.0072746
20
3.4879622
40
0.3720965
50
89.5082969
51
108.7921984
0
ARC
8
DEFAULT_255_2_005
10
5.9970684
20
3.525164
40
0.3335981
50
109.1909883
51
125.3080633
0
ARC
8
DEFAULT_255_2_005
10
6.0500616
20
3.4501967
40
0.4254043
50
125.2967999
51
154.5574526
0
ENDSEC
0
EOF