0
SECTION
2
HEADER
9
$MEASUREMENT
70
1
0
ENDSEC
0
SECTION
2
TABLES
0
TABLE
2
LTYPE
0
LTYPE
72
65
70
64
2
CONTINUOUS
3
______
73
0
40
0
0
ENDTAB
0
TABLE
2
LAYER
0
LAYER
2
DEFAULT_255_2_778
70
0
62
255
6
CONTINUOUS
0
ENDTAB
0
ENDSEC
0
SECTION
2
ENTITIES
0
ARC
8
DEFAULT_255_2_778
10
15.0811462
20
44.8579684
40
44.9977784
50
250.9353047
51
258.5014799
0
ARC
8
DEFAULT_255_2_778
10
0.4812794
20
2.611744
40
0.2999084
50
179.9698256
51
250.9256662
0
LINE
8
DEFAULT_255_2_778
10
0.181371
20
2.611902
11
0.181371
21
158.860302
0
LINE
8
DEFAULT_255_2_778
10
0.181371
20
158.860302
11
9.580471
21
158.860302
0
LINE
8
DEFAULT_255_2_778
10
9.580471
20
158.860302
11
9.580471
21
147.060402
0
LINE
8
DEFAULT_255_2_778
10
4.8812073
20
9.6223218
11
4.8812073
21
2.5730218
0
LINE
8
DEFAULT_255_2_778
10
4.8812073
20
2.5730218
11
3.8438073
21
2.8367218
0
LINE
8
DEFAULT_255_2_778
10
3.8438073
20
2.8367218
11
2.8129073
21
3.1259218
0
LINE
8
DEFAULT_255_2_778
10
2.8129073
20
3.1259218
11
1.7895073
21
3.4405218
0
LINE
8
DEFAULT_255_2_778
10
1.7895073
20
3.4405218
11
1.2810073
21
3.6072218
0
LINE
8
DEFAULT_255_2_778
10
1.2810073
20
3.6072218
11
1.2810073
21
10.6192218
0
ARC
8
DEFAULT_255_2_778
10
15.0810638
20
44.8741763
40
45.0138081
50
264.9226986
51
269.9999895
0
ARC
8
DEFAULT_255_2_778
10
15.0810473
20
44.8741774
40
45.0138092
50
270.0000105
51
275.0773014
0
LINE
8
DEFAULT_255_2_778
10
1.6810556
20
3.4754931
11
1.6810556
21
10.4922931
0
LINE
8
DEFAULT_255_2_778
10
1.6810556
20
149.3603931
11
1.6810556
21
155.3603931
0
LINE
8
DEFAULT_255_2_778
10
1.6810556
20
155.3603931
11
4.8809556
21
155.3603931
0
LINE
8
DEFAULT_255_2_778
10
4.8809556
20
155.3603931
11
4.8809556
21
149.3603931
0
LINE
8
DEFAULT_255_2_778
10
27.9811556
20
10.3451931
11
27.9811556
21
10.3398931
0
LINE
8
DEFAULT_255_2_778
10
27.9811556
20
10.3398931
11
26.8617556
21
10.0204931
0
LINE
8
DEFAULT_255_2_778
10
26.8617556
20
10.0204931
11
25.7343556
21
9.7302931
0
LINE
8
DEFAULT_255_2_778
10
25.7343556
20
9.7302931
11
25.2813556
21
9.6222931
0
LINE
8
DEFAULT_255_2_778
10
25.2813556
20
9.6222931
11
25.2813556
21
2.5730931
0
LINE
8
DEFAULT_255_2_778
10
25.2813556
20
2.5730931
11
26.3187556
21
2.8367931
0
LINE
8
DEFAULT_255_2_778
10
26.3187556
20
2.8367931
11
27.3496556
21
3.1259931
0
LINE
8
DEFAULT_255_2_778
10
27.3496556
20
3.1259931
11
28.3730556
21
3.4405931
0
LINE
8
DEFAULT_255_2_778
10
28.3730556
20
3.4405931
11
28.8815556
21
3.6072931
0
LINE
8
DEFAULT_255_2_778
10
28.8815556
20
3.6072931
11
28.8815556
21
10.6248931
0
LINE
8
DEFAULT_255_2_778
10
21.0162556
20
0.7561931
11
19.6922556
21
0.5978931
0
LINE
8
DEFAULT_255_2_778
10
19.6922556
20
0.5978931
11
18.3651556
21
0.4793931
0
LINE
8
DEFAULT_255_2_778
10
18.3651556
20
0.4793931
11
18.1738556
21
0.4653931
0
LINE
8
DEFAULT_255_2_778
10
18.1738556
20
0.4653931
11
11.9884556
21
0.4653931
0
LINE
8
DEFAULT_255_2_778
10
11.9884556
20
0.4653931
11
11.8280556
21
0.3084931
0
LINE
8
DEFAULT_255_2_778
10
11.8280556
20
0.3084931
11
11.6322556
21
0.1772931
0
LINE
8
DEFAULT_255_2_778
10
11.6322556
20
0.1772931
11
11.3976556
21
0.0830931
0
LINE
8
DEFAULT_255_2_778
10
11.3976556
20
0.0830931
11
11.0973556
21
0.0369931
0
LINE
8
DEFAULT_255_2_778
10
19.0647556
20
0.0369931
11
19.0657556
21
0.0369931
0
LINE
8
DEFAULT_255_2_778
10
19.0657556
20
0.0369931
11
19.9018556
21
0.1192931
0
LINE
8
DEFAULT_255_2_778
10
19.9018556
20
0.1192931
11
20.7360556
21
0.2171931
0
LINE
8
DEFAULT_255_2_778
10
20.7360556
20
0.2171931
11
21.5684556
21
0.3303931
0
LINE
8
DEFAULT_255_2_778
10
21.5684556
20
0.3303931
11
22.3987556
21
0.4592931
0
LINE
8
DEFAULT_255_2_778
10
22.3987556
20
0.4592931
11
23.2263556
21
0.6037931
0
LINE
8
DEFAULT_255_2_778
10
23.2263556
20
0.6037931
11
24.0510556
21
0.7635931
0
LINE
8
DEFAULT_255_2_778
10
24.0669556
20
2.3840931
11
24.0510556
21
2.3840931
0
LINE
8
DEFAULT_255_2_778
10
19.8311815
20
7.4161468
11
21.0415815
21
7.4161468
0
LINE
8
DEFAULT_255_2_778
10
21.0415815
20
7.4161468
11
20.8778815
21
7.3780468
0
LINE
8
DEFAULT_255_2_778
10
20.8778815
20
7.3780468
11
20.8267815
21
7.3547468
0
LINE
8
DEFAULT_255_2_778
10
20.8267815
20
7.3547468
11
20.8034815
21
7.3386468
0
LINE
8
DEFAULT_255_2_778
10
20.8034815
20
7.3386468
11
20.7833815
21
7.3193468
0
LINE
8
DEFAULT_255_2_778
10
20.7833815
20
7.3193468
11
20.7666815
21
7.2962468
0
LINE
8
DEFAULT_255_2_778
10
20.7666815
20
7.2962468
11
20.7539815
21
7.2711468
0
LINE
8
DEFAULT_255_2_778
10
20.7539815
20
7.2711468
11
20.7444815
21
7.2444468
0
LINE
8
DEFAULT_255_2_778
10
20.7444815
20
7.2444468
11
20.7373815
21
7.2171468
0
LINE
8
DEFAULT_255_2_778
10
20.7373815
20
7.2171468
11
20.7320815
21
7.1896468
0
LINE
8
DEFAULT_255_2_778
10
20.7320815
20
7.1896468
11
20.7328815
21
3.9053468
0
LINE
8
DEFAULT_255_2_778
10
20.7328815
20
3.9053468
11
20.7346815
21
3.7836468
0
LINE
8
DEFAULT_255_2_778
10
20.7346815
20
3.7836468
11
20.7362815
21
3.6871468
0
LINE
8
DEFAULT_255_2_778
10
20.7362815
20
3.6871468
11
20.7381815
21
3.5915468
0
LINE
8
DEFAULT_255_2_778
10
20.7381815
20
3.5915468
11
20.7394815
21
3.5206468
0
LINE
8
DEFAULT_255_2_778
10
20.7394815
20
3.5206468
11
20.7410815
21
3.4505468
0
LINE
8
DEFAULT_255_2_778
10
20.7410815
20
3.4505468
11
20.7426815
21
3.3809468
0
LINE
8
DEFAULT_255_2_778
10
20.7426815
20
3.3809468
11
20.7444815
21
3.3121468
0
LINE
8
DEFAULT_255_2_778
10
20.7444815
20
3.3121468
11
20.7463815
21
3.2439468
0
LINE
8
DEFAULT_255_2_778
10
20.7463815
20
3.2439468
11
20.7505815
21
3.1092468
0
LINE
8
DEFAULT_255_2_778
10
20.7505815
20
3.1092468
11
20.7553815
21
2.9772468
0
LINE
8
DEFAULT_255_2_778
10
20.7553815
20
2.9772468
11
20.7603815
21
2.8478468
0
LINE
8
DEFAULT_255_2_778
10
20.7603815
20
2.8478468
11
20.7656815
21
2.7211468
0
LINE
8
DEFAULT_255_2_778
10
20.7656815
20
2.7211468
11
20.7743815
21
2.5356468
0
LINE
8
DEFAULT_255_2_778
10
20.7743815
20
2.5356468
11
20.7841815
21
2.3559468
0
LINE
8
DEFAULT_255_2_778
10
20.7841815
20
2.3559468
11
20.7947815
21
2.1821468
0
LINE
8
DEFAULT_255_2_778
10
20.7947815
20
2.1821468
11
20.8066815
21
2.0141468
0
LINE
8
DEFAULT_255_2_778
10
20.8066815
20
2.0141468
11
20.8182815
21
1.8699468
0
LINE
8
DEFAULT_255_2_778
10
20.8182815
20
1.8699468
11
20.8312815
21
1.7318468
0
LINE
8
DEFAULT_255_2_778
10
20.8312815
20
1.7318468
11
20.8497815
21
1.5680468
0
LINE
8
DEFAULT_255_2_778
10
20.8497815
20
1.5680468
11
20.8748815
21
1.3841468
0
LINE
8
DEFAULT_255_2_778
10
20.8748815
20
1.3841468
11
20.9079815
21
1.1868468
0
LINE
8
DEFAULT_255_2_778
10
20.9079815
20
1.1868468
11
20.9450815
21
1.0082468
0
LINE
8
DEFAULT_255_2_778
10
20.9450815
20
1.0082468
11
21.0164815
21
0.7552468
0
LINE
8
DEFAULT_255_2_778
10
21.0164815
20
0.7552468
11
19.8311815
21
0.7552468
0
LINE
8
DEFAULT_255_2_778
10
19.8311815
20
0.7552468
11
19.8311815
21
1.0616468
0
LINE
8
DEFAULT_255_2_778
10
11.9883815
20
0.4652468
11
10.6590815
21
0.5785468
0
LINE
8
DEFAULT_255_2_778
10
10.6590815
20
0.5785468
11
9.3353815
21
0.7309468
0
LINE
8
DEFAULT_255_2_778
10
9.3353815
20
0.7309468
11
9.1459815
21
0.7560468
0
LINE
8
DEFAULT_255_2_778
10
6.1111815
20
0.7632468
11
6.9358815
21
0.6033468
0
LINE
8
DEFAULT_255_2_778
10
6.9358815
20
0.6033468
11
7.7634815
21
0.4589468
0
LINE
8
DEFAULT_255_2_778
10
7.7634815
20
0.4589468
11
8.5934815
21
0.3300468
0
LINE
8
DEFAULT_255_2_778
10
8.5934815
20
0.3300468
11
9.4258815
21
0.2168468
0
LINE
8
DEFAULT_255_2_778
10
9.4258815
20
0.2168468
11
10.2603815
21
0.1189468
0
LINE
8
DEFAULT_255_2_778
10
10.2603815
20
0.1189468
11
11.0964815
21
0.0366468
0
ARC
8
DEFAULT_255_2_778
10
15.0875262
20
154.5631258
40
2.2436706
50
359.9271976
51
22.19754
0
ARC
8
DEFAULT_255_2_778
10
15.079338
20
154.5576169
40
2.2533342
50
22.248575
51
79.7568595
0
ARC
8
DEFAULT_255_2_778
10
15.0821625
20
154.5463972
40
2.2638779
50
79.8776982
51
90.0244846
0
ARC
8
DEFAULT_255_2_778
10
15.0783365
20
154.5663568
40
2.2439199
50
89.9270115
51
112.196291
0
ARC
8
DEFAULT_255_2_778
10
15.0836941
20
154.5584563
40
2.2532599
50
112.2465327
51
169.8931397
0
ARC
8
DEFAULT_255_2_778
10
15.0953042
20
154.5612219
40
2.2642095
50
170.0135941
51
180.0239645
0
ARC
8
DEFAULT_255_2_778
10
15.0748784
20
153.7573082
40
2.2437852
50
179.9267988
51
202.1970627
0
ARC
8
DEFAULT_255_2_778
10
15.0828779
20
153.7627806
40
2.2532603
50
202.2490552
51
259.7602599
0
ARC
8
DEFAULT_255_2_778
10
15.0802215
20
153.7745179
40
2.2643433
50
259.8792012
51
270.0246333
0
ARC
8
DEFAULT_255_2_778
10
15.0840513
20
153.7539838
40
2.2438108
50
269.927066
51
292.1959334
0
ARC
8
DEFAULT_255_2_778
10
15.0786444
20
153.7619347
40
2.253216
50
292.246856
51
349.7581538
0
ARC
8
DEFAULT_255_2_778
10
15.0670584
20
153.7592043
40
2.2641369
50
349.8782785
51
0.0245604
0
LINE
8
DEFAULT_255_2_778
10
24.079895
20
0.7690749
11
24.079895
21
9.1209749
0
LINE
8
DEFAULT_255_2_778
10
24.079895
20
9.1209749
11
19.398595
21
9.1209749
0
LINE
8
DEFAULT_255_2_778
10
19.398595
20
9.1209749
11
19.582295
21
8.9912749
0
LINE
8
DEFAULT_255_2_778
10
19.582295
20
8.9912749
11
19.707695
21
8.8565749
0
LINE
8
DEFAULT_255_2_778
10
19.707695
20
8.8565749
11
19.786795
21
8.7372749
0
LINE
8
DEFAULT_255_2_778
10
19.786795
20
8.7372749
11
19.840495
21
8.6266749
0
LINE
8
DEFAULT_255_2_778
10
19.840495
20
8.6266749
11
19.874595
21
8.5300749
0
LINE
8
DEFAULT_255_2_778
10
19.874595
20
8.5300749
11
19.894495
21
8.4504749
0
LINE
8
DEFAULT_255_2_778
10
19.894495
20
8.4504749
11
19.904995
21
8.3898749
0
LINE
8
DEFAULT_255_2_778
10
19.904995
20
8.3898749
11
19.910095
21
8.3491749
0
LINE
8
DEFAULT_255_2_778
10
19.910095
20
8.3491749
11
19.913495
21
8.3083749
0
LINE
8
DEFAULT_255_2_778
10
19.913495
20
8.3083749
11
19.915395
21
8.2080749
0
LINE
8
DEFAULT_255_2_778
10
19.915395
20
8.2080749
11
19.831495
21
8.0607749
0
LINE
8
DEFAULT_255_2_778
10
19.831495
20
8.0607749
11
19.831495
21
1.0630749
0
LINE
8
DEFAULT_255_2_778
10
18.173895
20
0.4653749
11
18.354295
21
0.2920749
0
LINE
8
DEFAULT_255_2_778
10
18.354295
20
0.2920749
11
18.590295
21
0.1470749
0
LINE
8
DEFAULT_255_2_778
10
18.590295
20
0.1470749
11
18.907295
21
0.0517749
0
LINE
8
DEFAULT_255_2_778
10
18.907295
20
0.0517749
11
19.065795
21
0.0367749
0
LINE
8
DEFAULT_255_2_778
10
6.081095
20
158.8602749
11
6.081095
21
147.0603749
0
LINE
8
DEFAULT_255_2_778
10
10.331095
20
7.4161749
11
9.120595
21
7.4161749
0
LINE
8
DEFAULT_255_2_778
10
9.120595
20
7.4161749
11
6.111295
21
7.9837749
0
LINE
8
DEFAULT_255_2_778
10
6.111295
20
7.9837749
11
6.082395
21
7.9837749
0
LINE
8
DEFAULT_255_2_778
10
6.082395
20
7.9837749
11
6.082395
21
8.0496749
0
LINE
8
DEFAULT_255_2_778
10
12.831095
20
154.5602749
11
12.831095
21
153.7601749
0
LINE
8
DEFAULT_255_2_778
10
17.331195
20
153.7601749
11
17.331195
21
154.5602749
0
LINE
8
DEFAULT_255_2_778
10
28.9809303
20
129.4102614
11
18.8810303
21
129.4102614
0
LINE
8
DEFAULT_255_2_778
10
18.8810303
20
129.4102614
11
18.8810303
21
127.9103614
0
LINE
8
DEFAULT_255_2_778
10
18.8810303
20
127.9103614
11
28.9809303
21
127.9103614
0
LINE
8
DEFAULT_255_2_778
10
28.9809303
20
127.9103614
11
28.9809303
21
129.4102614
0
LINE
8
DEFAULT_255_2_778
10
28.9809303
20
122.8102614
11
18.8810303
21
122.8102614
0
LINE
8
DEFAULT_255_2_778
10
18.8810303
20
122.8102614
11
18.8810303
21
121.3103614
0
LINE
8
DEFAULT_255_2_778
10
18.8810303
20
121.3103614
11
28.9809303
21
121.3103614
0
LINE
8
DEFAULT_255_2_778
10
28.9809303
20
121.3103614
11
28.9809303
21
122.8102614
0
LINE
8
DEFAULT_255_2_778
10
28.9809303
20
106.4103614
11
18.8810303
21
106.4103614
0
LINE
8
DEFAULT_255_2_778
10
18.8810303
20
106.4103614
11
18.8810303
21
104.9104614
0
LINE
8
DEFAULT_255_2_778
10
18.8810303
20
104.9104614
11
28.9809303
21
104.9104614
0
LINE
8
DEFAULT_255_2_778
10
28.9809303
20
104.9104614
11
28.9809303
21
106.4103614
0
LINE
8
DEFAULT_255_2_778
10
28.9809303
20
99.8102614
11
18.8810303
21
99.8102614
0
LINE
8
DEFAULT_255_2_778
10
18.8810303
20
99.8102614
11
18.8810303
21
98.3103614
0
LINE
8
DEFAULT_255_2_778
10
18.8810303
20
98.3103614
11
28.9809303
21
98.3103614
0
LINE
8
DEFAULT_255_2_778
10
28.9809303
20
98.3103614
11
28.9809303
21
99.8102614
0
LINE
8
DEFAULT_255_2_778
10
28.9809303
20
83.4103614
11
18.8810303
21
83.4103614
0
LINE
8
DEFAULT_255_2_778
10
18.8810303
20
83.4103614
11
18.8810303
21
81.9104614
0
LINE
8
DEFAULT_255_2_778
10
18.8810303
20
81.9104614
11
28.9809303
21
81.9104614
0
LINE
8
DEFAULT_255_2_778
10
28.9809303
20
81.9104614
11
28.9809303
21
83.4103614
0
LINE
8
DEFAULT_255_2_778
10
28.9809303
20
76.8103614
11
18.8810303
21
76.8103614
0
LINE
8
DEFAULT_255_2_778
10
18.8810303
20
76.8103614
11
18.8810303
21
75.3104614
0
LINE
8
DEFAULT_255_2_778
10
18.8810303
20
75.3104614
11
28.9809303
21
75.3104614
0
LINE
8
DEFAULT_255_2_778
10
28.9809303
20
75.3104614
11
28.9809303
21
76.8103614
0
LINE
8
DEFAULT_255_2_778
10
28.9809303
20
60.4101614
11
18.8810303
21
60.4101614
0
LINE
8
DEFAULT_255_2_778
10
18.8810303
20
60.4101614
11
18.8810303
21
58.9102614
0
LINE
8
DEFAULT_255_2_778
10
18.8810303
20
58.9102614
11
28.9809303
21
58.9102614
0
LINE
8
DEFAULT_255_2_778
10
28.9809303
20
58.9102614
11
28.9809303
21
60.4101614
0
LINE
8
DEFAULT_255_2_778
10
28.9809303
20
53.8103614
11
18.8810303
21
53.8103614
0
LINE
8
DEFAULT_255_2_778
10
18.8810303
20
53.8103614
11
18.8810303
21
52.3104614
0
LINE
8
DEFAULT_255_2_778
10
18.8810303
20
52.3104614
11
28.9809303
21
52.3104614
0
LINE
8
DEFAULT_255_2_778
10
28.9809303
20
52.3104614
11
28.9809303
21
53.8103614
0
LINE
8
DEFAULT_255_2_778
10
28.6812293
20
127.6603229
11
19.0811293
21
127.6603229
0
LINE
8
DEFAULT_255_2_778
10
19.0811293
20
127.6603229
11
19.0811293
21
123.0603229
0
LINE
8
DEFAULT_255_2_778
10
19.0811293
20
123.0603229
11
28.6810293
21
123.0603229
0
LINE
8
DEFAULT_255_2_778
10
28.6810293
20
123.0603229
11
28.6810293
21
127.6603229
0
LINE
8
DEFAULT_255_2_778
10
28.6812293
20
104.6601229
11
19.0811293
21
104.6601229
0
LINE
8
DEFAULT_255_2_778
10
19.0811293
20
104.6601229
11
19.0811293
21
100.0601229
0
LINE
8
DEFAULT_255_2_778
10
19.0811293
20
100.0601229
11
28.6810293
21
100.0601229
0
LINE
8
DEFAULT_255_2_778
10
28.6810293
20
100.0601229
11
28.6810293
21
104.6601229
0
LINE
8
DEFAULT_255_2_778
10
28.6812293
20
81.6601229
11
19.0811293
21
81.6601229
0
LINE
8
DEFAULT_255_2_778
10
19.0811293
20
81.6601229
11
19.0811293
21
77.0601229
0
LINE
8
DEFAULT_255_2_778
10
19.0811293
20
77.0601229
11
28.6810293
21
77.0601229
0
LINE
8
DEFAULT_255_2_778
10
28.6810293
20
77.0601229
11
28.6810293
21
81.6601229
0
LINE
8
DEFAULT_255_2_778
10
28.6812293
20
58.6602229
11
19.0811293
21
58.6602229
0
LINE
8
DEFAULT_255_2_778
10
19.0811293
20
58.6602229
11
19.0811293
21
54.0602229
0
LINE
8
DEFAULT_255_2_778
10
19.0811293
20
54.0602229
11
28.6810293
21
54.0602229
0
LINE
8
DEFAULT_255_2_778
10
28.6810293
20
54.0602229
11
28.6810293
21
58.6602229
0
LINE
8
DEFAULT_255_2_778
10
6.0823847
20
9.1210093
11
10.7636847
21
9.1210093
0
LINE
8
DEFAULT_255_2_778
10
10.7636847
20
9.1210093
11
10.5800847
21
8.9913093
0
LINE
8
DEFAULT_255_2_778
10
10.5800847
20
8.9913093
11
10.4545847
21
8.8566093
0
LINE
8
DEFAULT_255_2_778
10
10.4545847
20
8.8566093
11
10.3754847
21
8.7373093
0
LINE
8
DEFAULT_255_2_778
10
10.3754847
20
8.7373093
11
10.3217847
21
8.6267093
0
LINE
8
DEFAULT_255_2_778
10
10.3217847
20
8.6267093
11
10.2879847
21
8.5301093
0
LINE
8
DEFAULT_255_2_778
10
10.2879847
20
8.5301093
11
10.2680847
21
8.4505093
0
LINE
8
DEFAULT_255_2_778
10
10.2680847
20
8.4505093
11
10.2574847
21
8.3899093
0
LINE
8
DEFAULT_255_2_778
10
10.2574847
20
8.3899093
11
10.2524847
21
8.3492093
0
LINE
8
DEFAULT_255_2_778
10
10.2524847
20
8.3492093
11
10.2490847
21
8.3084093
0
LINE
8
DEFAULT_255_2_778
10
10.2490847
20
8.3084093
11
10.2471847
21
8.2081093
0
LINE
8
DEFAULT_255_2_778
10
10.2471847
20
8.2081093
11
10.3310847
21
8.0608093
0
LINE
8
DEFAULT_255_2_778
10
10.3310847
20
8.0608093
11
10.3310847
21
0.7567093
0
LINE
8
DEFAULT_255_2_778
10
10.3310847
20
0.7567093
11
9.1456847
21
0.7567093
0
LINE
8
DEFAULT_255_2_778
10
9.1456847
20
0.7567093
11
9.1906847
21
0.9046093
0
LINE
8
DEFAULT_255_2_778
10
9.1906847
20
0.9046093
11
9.2306847
21
1.0713093
0
LINE
8
DEFAULT_255_2_778
10
9.2306847
20
1.0713093
11
9.2663847
21
1.2567093
0
LINE
8
DEFAULT_255_2_778
10
9.2663847
20
1.2567093
11
9.2935847
21
1.4303093
0
LINE
8
DEFAULT_255_2_778
10
9.2935847
20
1.4303093
11
9.3142847
21
1.5856093
0
LINE
8
DEFAULT_255_2_778
10
9.3142847
20
1.5856093
11
9.3324847
21
1.7505093
0
LINE
8
DEFAULT_255_2_778
10
9.3324847
20
1.7505093
11
9.3422847
21
1.8542093
0
LINE
8
DEFAULT_255_2_778
10
9.3422847
20
1.8542093
11
9.3512847
21
1.9613093
0
LINE
8
DEFAULT_255_2_778
10
9.3512847
20
1.9613093
11
9.3597847
21
2.0714093
0
LINE
8
DEFAULT_255_2_778
10
9.3597847
20
2.0714093
11
9.3687847
21
2.2032093
0
LINE
8
DEFAULT_255_2_778
10
9.3687847
20
2.2032093
11
9.3779847
21
2.3579093
0
LINE
8
DEFAULT_255_2_778
10
9.3779847
20
2.3579093
11
9.3824847
21
2.4371093
0
LINE
8
DEFAULT_255_2_778
10
9.3824847
20
2.4371093
11
9.3877847
21
2.5376093
0
LINE
8
DEFAULT_255_2_778
10
9.3877847
20
2.5376093
11
9.3928847
21
2.6400093
0
LINE
8
DEFAULT_255_2_778
10
9.3928847
20
2.6400093
11
9.3975847
21
2.7440093
0
LINE
8
DEFAULT_255_2_778
10
9.3975847
20
2.7440093
11
9.4020847
21
2.8498093
0
LINE
8
DEFAULT_255_2_778
10
9.4020847
20
2.8498093
11
9.4063847
21
2.9575093
0
LINE
8
DEFAULT_255_2_778
10
9.4063847
20
2.9575093
11
9.4102847
21
3.0668093
0
LINE
8
DEFAULT_255_2_778
10
9.4102847
20
3.0668093
11
9.4131847
21
3.1557093
0
LINE
8
DEFAULT_255_2_778
10
9.4131847
20
3.1557093
11
9.4158847
21
3.2456093
0
LINE
8
DEFAULT_255_2_778
10
9.4158847
20
3.2456093
11
9.4182847
21
3.3366093
0
LINE
8
DEFAULT_255_2_778
10
9.4182847
20
3.3366093
11
9.4203847
21
3.4290093
0
LINE
8
DEFAULT_255_2_778
10
9.4203847
20
3.4290093
11
9.4227847
21
3.5459093
0
LINE
8
DEFAULT_255_2_778
10
9.4227847
20
3.5459093
11
9.4253847
21
3.6888093
0
LINE
8
DEFAULT_255_2_778
10
9.4253847
20
3.6888093
11
9.4298847
21
3.9804093
0
LINE
8
DEFAULT_255_2_778
10
9.4298847
20
3.9804093
11
9.4430847
21
4.8903093
0
LINE
8
DEFAULT_255_2_778
10
9.4430847
20
4.8903093
11
9.4414847
21
7.0792093
0
LINE
8
DEFAULT_255_2_778
10
9.4414847
20
7.0792093
11
9.4393847
21
7.1072093
0
LINE
8
DEFAULT_255_2_778
10
9.4393847
20
7.1072093
11
9.4367847
21
7.1353093
0
LINE
8
DEFAULT_255_2_778
10
9.4367847
20
7.1353093
11
9.4335847
21
7.1633093
0
LINE
8
DEFAULT_255_2_778
10
9.4335847
20
7.1633093
11
9.4293847
21
7.1911093
0
LINE
8
DEFAULT_255_2_778
10
9.4293847
20
7.1911093
11
9.4240847
21
7.2186093
0
LINE
8
DEFAULT_255_2_778
10
9.4240847
20
7.2186093
11
9.4168847
21
7.2459093
0
LINE
8
DEFAULT_255_2_778
10
9.4168847
20
7.2459093
11
9.4073847
21
7.2726093
0
LINE
8
DEFAULT_255_2_778
10
9.4073847
20
7.2726093
11
9.3946847
21
7.2977093
0
LINE
8
DEFAULT_255_2_778
10
9.3946847
20
7.2977093
11
9.3779847
21
7.3205093
0
LINE
8
DEFAULT_255_2_778
10
9.3779847
20
7.3205093
11
9.3578847
21
7.3400093
0
LINE
8
DEFAULT_255_2_778
10
9.3578847
20
7.3400093
11
9.3097847
21
7.3689093
0
LINE
8
DEFAULT_255_2_778
10
9.3097847
20
7.3689093
11
9.1200847
21
7.4176093
0
LINE
8
DEFAULT_255_2_778
10
21.0416847
20
7.4162093
11
24.0509847
21
7.9838093
0
LINE
8
DEFAULT_255_2_778
10
24.0509847
20
7.9838093
11
24.0798847
21
7.9838093
0
LINE
8
DEFAULT_255_2_778
10
24.0798847
20
7.9838093
11
24.0798847
21
8.0497093
0
LINE
8
DEFAULT_255_2_778
10
24.0811847
20
158.8603093
11
24.0811847
21
147.0604093
0
LINE
8
DEFAULT_255_2_778
10
28.4811847
20
10.4978093
11
28.4811847
21
3.4755093
0
LINE
8
DEFAULT_255_2_778
10
28.4811847
20
149.3604093
11
28.4811847
21
155.3604093
0
LINE
8
DEFAULT_255_2_778
10
28.4811847
20
155.3604093
11
25.2810847
21
155.3604093
0
LINE
8
DEFAULT_255_2_778
10
25.2810847
20
155.3604093
11
25.2810847
21
149.3604093
0
ARC
8
DEFAULT_255_2_778
10
15.0797284
20
44.8638054
40
45.003765
50
281.4987083
51
289.0639986
0
ARC
8
DEFAULT_255_2_778
10
29.6810515
20
2.6119428
40
0.3000904
50
289.0586639
51
359.992203
0
LINE
8
DEFAULT_255_2_778
10
29.9811418
20
2.611902
11
29.9811418
21
158.860302
0
LINE
8
DEFAULT_255_2_778
10
29.9811418
20
158.860302
11
20.5810418
21
158.860302
0
LINE
8
DEFAULT_255_2_778
10
20.5810418
20
158.860302
11
20.5810418
21
147.060402
0
ARC
8
DEFAULT_255_2_778
10
0.4733364
20
11.1972202
40
0.2922787
50
179.9896864
51
250.995431
0
ARC
8
DEFAULT_255_2_778
10
15.0794878
20
53.4417578
40
44.9906075
50
250.9274934
51
258.154294
0
ARC
8
DEFAULT_255_2_778
10
5.7824024
20
9.1157013
40
0.2999554
50
359.9754509
51
78.1579306
0
ARC
8
DEFAULT_255_2_778
10
15.0848977
20
53.4400881
40
44.9833201
50
281.8446984
51
289.05918
0
ARC
8
DEFAULT_255_2_778
10
29.6887071
20
11.2026312
40
0.2926506
50
286.9361055
51
359.9885623
0
LINE
8
DEFAULT_255_2_778
10
24.0798577
20
9.1208728
11
24.0821577
21
9.1589728
0
LINE
8
DEFAULT_255_2_778
10
24.0821577
20
9.1589728
11
24.1004577
21
9.2301728
0
LINE
8
DEFAULT_255_2_778
10
24.1004577
20
9.2301728
11
24.1467577
21
9.3100728
0
LINE
8
DEFAULT_255_2_778
10
24.1467577
20
9.3100728
11
24.2557577
21
9.3944728
0
LINE
8
DEFAULT_255_2_778
10
24.2557577
20
9.3944728
11
24.3181577
21
9.4147728
0
LINE
8
DEFAULT_255_2_778
10
20.5809577
20
149.3373728
11
9.5801577
21
149.3373728
0
LINE
8
DEFAULT_255_2_778
10
0.1810577
20
149.3600728
11
6.0809577
21
149.3600728
0
LINE
8
DEFAULT_255_2_778
10
24.0811577
20
149.3600728
11
29.9810577
21
149.3600728
0
LINE
8
DEFAULT_255_2_778
10
20.5809577
20
158.5601728
11
9.5801577
21
158.5601728
0
LINE
8
DEFAULT_255_2_778
10
6.0823577
20
9.1155728
11
6.0823577
21
0.7690728
0
ARC
8
DEFAULT_255_2_778
10
9.3299175
20
112.3615825
40
0.5987939
50
89.8748857
51
180.1251076
0
ARC
8
DEFAULT_255_2_778
10
9.3327088
20
112.3618585
40
0.5985184
50
359.8484135
51
90.142038
0
ARC
8
DEFAULT_255_2_778
10
9.3327938
20
112.3587062
40
0.5984333
50
269.8498027
51
0.1501973
0
ARC
8
DEFAULT_255_2_778
10
9.3296415
20
112.3587912
40
0.5985184
50
179.857962
51
270.1515865
0
LINE
8
DEFAULT_255_2_778
10
8.731125
20
112.360275
11
8.731125
21
112.360275
0
ARC
8
DEFAULT_255_2_778
10
9.3299175
20
89.3615825
40
0.5987939
50
89.8748857
51
180.1251076
0
ARC
8
DEFAULT_255_2_778
10
9.3327088
20
89.3618585
40
0.5985184
50
359.8484135
51
90.142038
0
ARC
8
DEFAULT_255_2_778
10
9.3327938
20
89.3587062
40
0.5984333
50
269.8498027
51
0.1501973
0
ARC
8
DEFAULT_255_2_778
10
9.3296415
20
89.3587912
40
0.5985184
50
179.857962
51
270.1515865
0
LINE
8
DEFAULT_255_2_778
10
8.731125
20
89.360275
11
8.731125
21
89.360275
0
ARC
8
DEFAULT_255_2_778
10
9.3299175
20
135.3615825
40
0.5987939
50
89.8748857
51
180.1251076
0
ARC
8
DEFAULT_255_2_778
10
9.3327088
20
135.3618585
40
0.5985184
50
359.8484135
51
90.142038
0
ARC
8
DEFAULT_255_2_778
10
9.3327938
20
135.3587062
40
0.5984333
50
269.8498027
51
0.1501973
0
ARC
8
DEFAULT_255_2_778
10
9.3296415
20
135.3587912
40
0.5985184
50
179.857962
51
270.1515865
0
LINE
8
DEFAULT_255_2_778
10
8.731125
20
135.360275
11
8.731125
21
135.360275
0
ARC
8
DEFAULT_255_2_778
10
20.8300092
20
135.3616039
40
0.5987724
50
89.8823921
51
180.1271659
0
ARC
8
DEFAULT_255_2_778
10
20.8328003
20
135.361837
40
0.5985401
50
359.8504789
51
90.1495306
0
ARC
8
DEFAULT_255_2_778
10
20.8328853
20
135.3587278
40
0.598455
50
269.8423158
51
0.1481289
0
ARC
8
DEFAULT_255_2_778
10
20.8297331
20
135.3587697
40
0.5984966
50
179.8558963
51
270.1440942
0
LINE
8
DEFAULT_255_2_778
10
20.2312382
20
135.360275
11
20.2312382
21
135.360275
0
ARC
8
DEFAULT_255_2_778
10
20.8300092
20
112.3616039
40
0.5987724
50
89.8823921
51
180.1271659
0
ARC
8
DEFAULT_255_2_778
10
20.8328003
20
112.361837
40
0.5985401
50
359.8504789
51
90.1495306
0
ARC
8
DEFAULT_255_2_778
10
20.8328853
20
112.3587278
40
0.598455
50
269.8423158
51
0.1481289
0
ARC
8
DEFAULT_255_2_778
10
20.8297331
20
112.3587697
40
0.5984966
50
179.8558963
51
270.1440942
0
LINE
8
DEFAULT_255_2_778
10
20.2312382
20
112.360275
11
20.2312382
21
112.360275
0
ARC
8
DEFAULT_255_2_778
10
9.3299175
20
66.3613825
40
0.5987939
50
89.8748857
51
180.1251076
0
ARC
8
DEFAULT_255_2_778
10
9.3327088
20
66.3616585
40
0.5985184
50
359.8484135
51
90.142038
0
ARC
8
DEFAULT_255_2_778
10
9.3327938
20
66.3585062
40
0.5984333
50
269.8498027
51
0.1501973
0
ARC
8
DEFAULT_255_2_778
10
9.3296415
20
66.3585912
40
0.5985184
50
179.857962
51
270.1515865
0
LINE
8
DEFAULT_255_2_778
10
8.731125
20
66.360075
11
8.731125
21
66.360075
0
LINE
8
DEFAULT_255_2_778
10
1.8572306
20
107.2468993
11
1.3013306
21
107.2468993
0
LINE
8
DEFAULT_255_2_778
10
1.3013306
20
107.2468993
11
1.3013306
21
107.2868993
0
LINE
8
DEFAULT_255_2_778
10
1.3013306
20
107.2868993
11
1.7405306
21
107.8392993
0
LINE
8
DEFAULT_255_2_778
10
1.7405306
20
107.8392993
11
1.7828306
21
107.9305993
0
LINE
8
DEFAULT_255_2_778
10
1.7828306
20
107.9305993
11
1.7974306
21
107.9847993
0
LINE
8
DEFAULT_255_2_778
10
1.7974306
20
107.9847993
11
1.8042306
21
108.0289993
0
LINE
8
DEFAULT_255_2_778
10
1.8042306
20
108.0289993
11
1.8024306
21
108.1408993
0
LINE
8
DEFAULT_255_2_778
10
1.8024306
20
108.1408993
11
1.7931306
21
108.1848993
0
LINE
8
DEFAULT_255_2_778
10
1.7931306
20
108.1848993
11
1.7722306
21
108.2366993
0
LINE
8
DEFAULT_255_2_778
10
1.7722306
20
108.2366993
11
1.7246306
21
108.2985993
0
LINE
8
DEFAULT_255_2_778
10
1.7246306
20
108.2985993
11
1.6063306
21
108.3596993
0
LINE
8
DEFAULT_255_2_778
10
1.6063306
20
108.3596993
11
1.4391306
21
108.3612993
0
LINE
8
DEFAULT_255_2_778
10
1.4391306
20
108.3612993
11
1.3386306
21
108.3120993
0
LINE
8
DEFAULT_255_2_778
10
1.3386306
20
108.3120993
11
1.2785306
21
108.2448993
0
LINE
8
DEFAULT_255_2_778
10
1.2785306
20
108.2448993
11
1.2626306
21
108.2152993
0
LINE
8
DEFAULT_255_2_778
10
1.2626306
20
108.2152993
11
1.3375306
21
108.1768993
0
LINE
8
DEFAULT_255_2_778
10
1.3375306
20
108.1768993
11
1.3724306
21
108.2279993
0
LINE
8
DEFAULT_255_2_778
10
1.3724306
20
108.2279993
11
1.4404306
21
108.2737993
0
LINE
8
DEFAULT_255_2_778
10
1.4404306
20
108.2737993
11
1.5828306
21
108.2800993
0
LINE
8
DEFAULT_255_2_778
10
1.5828306
20
108.2800993
11
1.6569306
21
108.2453993
0
LINE
8
DEFAULT_255_2_778
10
1.6569306
20
108.2453993
11
1.6960306
21
108.1980993
0
LINE
8
DEFAULT_255_2_778
10
1.6960306
20
108.1980993
11
1.7116306
21
108.1602993
0
LINE
8
DEFAULT_255_2_778
10
1.7116306
20
108.1602993
11
1.7183306
21
108.1300993
0
LINE
8
DEFAULT_255_2_778
10
1.7183306
20
108.1300993
11
1.7164306
21
108.0175993
0
LINE
8
DEFAULT_255_2_778
10
1.7164306
20
108.0175993
11
1.7019306
21
107.9577993
0
LINE
8
DEFAULT_255_2_778
10
1.7019306
20
107.9577993
11
1.5643306
21
107.7299993
0
LINE
8
DEFAULT_255_2_778
10
1.5643306
20
107.7299993
11
1.2174306
21
107.3169993
0
LINE
8
DEFAULT_255_2_778
10
1.2174306
20
107.3169993
11
1.2174306
21
107.1637993
0
LINE
8
DEFAULT_255_2_778
10
1.2174306
20
107.1637993
11
1.8566306
21
107.1637993
0
LINE
8
DEFAULT_255_2_778
10
1.8566306
20
107.1637993
11
1.8566306
21
107.2471993
0
LINE
8
DEFAULT_255_2_778
10
28.8179306
20
131.3567993
11
28.7132306
21
131.3567993
0
LINE
8
DEFAULT_255_2_778
10
28.7132306
20
131.3567993
11
28.5018306
21
131.1421993
0
LINE
8
DEFAULT_255_2_778
10
28.5018306
20
131.1421993
11
28.5118306
21
131.1456993
0
LINE
8
DEFAULT_255_2_778
10
28.5118306
20
131.1456993
11
28.5168306
21
131.0606993
0
LINE
8
DEFAULT_255_2_778
10
28.5168306
20
131.0606993
11
28.6486306
21
131.1625993
0
LINE
8
DEFAULT_255_2_778
10
28.6486306
20
131.1625993
11
28.7349306
21
131.2535993
0
LINE
8
DEFAULT_255_2_778
10
28.7349306
20
131.2535993
11
28.7349306
21
130.1616993
0
LINE
8
DEFAULT_255_2_778
10
28.7349306
20
130.1616993
11
28.8179306
21
130.1616993
0
LINE
8
DEFAULT_255_2_778
10
28.8179306
20
130.1616993
11
28.8179306
21
131.3567993
0
LINE
8
DEFAULT_255_2_778
10
28.2404306
20
108.2237993
11
28.3168306
21
108.1853993
0
LINE
8
DEFAULT_255_2_778
10
28.3168306
20
108.1853993
11
28.3589306
21
108.2419993
0
LINE
8
DEFAULT_255_2_778
10
28.3589306
20
108.2419993
11
28.4896306
21
108.2895993
0
LINE
8
DEFAULT_255_2_778
10
28.4896306
20
108.2895993
11
28.6354306
21
108.2557993
0
LINE
8
DEFAULT_255_2_778
10
28.6354306
20
108.2557993
11
28.6888306
21
108.1953993
0
LINE
8
DEFAULT_255_2_778
10
28.6888306
20
108.1953993
11
28.7124306
21
108.1371993
0
LINE
8
DEFAULT_255_2_778
10
28.7124306
20
108.1371993
11
28.7192306
21
108.1022993
0
LINE
8
DEFAULT_255_2_778
10
28.7192306
20
108.1022993
11
28.7169306
21
107.9779993
0
LINE
8
DEFAULT_255_2_778
10
28.7169306
20
107.9779993
11
28.6994306
21
107.9371993
0
LINE
8
DEFAULT_255_2_778
10
28.6994306
20
107.9371993
11
28.6285306
21
107.8715993
0
LINE
8
DEFAULT_255_2_778
10
28.6285306
20
107.8715993
11
28.4951306
21
107.8236993
0
LINE
8
DEFAULT_255_2_778
10
28.4951306
20
107.8236993
11
28.5002306
21
107.7403993
0
LINE
8
DEFAULT_255_2_778
10
28.5002306
20
107.7403993
11
28.6473306
21
107.6887993
0
LINE
8
DEFAULT_255_2_778
10
28.6473306
20
107.6887993
11
28.7227306
21
107.5974993
0
LINE
8
DEFAULT_255_2_778
10
28.7227306
20
107.5974993
11
28.7319306
21
107.5566993
0
LINE
8
DEFAULT_255_2_778
10
28.7319306
20
107.5566993
11
28.7298306
21
107.4677993
0
LINE
8
DEFAULT_255_2_778
10
28.7298306
20
107.4677993
11
28.7208306
21
107.4161993
0
LINE
8
DEFAULT_255_2_778
10
28.7208306
20
107.4161993
11
28.7052306
21
107.3661993
0
LINE
8
DEFAULT_255_2_778
10
28.7052306
20
107.3661993
11
28.6309306
21
107.2735993
0
LINE
8
DEFAULT_255_2_778
10
28.6309306
20
107.2735993
11
28.4742306
21
107.2399993
0
LINE
8
DEFAULT_255_2_778
10
28.4742306
20
107.2399993
11
28.3438306
21
107.2963993
0
LINE
8
DEFAULT_255_2_778
10
28.3438306
20
107.2963993
11
28.3171306
21
107.3413993
0
LINE
8
DEFAULT_255_2_778
10
28.3171306
20
107.3413993
11
28.2406306
21
107.3063993
0
LINE
8
DEFAULT_255_2_778
10
28.2406306
20
107.3063993
11
28.2824306
21
107.2365993
0
LINE
8
DEFAULT_255_2_778
10
28.2824306
20
107.2365993
11
28.3740306
21
107.1738993
0
LINE
8
DEFAULT_255_2_778
10
28.3740306
20
107.1738993
11
28.5851306
21
107.1645993
0
LINE
8
DEFAULT_255_2_778
10
28.5851306
20
107.1645993
11
28.7036306
21
107.2217993
0
LINE
8
DEFAULT_255_2_778
10
28.7036306
20
107.2217993
11
28.7682306
21
107.3003993
0
LINE
8
DEFAULT_255_2_778
10
28.7682306
20
107.3003993
11
28.7960306
21
107.3659993
0
LINE
8
DEFAULT_255_2_778
10
28.7960306
20
107.3659993
11
28.8100306
21
107.4254993
0
LINE
8
DEFAULT_255_2_778
10
28.8100306
20
107.4254993
11
28.8153306
21
107.4659993
0
LINE
8
DEFAULT_255_2_778
10
28.8153306
20
107.4659993
11
28.8129306
21
107.5879993
0
LINE
8
DEFAULT_255_2_778
10
28.8129306
20
107.5879993
11
28.8023306
21
107.6273993
0
LINE
8
DEFAULT_255_2_778
10
28.8023306
20
107.6273993
11
28.7745306
21
107.6815993
0
LINE
8
DEFAULT_255_2_778
10
28.7745306
20
107.6815993
11
28.6380306
21
107.7855993
0
LINE
8
DEFAULT_255_2_778
10
28.6380306
20
107.7855993
11
28.7685306
21
107.8874993
0
LINE
8
DEFAULT_255_2_778
10
28.7685306
20
107.8874993
11
28.7978306
21
107.9503993
0
LINE
8
DEFAULT_255_2_778
10
28.7978306
20
107.9503993
11
28.8055306
21
107.9913993
0
LINE
8
DEFAULT_255_2_778
10
28.8055306
20
107.9913993
11
28.8037306
21
108.1030993
0
LINE
8
DEFAULT_255_2_778
10
28.8037306
20
108.1030993
11
28.7968306
21
108.1443993
0
LINE
8
DEFAULT_255_2_778
10
28.7968306
20
108.1443993
11
28.7859306
21
108.1848993
0
LINE
8
DEFAULT_255_2_778
10
28.7859306
20
108.1848993
11
28.7364306
21
108.2768993
0
LINE
8
DEFAULT_255_2_778
10
28.7364306
20
108.2768993
11
28.6026306
21
108.3615993
0
LINE
8
DEFAULT_255_2_778
10
28.6026306
20
108.3615993
11
28.4356306
21
108.3673993
0
LINE
8
DEFAULT_255_2_778
10
28.4356306
20
108.3673993
11
28.2785306
21
108.2821993
0
LINE
8
DEFAULT_255_2_778
10
28.2785306
20
108.2821993
11
28.2404306
21
108.2231993
0
LINE
8
DEFAULT_255_2_778
10
1.7521306
20
85.3634993
11
1.5542306
21
85.3634993
0
LINE
8
DEFAULT_255_2_778
10
1.5542306
20
85.3634993
11
1.2179306
21
84.6046993
0
LINE
8
DEFAULT_255_2_778
10
1.2179306
20
84.6046993
11
1.2179306
21
84.4813993
0
LINE
8
DEFAULT_255_2_778
10
1.2179306
20
84.4813993
11
1.6672306
21
84.4813993
0
LINE
8
DEFAULT_255_2_778
10
1.6672306
20
84.4813993
11
1.6672306
21
84.1635993
0
LINE
8
DEFAULT_255_2_778
10
1.6672306
20
84.1635993
11
1.7521306
21
84.1635993
0
LINE
8
DEFAULT_255_2_778
10
1.7521306
20
84.1635993
11
1.7521306
21
84.4813993
0
LINE
8
DEFAULT_255_2_778
10
1.7521306
20
84.4813993
11
1.9286306
21
84.4813993
0
LINE
8
DEFAULT_255_2_778
10
1.9286306
20
84.4813993
11
1.9286306
21
84.5646993
0
LINE
8
DEFAULT_255_2_778
10
1.9286306
20
84.5646993
11
1.7521306
21
84.5646993
0
LINE
8
DEFAULT_255_2_778
10
1.7521306
20
84.5646993
11
1.7521306
21
85.3634993
0
LINE
8
DEFAULT_255_2_778
10
1.6093764
20
85.2804705
11
1.6675764
21
85.2804705
0
LINE
8
DEFAULT_255_2_778
10
1.6675764
20
85.2804705
11
1.6675764
21
84.5647705
0
LINE
8
DEFAULT_255_2_778
10
1.6675764
20
84.5647705
11
1.3013764
21
84.5647705
0
LINE
8
DEFAULT_255_2_778
10
1.3013764
20
84.5647705
11
1.3013764
21
84.5864705
0
LINE
8
DEFAULT_255_2_778
10
1.3013764
20
84.5864705
11
1.6093764
21
85.2804705
0
LINE
8
DEFAULT_255_2_778
10
1.5775764
20
61.9275705
11
1.3820764
21
61.8587705
0
LINE
8
DEFAULT_255_2_778
10
1.3820764
20
61.8587705
11
1.3029764
21
61.7595705
0
LINE
8
DEFAULT_255_2_778
10
1.3029764
20
61.7595705
11
1.3052764
21
61.9092705
0
LINE
8
DEFAULT_255_2_778
10
1.3052764
20
61.9092705
11
1.3074764
21
61.9593705
0
LINE
8
DEFAULT_255_2_778
10
1.3074764
20
61.9593705
11
1.3105764
21
62.0090705
0
LINE
8
DEFAULT_255_2_778
10
1.3105764
20
62.0090705
11
1.3145764
21
62.0463705
0
LINE
8
DEFAULT_255_2_778
10
1.3145764
20
62.0463705
11
1.3230764
21
62.0955705
0
LINE
8
DEFAULT_255_2_778
10
1.3230764
20
62.0955705
11
1.3357764
21
62.1439705
0
LINE
8
DEFAULT_255_2_778
10
1.3357764
20
62.1439705
11
1.3785764
21
62.2267705
0
LINE
8
DEFAULT_255_2_778
10
1.3785764
20
62.2267705
11
1.5034764
21
62.2892705
0
LINE
8
DEFAULT_255_2_778
10
1.5034764
20
62.2892705
11
1.6741764
21
62.2439705
0
LINE
8
DEFAULT_255_2_778
10
1.6741764
20
62.2439705
11
1.7241764
21
62.1804705
0
LINE
8
DEFAULT_255_2_778
10
1.7241764
20
62.1804705
11
1.8005764
21
62.2204705
0
LINE
8
DEFAULT_255_2_778
10
1.8005764
20
62.2204705
11
1.7611764
21
62.2778705
0
LINE
8
DEFAULT_255_2_778
10
1.7611764
20
62.2778705
11
1.6968764
21
62.3310705
0
LINE
8
DEFAULT_255_2_778
10
1.6968764
20
62.3310705
11
1.5926764
21
62.3688705
0
LINE
8
DEFAULT_255_2_778
10
1.5926764
20
62.3688705
11
1.4539764
21
62.3659705
0
LINE
8
DEFAULT_255_2_778
10
1.4539764
20
62.3659705
11
1.3643764
21
62.3286705
0
LINE
8
DEFAULT_255_2_778
10
1.3643764
20
62.3286705
11
1.3127764
21
62.2823705
0
LINE
8
DEFAULT_255_2_778
10
1.3127764
20
62.2823705
11
1.2751764
21
62.2238705
0
LINE
8
DEFAULT_255_2_778
10
1.2751764
20
62.2238705
11
1.2507764
21
62.1587705
0
LINE
8
DEFAULT_255_2_778
10
1.2507764
20
62.1587705
11
1.2351764
21
62.0910705
0
LINE
8
DEFAULT_255_2_778
10
1.2351764
20
62.0910705
11
1.2275764
21
62.0357705
0
LINE
8
DEFAULT_255_2_778
10
1.2275764
20
62.0357705
11
1.2227764
21
61.9802705
0
LINE
8
DEFAULT_255_2_778
10
1.2227764
20
61.9802705
11
1.2243764
21
61.5486705
0
LINE
8
DEFAULT_255_2_778
10
1.2243764
20
61.5486705
11
1.2306764
21
61.4933705
0
LINE
8
DEFAULT_255_2_778
10
1.2306764
20
61.4933705
11
1.2402764
21
61.4386705
0
LINE
8
DEFAULT_255_2_778
10
1.2402764
20
61.4386705
11
1.2579764
21
61.3713705
0
LINE
8
DEFAULT_255_2_778
10
1.2579764
20
61.3713705
11
1.2783764
21
61.3195705
0
LINE
8
DEFAULT_255_2_778
10
1.2783764
20
61.3195705
11
1.3145764
21
61.2600705
0
LINE
8
DEFAULT_255_2_778
10
1.3145764
20
61.2600705
11
1.3748764
21
61.2025705
0
LINE
8
DEFAULT_255_2_778
10
1.3748764
20
61.2025705
11
1.4635764
21
61.1631705
0
LINE
8
DEFAULT_255_2_778
10
1.4635764
20
61.1631705
11
1.6159764
21
61.1599705
0
LINE
8
DEFAULT_255_2_778
10
1.6159764
20
61.1599705
11
1.7074764
21
61.1933705
0
LINE
8
DEFAULT_255_2_778
10
1.7074764
20
61.1933705
11
1.7712764
21
61.2473705
0
LINE
8
DEFAULT_255_2_778
10
1.7712764
20
61.2473705
11
1.8090764
21
61.3057705
0
LINE
8
DEFAULT_255_2_778
10
1.8090764
20
61.3057705
11
1.8294764
21
61.3579705
0
LINE
8
DEFAULT_255_2_778
10
1.8294764
20
61.3579705
11
1.8426764
21
61.4121705
0
LINE
8
DEFAULT_255_2_778
10
1.8426764
20
61.4121705
11
1.8487764
21
61.4534705
0
LINE
8
DEFAULT_255_2_778
10
1.8487764
20
61.4534705
11
1.8466764
21
61.6619705
0
LINE
8
DEFAULT_255_2_778
10
1.8466764
20
61.6619705
11
1.8389764
21
61.7031705
0
LINE
8
DEFAULT_255_2_778
10
1.8389764
20
61.7031705
11
1.8233764
21
61.7568705
0
LINE
8
DEFAULT_255_2_778
10
1.8233764
20
61.7568705
11
1.7995764
21
61.8074705
0
LINE
8
DEFAULT_255_2_778
10
1.7995764
20
61.8074705
11
1.7566764
21
61.8624705
0
LINE
8
DEFAULT_255_2_778
10
1.7566764
20
61.8624705
11
1.6997764
21
61.9024705
0
LINE
8
DEFAULT_255_2_778
10
1.6997764
20
61.9024705
11
1.5918764
21
61.9280705
0
LINE
8
DEFAULT_255_2_778
10
1.5918764
20
61.9280705
11
1.5778764
21
61.9278705
0
LINE
8
DEFAULT_255_2_778
10
28.8013764
20
85.3635705
11
28.2470764
21
85.3635705
0
LINE
8
DEFAULT_255_2_778
10
28.2470764
20
85.3635705
11
28.2470764
21
84.7044705
0
LINE
8
DEFAULT_255_2_778
10
28.2470764
20
84.7044705
11
28.3734764
21
84.7044705
0
LINE
8
DEFAULT_255_2_778
10
28.3734764
20
84.7044705
11
28.3811764
21
84.7476705
0
LINE
8
DEFAULT_255_2_778
10
28.3811764
20
84.7476705
11
28.3965764
21
84.7849705
0
LINE
8
DEFAULT_255_2_778
10
28.3965764
20
84.7849705
11
28.4864764
21
84.8531705
0
LINE
8
DEFAULT_255_2_778
10
28.4864764
20
84.8531705
11
28.6195764
21
84.8536705
0
LINE
8
DEFAULT_255_2_778
10
28.6195764
20
84.8536705
11
28.6915764
21
84.7753705
0
LINE
8
DEFAULT_255_2_778
10
28.6915764
20
84.7753705
11
28.7227764
21
84.6790705
0
LINE
8
DEFAULT_255_2_778
10
28.7227764
20
84.6790705
11
28.7317764
21
84.6052705
0
LINE
8
DEFAULT_255_2_778
10
28.7317764
20
84.6052705
11
28.7298764
21
84.4769705
0
LINE
8
DEFAULT_255_2_778
10
28.7298764
20
84.4769705
11
28.7134764
21
84.4044705
0
LINE
8
DEFAULT_255_2_778
10
28.7134764
20
84.4044705
11
28.6674764
21
84.3144705
0
LINE
8
DEFAULT_255_2_778
10
28.6674764
20
84.3144705
11
28.5690764
21
84.2462705
0
LINE
8
DEFAULT_255_2_778
10
28.5690764
20
84.2462705
11
28.3978764
21
84.2652705
0
LINE
8
DEFAULT_255_2_778
10
28.3978764
20
84.2652705
11
28.3298764
21
84.3385705
0
LINE
8
DEFAULT_255_2_778
10
28.3298764
20
84.3385705
11
28.3269764
21
84.3446705
0
LINE
8
DEFAULT_255_2_778
10
28.3269764
20
84.3446705
11
28.2504764
21
84.3097705
0
LINE
8
DEFAULT_255_2_778
10
28.2504764
20
84.3097705
11
28.2930764
21
84.2411705
0
LINE
8
DEFAULT_255_2_778
10
28.2930764
20
84.2411705
11
28.3827764
21
84.1771705
0
LINE
8
DEFAULT_255_2_778
10
28.3827764
20
84.1771705
11
28.5716764
21
84.1591705
0
LINE
8
DEFAULT_255_2_778
10
28.5716764
20
84.1591705
11
28.6899764
21
84.2131705
0
LINE
8
DEFAULT_255_2_778
10
28.6899764
20
84.2131705
11
28.7603764
21
84.2983705
0
LINE
8
DEFAULT_255_2_778
10
28.7603764
20
84.2983705
11
28.7960764
21
84.3816705
0
LINE
8
DEFAULT_255_2_778
10
28.7960764
20
84.3816705
11
28.8100764
21
84.4406705
0
LINE
8
DEFAULT_255_2_778
10
28.8100764
20
84.4406705
11
28.8153764
21
84.4806705
0
LINE
8
DEFAULT_255_2_778
10
28.8153764
20
84.4806705
11
28.8134764
21
84.6420705
0
LINE
8
DEFAULT_255_2_778
10
28.8134764
20
84.6420705
11
28.8045764
21
84.7020705
0
LINE
8
DEFAULT_255_2_778
10
28.8045764
20
84.7020705
11
28.7865764
21
84.7703705
0
LINE
8
DEFAULT_255_2_778
10
28.7865764
20
84.7703705
11
28.7521764
21
84.8433705
0
LINE
8
DEFAULT_255_2_778
10
28.7521764
20
84.8433705
11
28.6991764
21
84.9042705
0
LINE
8
DEFAULT_255_2_778
10
28.6991764
20
84.9042705
11
28.6073764
21
84.9449705
0
LINE
8
DEFAULT_255_2_778
10
28.6073764
20
84.9449705
11
28.4388764
21
84.9248705
0
LINE
8
DEFAULT_255_2_778
10
28.4388764
20
84.9248705
11
28.3494764
21
84.8605705
0
LINE
8
DEFAULT_255_2_778
10
28.3494764
20
84.8605705
11
28.3306764
21
84.8370705
0
LINE
8
DEFAULT_255_2_778
10
28.3306764
20
84.8370705
11
28.3306764
21
85.2796705
0
LINE
8
DEFAULT_255_2_778
10
28.3306764
20
85.2796705
11
28.8015764
21
85.2796705
0
LINE
8
DEFAULT_255_2_778
10
28.8015764
20
85.2796705
11
28.8015764
21
85.3630705
0
LINE
8
DEFAULT_255_2_778
10
28.3967764
20
61.1851705
11
28.4766764
21
61.1584705
0
LINE
8
DEFAULT_255_2_778
10
28.4766764
20
61.1584705
11
28.8179764
21
62.2434705
0
LINE
8
DEFAULT_255_2_778
10
28.8179764
20
62.2434705
11
28.8179764
21
62.3649705
0
LINE
8
DEFAULT_255_2_778
10
28.8179764
20
62.3649705
11
28.2187764
21
62.3649705
0
LINE
8
DEFAULT_255_2_778
10
28.2187764
20
62.3649705
11
28.2187764
21
62.2799705
0
LINE
8
DEFAULT_255_2_778
10
28.2187764
20
62.2799705
11
28.7346764
21
62.2799705
0
LINE
8
DEFAULT_255_2_778
10
28.7346764
20
62.2799705
11
28.7346764
21
62.2566705
0
LINE
8
DEFAULT_255_2_778
10
28.7346764
20
62.2566705
11
28.6936764
21
62.1299705
0
LINE
8
DEFAULT_255_2_778
10
28.6936764
20
62.1299705
11
28.3970764
21
61.1848705
0
LINE
8
DEFAULT_255_2_778
10
1.5810635
20
61.8425531
11
1.7066635
21
61.7930531
0
LINE
8
DEFAULT_255_2_778
10
1.7066635
20
61.7930531
11
1.7405635
21
61.7375531
0
LINE
8
DEFAULT_255_2_778
10
1.7405635
20
61.7375531
11
1.7566635
21
61.6840531
0
LINE
8
DEFAULT_255_2_778
10
1.7566635
20
61.6840531
11
1.7654635
21
61.6290531
0
LINE
8
DEFAULT_255_2_778
10
1.7654635
20
61.6290531
11
1.7630635
21
61.4623531
0
LINE
8
DEFAULT_255_2_778
10
1.7630635
20
61.4623531
11
1.7548635
21
61.4168531
0
LINE
8
DEFAULT_255_2_778
10
1.7548635
20
61.4168531
11
1.7334635
21
61.3557531
0
LINE
8
DEFAULT_255_2_778
10
1.7334635
20
61.3557531
11
1.6855635
21
61.2879531
0
LINE
8
DEFAULT_255_2_778
10
1.6855635
20
61.2879531
11
1.6140635
21
61.2464531
0
LINE
8
DEFAULT_255_2_778
10
1.6140635
20
61.2464531
11
1.4947635
21
61.2467531
0
LINE
8
DEFAULT_255_2_778
10
1.4947635
20
61.2467531
11
1.3968635
21
61.3147531
0
LINE
8
DEFAULT_255_2_778
10
1.3968635
20
61.3147531
11
1.3479635
21
61.3930531
0
LINE
8
DEFAULT_255_2_778
10
1.3479635
20
61.3930531
11
1.3309635
21
61.4459531
0
LINE
8
DEFAULT_255_2_778
10
1.3309635
20
61.4459531
11
1.3259635
21
61.4731531
0
LINE
8
DEFAULT_255_2_778
10
1.3259635
20
61.4731531
11
1.3275635
21
61.5843531
0
LINE
8
DEFAULT_255_2_778
10
1.3275635
20
61.5843531
11
1.3357635
21
61.6300531
0
LINE
8
DEFAULT_255_2_778
10
1.3357635
20
61.6300531
11
1.3576635
21
61.6909531
0
LINE
8
DEFAULT_255_2_778
10
1.3576635
20
61.6909531
11
1.4291635
21
61.7875531
0
LINE
8
DEFAULT_255_2_778
10
1.4291635
20
61.7875531
11
1.5180635
21
61.8356531
0
LINE
8
DEFAULT_255_2_778
10
1.5180635
20
61.8356531
11
1.5815635
21
61.8425531
0
LINE
8
DEFAULT_255_2_778
10
11.0313293
20
127.6603229
11
1.4312293
21
127.6603229
0
LINE
8
DEFAULT_255_2_778
10
1.4312293
20
127.6603229
11
1.4312293
21
123.0603229
0
LINE
8
DEFAULT_255_2_778
10
1.4312293
20
123.0603229
11
11.0313293
21
123.0603229
0
LINE
8
DEFAULT_255_2_778
10
11.0313293
20
123.0603229
11
11.0313293
21
127.6603229
0
LINE
8
DEFAULT_255_2_778
10
11.2811303
20
129.4102614
11
1.1812303
21
129.4102614
0
LINE
8
DEFAULT_255_2_778
10
1.1812303
20
129.4102614
11
1.1812303
21
127.9103614
0
LINE
8
DEFAULT_255_2_778
10
1.1812303
20
127.9103614
11
11.2811303
21
127.9103614
0
LINE
8
DEFAULT_255_2_778
10
11.2811303
20
127.9103614
11
11.2811303
21
129.4102614
0
LINE
8
DEFAULT_255_2_778
10
11.2811303
20
122.8102614
11
1.1812303
21
122.8102614
0
LINE
8
DEFAULT_255_2_778
10
1.1812303
20
122.8102614
11
1.1812303
21
121.3103614
0
LINE
8
DEFAULT_255_2_778
10
1.1812303
20
121.3103614
11
11.2811303
21
121.3103614
0
LINE
8
DEFAULT_255_2_778
10
11.2811303
20
121.3103614
11
11.2811303
21
122.8102614
0
LINE
8
DEFAULT_255_2_778
10
11.0313293
20
104.6601229
11
1.4312293
21
104.6601229
0
LINE
8
DEFAULT_255_2_778
10
1.4312293
20
104.6601229
11
1.4312293
21
100.0601229
0
LINE
8
DEFAULT_255_2_778
10
1.4312293
20
100.0601229
11
11.0313293
21
100.0601229
0
LINE
8
DEFAULT_255_2_778
10
11.0313293
20
100.0601229
11
11.0313293
21
104.6601229
0
LINE
8
DEFAULT_255_2_778
10
11.2811303
20
106.4103614
11
1.1812303
21
106.4103614
0
LINE
8
DEFAULT_255_2_778
10
1.1812303
20
106.4103614
11
1.1812303
21
104.9104614
0
LINE
8
DEFAULT_255_2_778
10
1.1812303
20
104.9104614
11
11.2811303
21
104.9104614
0
LINE
8
DEFAULT_255_2_778
10
11.2811303
20
104.9104614
11
11.2811303
21
106.4103614
0
LINE
8
DEFAULT_255_2_778
10
11.2811303
20
99.8102614
11
1.1812303
21
99.8102614
0
LINE
8
DEFAULT_255_2_778
10
1.1812303
20
99.8102614
11
1.1812303
21
98.3103614
0
LINE
8
DEFAULT_255_2_778
10
1.1812303
20
98.3103614
11
11.2811303
21
98.3103614
0
LINE
8
DEFAULT_255_2_778
10
11.2811303
20
98.3103614
11
11.2811303
21
99.8102614
0
LINE
8
DEFAULT_255_2_778
10
11.0313293
20
81.6601229
11
1.4312293
21
81.6601229
0
LINE
8
DEFAULT_255_2_778
10
1.4312293
20
81.6601229
11
1.4312293
21
77.0601229
0
LINE
8
DEFAULT_255_2_778
10
1.4312293
20
77.0601229
11
11.0313293
21
77.0601229
0
LINE
8
DEFAULT_255_2_778
10
11.0313293
20
77.0601229
11
11.0313293
21
81.6601229
0
LINE
8
DEFAULT_255_2_778
10
11.2811303
20
83.4103614
11
1.1812303
21
83.4103614
0
LINE
8
DEFAULT_255_2_778
10
1.1812303
20
83.4103614
11
1.1812303
21
81.9104614
0
LINE
8
DEFAULT_255_2_778
10
1.1812303
20
81.9104614
11
11.2811303
21
81.9104614
0
LINE
8
DEFAULT_255_2_778
10
11.2811303
20
81.9104614
11
11.2811303
21
83.4103614
0
LINE
8
DEFAULT_255_2_778
10
11.2811303
20
76.8103614
11
1.1812303
21
76.8103614
0
LINE
8
DEFAULT_255_2_778
10
1.1812303
20
76.8103614
11
1.1812303
21
75.3104614
0
LINE
8
DEFAULT_255_2_778
10
1.1812303
20
75.3104614
11
11.2811303
21
75.3104614
0
LINE
8
DEFAULT_255_2_778
10
11.2811303
20
75.3104614
11
11.2811303
21
76.8103614
0
LINE
8
DEFAULT_255_2_778
10
11.0313293
20
58.6602229
11
1.4312293
21
58.6602229
0
LINE
8
DEFAULT_255_2_778
10
1.4312293
20
58.6602229
11
1.4312293
21
54.0602229
0
LINE
8
DEFAULT_255_2_778
10
1.4312293
20
54.0602229
11
11.0313293
21
54.0602229
0
LINE
8
DEFAULT_255_2_778
10
11.0313293
20
54.0602229
11
11.0313293
21
58.6602229
0
LINE
8
DEFAULT_255_2_778
10
11.2811303
20
60.4101614
11
1.1812303
21
60.4101614
0
LINE
8
DEFAULT_255_2_778
10
1.1812303
20
60.4101614
11
1.1812303
21
58.9102614
0
LINE
8
DEFAULT_255_2_778
10
1.1812303
20
58.9102614
11
11.2811303
21
58.9102614
0
LINE
8
DEFAULT_255_2_778
10
11.2811303
20
58.9102614
11
11.2811303
21
60.4101614
0
LINE
8
DEFAULT_255_2_778
10
11.2811303
20
53.8100614
11
1.1812303
21
53.8100614
0
LINE
8
DEFAULT_255_2_778
10
1.1812303
20
53.8100614
11
1.1812303
21
52.3101614
0
LINE
8
DEFAULT_255_2_778
10
1.1812303
20
52.3101614
11
11.2811303
21
52.3101614
0
LINE
8
DEFAULT_255_2_778
10
11.2811303
20
52.3101614
11
11.2811303
21
53.8100614
0
LINE
8
DEFAULT_255_2_778
10
0.18109
20
31.8552372
11
29.98109
21
31.8552372
0
LINE
8
DEFAULT_255_2_778
10
0.18109
20
31.0196372
11
29.98109
21
31.0196372
0
LINE
8
DEFAULT_255_2_778
10
0.18109
20
50.0601372
11
29.98109
21
50.0601372
0
LINE
8
DEFAULT_255_2_778
10
0.18109
20
48.9864372
11
29.98109
21
48.9864372
0
LINE
8
DEFAULT_255_2_778
10
14.3146021
20
53.8103614
11
15.8476021
21
53.8103614
0
LINE
8
DEFAULT_255_2_778
10
15.8476021
20
53.8103614
11
15.8452021
21
53.7976614
0
LINE
8
DEFAULT_255_2_778
10
15.8452021
20
53.7976614
11
15.8423021
21
53.7352614
0
LINE
8
DEFAULT_255_2_778
10
15.8423021
20
53.7352614
11
15.8423021
21
52.3874614
0
LINE
8
DEFAULT_255_2_778
10
15.8423021
20
52.3874614
11
15.8452021
21
52.3233614
0
LINE
8
DEFAULT_255_2_778
10
15.8452021
20
52.3233614
11
15.8476021
21
52.3104614
0
LINE
8
DEFAULT_255_2_778
10
15.8476021
20
52.3104614
11
14.3146021
21
52.3104614
0
LINE
8
DEFAULT_255_2_778
10
14.3146021
20
52.3104614
11
14.3146021
21
53.8103614
0
LINE
8
DEFAULT_255_2_778
10
0.18109
20
147.0601635
11
29.98109
21
147.0601635
0
LINE
8
DEFAULT_255_2_778
10
0.18109
20
144.3360635
11
29.98109
21
144.3360635
0
LINE
8
DEFAULT_255_2_778
10
0.18109
20
141.7846635
11
29.98109
21
141.7846635
0
LINE
8
DEFAULT_255_2_778
10
14.3146021
20
143.8102614
11
15.8476021
21
143.8102614
0
LINE
8
DEFAULT_255_2_778
10
15.8476021
20
143.8102614
11
15.8452021
21
143.7975614
0
LINE
8
DEFAULT_255_2_778
10
15.8452021
20
143.7975614
11
15.8423021
21
143.7351614
0
LINE
8
DEFAULT_255_2_778
10
15.8423021
20
143.7351614
11
15.8423021
21
142.3873614
0
LINE
8
DEFAULT_255_2_778
10
15.8423021
20
142.3873614
11
15.8452021
21
142.3232614
0
LINE
8
DEFAULT_255_2_778
10
15.8452021
20
142.3232614
11
15.8476021
21
142.3103614
0
LINE
8
DEFAULT_255_2_778
10
15.8476021
20
142.3103614
11
14.3146021
21
142.3103614
0
LINE
8
DEFAULT_255_2_778
10
14.3146021
20
142.3103614
11
14.3146021
21
143.8102614
0
ARC
8
DEFAULT_255_2_778
10
15.0859016
20
4.5637906
40
2.2547756
50
158.2413947
51
180.0901731
0
ARC
8
DEFAULT_255_2_778
10
15.0760968
20
4.5649885
40
2.2452269
50
100.453426
51
158.1770349
0
ARC
8
DEFAULT_255_2_778
10
15.0799368
20
4.5305731
40
2.279769
50
89.9700426
51
100.3913994
0
ARC
8
DEFAULT_255_2_778
10
15.0846788
20
4.5558392
40
2.2545056
50
68.2390887
51
90.090221
0
ARC
8
DEFAULT_255_2_778
10
15.085698
20
4.5653539
40
2.2452927
50
10.4596873
51
68.173229
0
ARC
8
DEFAULT_255_2_778
10
15.0511328
20
4.5614347
40
2.2799962
50
359.9700271
51
10.3988469
0
ARC
8
DEFAULT_255_2_778
10
15.0766086
20
4.5567006
40
2.2545229
50
338.2401607
51
0.0899995
0
ARC
8
DEFAULT_255_2_778
10
15.0861626
20
4.5556194
40
2.2452504
50
280.46182
51
338.1754031
0
ARC
8
DEFAULT_255_2_778
10
15.0823202
20
4.5900084
40
2.2797667
50
269.9700565
51
280.3998477
0
ARC
8
DEFAULT_255_2_778
10
15.0775801
20
4.5647707
40
2.2545315
50
248.2393107
51
270.0901832
0
ARC
8
DEFAULT_255_2_778
10
15.0765233
20
4.5552154
40
2.2452669
50
190.452684
51
248.1739611
0
ARC
8
DEFAULT_255_2_778
10
15.1108569
20
4.5590545
40
2.2797285
50
179.9701533
51
190.3910176
0
ARC
8
DEFAULT_255_2_778
10
7.5907725
20
41.3682513
40
3.9097518
50
180.0000059
51
180.1159071
0
ARC
8
DEFAULT_255_2_778
10
7.5731629
20
41.368256
40
3.8921422
50
134.9994601
51
180.0000748
0
ARC
8
DEFAULT_255_2_778
10
7.5730805
20
41.3682906
40
3.8920594
50
89.9994205
51
134.9989626
0
ARC
8
DEFAULT_255_2_778
10
7.5731195
20
41.3505982
40
3.9097518
50
89.8840929
51
89.9999941
0
ARC
8
DEFAULT_255_2_778
10
7.5843193
20
41.3577854
40
3.9025581
50
74.1728192
51
90.0483112
0
ARC
8
DEFAULT_255_2_778
10
7.5812467
20
41.3648102
40
3.8966405
50
45.0799404
51
74.1011805
0
ARC
8
DEFAULT_255_2_778
10
7.584898
20
41.3604296
40
3.8971682
50
15.9424103
51
45.1634277
0
ARC
8
DEFAULT_255_2_778
10
7.5782351
20
41.363644
40
3.902695
50
359.9515235
51
15.8701663
0
ARC
8
DEFAULT_255_2_778
10
7.5781909
20
41.3570498
40
3.9027393
50
344.1735987
51
0.0483324
0
ARC
8
DEFAULT_255_2_778
10
7.5853985
20
41.3600589
40
3.8966287
50
315.0811194
51
344.1021273
0
ARC
8
DEFAULT_255_2_778
10
7.5811467
20
41.3562911
40
3.896983
50
285.9426029
51
315.1644862
0
ARC
8
DEFAULT_255_2_778
10
7.5843344
20
41.3630527
40
3.9026119
50
269.951469
51
285.8703368
0
ARC
8
DEFAULT_255_2_778
10
7.5731195
20
41.3701858
40
3.9097518
50
270.0000059
51
270.1159071
0
ARC
8
DEFAULT_255_2_778
10
7.5730805
20
41.3524935
40
3.8920595
50
225.0010374
51
270.0005795
0
ARC
8
DEFAULT_255_2_778
10
7.5729317
20
41.3524323
40
3.8919109
50
179.9999869
51
225.0019502
0
ARC
8
DEFAULT_255_2_778
10
7.5907716
20
41.3524328
40
3.9097508
50
179.8840929
51
179.9999941
0
LINE
8
DEFAULT_255_2_778
10
12.8311287
20
4.560242
11
12.8311287
21
4.560242
0
LINE
8
DEFAULT_255_2_778
10
10.7636287
20
9.120942
11
11.1420287
21
9.238942
0
LINE
8
DEFAULT_255_2_778
10
11.1420287
20
9.238942
11
11.2446287
21
9.244142
0
LINE
8
DEFAULT_255_2_778
10
11.2446287
20
9.244142
11
19.0782287
21
9.231242
0
LINE
8
DEFAULT_255_2_778
10
19.0782287
20
9.231242
11
19.3840287
21
9.128542
0
LINE
8
DEFAULT_255_2_778
10
19.3840287
20
9.128542
11
19.3983287
21
9.120942
0
LINE
8
DEFAULT_255_2_778
10
3.6810287
20
41.360342
11
3.6810287
21
41.360342
0
ARC
8
DEFAULT_255_2_778
10
7.5333644
20
41.3702202
40
4.4522146
50
179.99888
51
180.1296641
0
ARC
8
DEFAULT_255_2_778
10
7.5711014
20
41.3701343
40
4.4899517
50
134.9993682
51
179.9977933
0
ARC
8
DEFAULT_255_2_778
10
7.5711714
20
41.3702043
40
4.4899516
50
90.0022067
51
135.0006318
0
ARC
8
DEFAULT_255_2_778
10
7.5710855
20
41.4079413
40
4.4522147
50
89.8703359
51
90.00112
0
ARC
8
DEFAULT_255_2_778
10
7.5844849
20
41.3518276
40
4.5083182
50
75.5982155
51
90.0422409
0
ARC
8
DEFAULT_255_2_778
10
7.5867858
20
41.3763347
40
4.4840106
50
52.0138682
51
75.5488058
0
ARC
8
DEFAULT_255_2_778
10
7.5755635
20
41.3539042
40
4.5085993
50
18.5339944
51
52.0769055
0
ARC
8
DEFAULT_255_2_778
10
7.596793
20
41.3672454
40
4.484234
50
2.8792588
51
18.4585944
0
ARC
8
DEFAULT_255_2_778
10
7.5073856
20
41.3603459
40
4.5738756
50
359.9974786
51
2.9093205
0
ARC
8
DEFAULT_255_2_778
10
7.5731284
20
41.3568233
40
4.508134
50
345.5975826
51
0.0422118
0
ARC
8
DEFAULT_255_2_778
10
7.597456
20
41.3545802
40
4.4840148
50
321.9947121
51
345.5480252
0
ARC
8
DEFAULT_255_2_778
10
7.5749105
20
41.3658924
40
4.5087477
50
288.5272423
51
322.0578506
0
ARC
8
DEFAULT_255_2_778
10
7.5882508
20
41.3446429
40
4.4843644
50
272.8782738
51
288.4519004
0
ARC
8
DEFAULT_255_2_778
10
7.5813734
20
41.4335324
40
4.5734878
50
269.9973417
51
272.9084065
0
ARC
8
DEFAULT_255_2_778
10
7.5710855
20
41.3122478
40
4.4522146
50
269.99888
51
270.1296641
0
ARC
8
DEFAULT_255_2_778
10
7.5711714
20
41.3499848
40
4.4899517
50
224.9993682
51
269.9977933
0
ARC
8
DEFAULT_255_2_778
10
7.5711591
20
41.3500788
40
4.4900094
50
180.0012471
51
225.000327
0
ARC
8
DEFAULT_255_2_778
10
7.5340867
20
41.3500681
40
4.452937
50
179.8703461
51
180.0011199
0
LINE
8
DEFAULT_255_2_778
10
3.0811612
20
41.3601446
11
3.0811612
21
41.3601446
0
ARC
8
DEFAULT_255_2_778
10
7.5942063
20
41.3639052
40
2.9130464
50
161.4391002
51
180.0735014
0
ARC
8
DEFAULT_255_2_778
10
7.5751937
20
41.3659995
40
2.894359
50
104.3614784
51
161.3585997
0
ARC
8
DEFAULT_255_2_778
10
7.5786979
20
41.3352333
40
2.925036
50
89.9497675
51
104.278493
0
ARC
8
DEFAULT_255_2_778
10
7.5817543
20
41.361968
40
2.8983003
50
58.3681046
51
90.0097267
0
ARC
8
DEFAULT_255_2_778
10
7.5829246
20
41.3620817
40
2.8975899
50
29.9861092
51
58.3866282
0
ARC
8
DEFAULT_255_2_778
10
7.5842942
20
41.3611145
40
2.8968875
50
12.0730682
51
30.0162153
0
ARC
8
DEFAULT_255_2_778
10
7.5800513
20
41.3603988
40
2.9011861
50
359.9984083
51
12.069364
0
ARC
8
DEFAULT_255_2_778
10
7.5833015
20
41.3598931
40
2.8979359
50
335.7109288
51
0.0084045
0
ARC
8
DEFAULT_255_2_778
10
7.5779574
20
41.3626681
40
2.9039483
50
329.9925795
51
335.7043968
0
ARC
8
DEFAULT_255_2_778
10
7.5825122
20
41.3588929
40
2.8981162
50
298.3688602
51
330.0121763
0
ARC
8
DEFAULT_255_2_778
10
7.5818381
20
41.3581589
40
2.8977908
50
269.9886154
51
298.3874831
0
ARC
8
DEFAULT_255_2_778
10
7.5756135
20
41.3093857
40
2.849023
50
270.0000045
51
270.1136019
0
ARC
8
DEFAULT_255_2_778
10
7.5757168
20
41.3551235
40
2.8947607
50
225.0042087
51
269.9979589
0
ARC
8
DEFAULT_255_2_778
10
7.5758256
20
41.3548847
40
2.8946687
50
180.0012879
51
224.9993444
0
ARC
8
DEFAULT_255_2_778
10
7.5301807
20
41.3548194
40
2.8490238
50
179.8863981
51
179.9999955
0
LINE
8
DEFAULT_255_2_778
10
4.6811623
20
41.3604682
11
4.6811623
21
41.3601682
0
ARC
8
DEFAULT_255_2_778
10
7.0800854
20
39.6613145
40
0.4989492
50
89.8676947
51
180.1322858
0
ARC
8
DEFAULT_255_2_778
10
7.0823114
20
39.6613361
40
0.4989275
50
359.8652243
51
90.1233177
0
ARC
8
DEFAULT_255_2_778
10
7.0823327
20
39.6590673
40
0.4989061
50
269.8742308
51
0.1257692
0
ARC
8
DEFAULT_255_2_778
10
7.0800639
20
39.6590886
40
0.4989275
50
179.8766742
51
270.1347757
0
LINE
8
DEFAULT_255_2_778
10
6.5811375
20
39.6601625
11
6.5811375
21
39.6601625
0
ARC
8
DEFAULT_255_2_778
10
7.0800854
20
43.0612145
40
0.4989492
50
89.8676947
51
180.1322858
0
ARC
8
DEFAULT_255_2_778
10
7.0823114
20
43.0612361
40
0.4989275
50
359.8652243
51
90.1233177
0
ARC
8
DEFAULT_255_2_778
10
7.0823327
20
43.0589673
40
0.4989061
50
269.8742308
51
0.1257692
0
ARC
8
DEFAULT_255_2_778
10
7.0800639
20
43.0589886
40
0.4989275
50
179.8766742
51
270.1347757
0
LINE
8
DEFAULT_255_2_778
10
6.5811375
20
43.0600625
11
6.5811375
21
43.0600625
0
ARC
8
DEFAULT_255_2_778
10
9.0300854
20
40.2862145
40
0.4989492
50
89.8676947
51
180.1322858
0
ARC
8
DEFAULT_255_2_778
10
9.0323114
20
40.2862361
40
0.4989275
50
359.8652243
51
90.1233177
0
ARC
8
DEFAULT_255_2_778
10
9.0323327
20
40.2839673
40
0.4989061
50
269.8742308
51
0.1257692
0
ARC
8
DEFAULT_255_2_778
10
9.0300639
20
40.2839886
40
0.4989275
50
179.8766742
51
270.1347757
0
LINE
8
DEFAULT_255_2_778
10
8.5311375
20
40.2850625
11
8.5311375
21
40.2850625
0
ARC
8
DEFAULT_255_2_778
10
9.0300854
20
42.4362145
40
0.4989492
50
89.8676947
51
180.1322858
0
ARC
8
DEFAULT_255_2_778
10
9.0323114
20
42.4362361
40
0.4989275
50
359.8652243
51
90.1233177
0
ARC
8
DEFAULT_255_2_778
10
9.0323327
20
42.4339673
40
0.4989061
50
269.8742308
51
0.1257692
0
ARC
8
DEFAULT_255_2_778
10
9.0300639
20
42.4339886
40
0.4989275
50
179.8766742
51
270.1347757
0
LINE
8
DEFAULT_255_2_778
10
8.5311375
20
42.4350625
11
8.5311375
21
42.4350625
0
ARC
8
DEFAULT_255_2_778
10
7.5799175
20
110.6112825
40
0.5987939
50
89.8748857
51
180.1251076
0
ARC
8
DEFAULT_255_2_778
10
7.5827088
20
110.6115585
40
0.5985184
50
359.8484135
51
90.142038
0
ARC
8
DEFAULT_255_2_778
10
7.5827938
20
110.6084062
40
0.5984333
50
269.8498027
51
0.1501973
0
ARC
8
DEFAULT_255_2_778
10
7.5796415
20
110.6084912
40
0.5985184
50
179.857962
51
270.1515865
0
LINE
8
DEFAULT_255_2_778
10
6.981125
20
110.609975
11
6.981125
21
110.609975
0
ARC
8
DEFAULT_255_2_778
10
7.5799175
20
114.1114825
40
0.5987939
50
89.8748857
51
180.1251076
0
ARC
8
DEFAULT_255_2_778
10
7.5827088
20
114.1117585
40
0.5985184
50
359.8484135
51
90.142038
0
ARC
8
DEFAULT_255_2_778
10
7.5827938
20
114.1086062
40
0.5984333
50
269.8498027
51
0.1501973
0
ARC
8
DEFAULT_255_2_778
10
7.5796415
20
114.1086912
40
0.5985184
50
179.857962
51
270.1515865
0
LINE
8
DEFAULT_255_2_778
10
6.981125
20
114.110175
11
6.981125
21
114.110175
0
ARC
8
DEFAULT_255_2_778
10
7.5829705
20
112.3659168
40
2.8518045
50
180.0000045
51
180.1135457
0
ARC
8
DEFAULT_255_2_778
10
7.5752082
20
112.3661186
40
2.8440422
50
134.997008
51
180.0040706
0
ARC
8
DEFAULT_255_2_778
10
7.5754182
20
112.3663287
40
2.8440423
50
89.9959294
51
135.002992
0
ARC
8
DEFAULT_255_2_778
10
7.5756201
20
112.3585663
40
2.8518045
50
89.8864543
51
89.9999955
0
ARC
8
DEFAULT_255_2_778
10
7.584375
20
112.3649142
40
2.8454528
50
70.6248181
51
90.0624895
0
ARC
8
DEFAULT_255_2_778
10
7.5773096
20
112.357142
40
2.8551317
50
12.0778297
51
70.5428053
0
ARC
8
DEFAULT_255_2_778
10
7.5697143
20
112.3619602
40
2.8615577
50
359.9680649
51
11.9516712
0
ARC
8
DEFAULT_255_2_778
10
7.585917
20
112.3572568
40
2.8453563
50
340.6244884
51
0.0625937
0
ARC
8
DEFAULT_255_2_778
10
7.5781503
20
112.3643502
40
2.8550395
50
282.0761347
51
340.5419072
0
ARC
8
DEFAULT_255_2_778
10
7.5828675
20
112.3722213
40
2.8617564
50
269.9680484
51
281.9508101
0
ARC
8
DEFAULT_255_2_778
10
7.5752469
20
112.3462168
40
2.8357579
50
270.0000078
51
270.1217274
0
ARC
8
DEFAULT_255_2_778
10
7.5752807
20
112.3544093
40
2.8439504
50
224.9990741
51
269.9993277
0
ARC
8
DEFAULT_255_2_778
10
7.5756141
20
112.35478
40
2.8444482
50
179.9973021
51
224.9996054
0
ARC
8
DEFAULT_255_2_778
10
7.5829706
20
112.3549137
40
2.8518045
50
179.8864543
51
179.9999955
0
LINE
8
DEFAULT_255_2_778
10
4.7311716
20
112.3605653
11
4.7311716
21
112.3602653
0
ARC
8
DEFAULT_255_2_778
10
7.5722807
20
112.3671396
40
3.5912773
50
180.0000037
51
180.1081695
0
ARC
8
DEFAULT_255_2_778
10
7.5741513
20
112.3671227
40
3.5931478
50
135.0000516
51
179.9997345
0
ARC
8
DEFAULT_255_2_778
10
7.5741467
20
112.3671181
40
3.5931478
50
90.0002655
51
134.9999484
0
ARC
8
DEFAULT_255_2_778
10
7.5741298
20
112.3689887
40
3.5912773
50
89.8918305
51
89.9999963
0
ARC
8
DEFAULT_255_2_778
10
7.584132
20
112.3594758
40
3.6007853
50
73.4621275
51
90.0512713
0
ARC
8
DEFAULT_255_2_778
10
7.574991
20
112.353943
40
3.6086982
50
18.9404336
51
73.3480028
0
ARC
8
DEFAULT_255_2_778
10
7.5900333
20
112.3650214
40
3.5908787
50
1.4427459
51
18.8511429
0
ARC
8
DEFAULT_255_2_778
10
7.5123537
20
112.3602098
40
3.668656
50
359.9992163
51
1.4873234
0
ARC
8
DEFAULT_255_2_778
10
7.5805053
20
112.3569416
40
3.600506
50
343.4614817
51
0.0512085
0
ARC
8
DEFAULT_255_2_778
10
7.5747112
20
112.366184
40
3.6086985
50
288.9401309
51
343.3469972
0
ARC
8
DEFAULT_255_2_778
10
7.5857683
20
112.3511692
40
3.5909119
50
271.4427867
51
288.8510192
0
ARC
8
DEFAULT_255_2_778
10
7.58096
20
112.4288158
40
3.668656
50
269.9992163
51
271.4873234
0
ARC
8
DEFAULT_255_2_778
10
7.574128
20
112.3535068
40
3.5933536
50
270.0000061
51
270.1081368
0
ARC
8
DEFAULT_255_2_778
10
7.5740063
20
112.3532034
40
3.5930502
50
225.0016614
51
270.0019458
0
ARC
8
DEFAULT_255_2_778
10
7.5745572
20
112.3533646
40
3.5935537
50
180.0013521
51
224.9972674
0
ARC
8
DEFAULT_255_2_778
10
7.5722807
20
112.3532796
40
3.5912773
50
179.8918305
51
179.9999963
0
LINE
8
DEFAULT_255_2_778
10
3.9810098
20
112.3600596
11
3.9810098
21
112.3603596
0
ARC
8
DEFAULT_255_2_778
10
7.6374811
20
112.3643476
40
5.5563762
50
167.2710742
51
180.0418036
0
ARC
8
DEFAULT_255_2_778
10
7.5480656
20
112.3821365
40
5.4652391
50
149.0473448
51
167.2464377
0
ARC
8
DEFAULT_255_2_778
10
7.5723276
20
112.3683352
40
5.4931444
50
110.1006095
51
149.0540489
0
ARC
8
DEFAULT_255_2_778
10
7.5660097
20
112.3700561
40
5.4893596
50
95.6529684
51
110.0448555
0
ARC
8
DEFAULT_255_2_778
10
7.580004
20
112.2465326
40
5.6136611
50
89.989769
51
95.67092
0
ARC
8
DEFAULT_255_2_778
10
7.5850604
20
112.3038189
40
5.5563762
50
77.2710742
51
90.0418036
0
ARC
8
DEFAULT_255_2_778
10
7.6028493
20
112.3932344
40
5.4652391
50
59.0473448
51
77.2464377
0
ARC
8
DEFAULT_255_2_778
10
7.589048
20
112.3689724
40
5.4931444
50
20.1006095
51
59.0540489
0
ARC
8
DEFAULT_255_2_778
10
7.5907689
20
112.3752903
40
5.4893596
50
5.6529684
51
20.0448555
0
ARC
8
DEFAULT_255_2_778
10
7.4672454
20
112.361296
40
5.6136611
50
359.989769
51
5.67092
0
ARC
8
DEFAULT_255_2_778
10
7.5245317
20
112.3562396
40
5.5563762
50
347.2710742
51
0.0418036
0
ARC
8
DEFAULT_255_2_778
10
7.6139472
20
112.3384507
40
5.4652391
50
329.0473448
51
347.2464377
0
ARC
8
DEFAULT_255_2_778
10
7.5896852
20
112.352252
40
5.4931444
50
290.1006095
51
329.0540489
0
ARC
8
DEFAULT_255_2_778
10
7.5960031
20
112.3505311
40
5.4893596
50
275.6529684
51
290.0448555
0
ARC
8
DEFAULT_255_2_778
10
7.5820088
20
112.4740546
40
5.6136611
50
269.989769
51
275.67092
0
ARC
8
DEFAULT_255_2_778
10
7.5769524
20
112.4167683
40
5.5563762
50
257.2710742
51
270.0418036
0
ARC
8
DEFAULT_255_2_778
10
7.5591635
20
112.3273528
40
5.4652391
50
239.0473448
51
257.2464377
0
ARC
8
DEFAULT_255_2_778
10
7.5729648
20
112.3516148
40
5.4931444
50
200.1006095
51
239.0540489
0
ARC
8
DEFAULT_255_2_778
10
7.5712439
20
112.3452969
40
5.4893596
50
185.6529684
51
200.0448555
0
ARC
8
DEFAULT_255_2_778
10
7.6947674
20
112.3592912
40
5.6136611
50
179.989769
51
185.67092
0
LINE
8
DEFAULT_255_2_778
10
2.0811064
20
112.3602936
11
2.0811064
21
112.3602936
0
ARC
8
DEFAULT_255_2_778
10
7.5950552
20
112.3689738
40
4.2638705
50
180.0000056
51
180.1164065
0
ARC
8
DEFAULT_255_2_778
10
7.5728197
20
112.3689595
40
4.241635
50
135.0026236
51
179.9998121
0
ARC
8
DEFAULT_255_2_778
10
7.572545
20
112.3686848
40
4.241635
50
90.0001879
51
134.9973764
0
ARC
8
DEFAULT_255_2_778
10
7.5725307
20
112.3464493
40
4.2638706
50
89.8835935
51
89.9999944
0
ARC
8
DEFAULT_255_2_778
10
7.5845546
20
112.3551026
40
4.2552098
50
74.8850117
51
90.0452568
0
ARC
8
DEFAULT_255_2_778
10
7.584411
20
112.3711552
40
4.2397522
50
49.2124571
51
74.826571
0
ARC
8
DEFAULT_255_2_778
10
7.578932
20
112.3564356
40
4.2544797
50
17.818442
51
49.286086
0
ARC
8
DEFAULT_255_2_778
10
7.5907479
20
112.3659802
40
4.2403134
50
1.7803204
51
17.7445165
0
ARC
8
DEFAULT_255_2_778
10
7.5029238
20
112.3603856
40
4.3282698
50
359.9990122
51
1.8182243
0
ARC
8
DEFAULT_255_2_778
10
7.5759851
20
112.3569499
40
4.2552098
50
344.8850117
51
0.0452568
0
ARC
8
DEFAULT_255_2_778
10
7.5920377
20
112.3570935
40
4.2397522
50
319.2124571
51
344.826571
0
ARC
8
DEFAULT_255_2_778
10
7.5773181
20
112.3625726
40
4.2544797
50
287.818442
51
319.286086
0
ARC
8
DEFAULT_255_2_778
10
7.5868627
20
112.3507567
40
4.2403134
50
271.7803204
51
287.7445165
0
ARC
8
DEFAULT_255_2_778
10
7.5812681
20
112.4385808
40
4.3282698
50
269.9990122
51
271.8182243
0
ARC
8
DEFAULT_255_2_778
10
7.5725307
20
112.3741727
40
4.2638705
50
270.0000056
51
270.1164065
0
ARC
8
DEFAULT_255_2_778
10
7.572545
20
112.3519372
40
4.241635
50
225.0026236
51
269.9998121
0
ARC
8
DEFAULT_255_2_778
10
7.5726451
20
112.3515902
40
4.2414604
50
179.9992109
51
224.9983535
0
ARC
8
DEFAULT_255_2_778
10
7.5950562
20
112.3516482
40
4.2638715
50
179.8835935
51
179.9999944
0
LINE
8
DEFAULT_255_2_778
10
3.3311935
20
112.360311
11
3.3311935
21
112.360311
0
ARC
8
DEFAULT_255_2_778
10
7.5799175
20
87.6113825
40
0.5987939
50
89.8748857
51
180.1251076
0
ARC
8
DEFAULT_255_2_778
10
7.5827088
20
87.6116585
40
0.5985184
50
359.8484135
51
90.142038
0
ARC
8
DEFAULT_255_2_778
10
7.5827938
20
87.6085062
40
0.5984333
50
269.8498027
51
0.1501973
0
ARC
8
DEFAULT_255_2_778
10
7.5796415
20
87.6085912
40
0.5985184
50
179.857962
51
270.1515865
0
LINE
8
DEFAULT_255_2_778
10
6.981125
20
87.610075
11
6.981125
21
87.610075
0
ARC
8
DEFAULT_255_2_778
10
7.5799175
20
91.1115825
40
0.5987939
50
89.8748857
51
180.1251076
0
ARC
8
DEFAULT_255_2_778
10
7.5827088
20
91.1118585
40
0.5985184
50
359.8484135
51
90.142038
0
ARC
8
DEFAULT_255_2_778
10
7.5827938
20
91.1087062
40
0.5984333
50
269.8498027
51
0.1501973
0
ARC
8
DEFAULT_255_2_778
10
7.5796415
20
91.1087912
40
0.5985184
50
179.857962
51
270.1515865
0
LINE
8
DEFAULT_255_2_778
10
6.981125
20
91.110275
11
6.981125
21
91.110275
0
ARC
8
DEFAULT_255_2_778
10
7.5829705
20
89.3657168
40
2.8518045
50
180.0000045
51
180.1135457
0
ARC
8
DEFAULT_255_2_778
10
7.5752082
20
89.3659186
40
2.8440422
50
134.997008
51
180.0040706
0
ARC
8
DEFAULT_255_2_778
10
7.5754182
20
89.3661287
40
2.8440423
50
89.9959294
51
135.002992
0
ARC
8
DEFAULT_255_2_778
10
7.5756201
20
89.3583663
40
2.8518045
50
89.8864543
51
89.9999955
0
ARC
8
DEFAULT_255_2_778
10
7.584375
20
89.3647142
40
2.8454528
50
70.6248181
51
90.0624895
0
ARC
8
DEFAULT_255_2_778
10
7.5773096
20
89.356942
40
2.8551317
50
12.0778297
51
70.5428053
0
ARC
8
DEFAULT_255_2_778
10
7.5697143
20
89.3617602
40
2.8615577
50
359.9680649
51
11.9516712
0
ARC
8
DEFAULT_255_2_778
10
7.585917
20
89.3570568
40
2.8453563
50
340.6244884
51
0.0625937
0
ARC
8
DEFAULT_255_2_778
10
7.5781503
20
89.3641502
40
2.8550395
50
282.0761347
51
340.5419072
0
ARC
8
DEFAULT_255_2_778
10
7.5828675
20
89.3720213
40
2.8617564
50
269.9680484
51
281.9508101
0
ARC
8
DEFAULT_255_2_778
10
7.5752469
20
89.3460168
40
2.8357579
50
270.0000078
51
270.1217274
0
ARC
8
DEFAULT_255_2_778
10
7.5752807
20
89.3542093
40
2.8439504
50
224.9990741
51
269.9993277
0
ARC
8
DEFAULT_255_2_778
10
7.5756141
20
89.35458
40
2.8444482
50
179.9973021
51
224.9996054
0
ARC
8
DEFAULT_255_2_778
10
7.5829706
20
89.3547137
40
2.8518045
50
179.8864543
51
179.9999955
0
LINE
8
DEFAULT_255_2_778
10
4.7311716
20
89.3603653
11
4.7311716
21
89.3600653
0
ARC
8
DEFAULT_255_2_778
10
7.5722807
20
89.3671397
40
3.5912773
50
180.0000037
51
180.1081695
0
ARC
8
DEFAULT_255_2_778
10
7.5741513
20
89.3671228
40
3.5931478
50
135.0000516
51
179.9997345
0
ARC
8
DEFAULT_255_2_778
10
7.5741467
20
89.3671182
40
3.5931478
50
90.0002655
51
134.9999484
0
ARC
8
DEFAULT_255_2_778
10
7.5741298
20
89.3689888
40
3.5912773
50
89.8918305
51
89.9999963
0
ARC
8
DEFAULT_255_2_778
10
7.584132
20
89.3594759
40
3.6007853
50
73.4621275
51
90.0512713
0
ARC
8
DEFAULT_255_2_778
10
7.574991
20
89.3539431
40
3.6086982
50
18.9404336
51
73.3480028
0
ARC
8
DEFAULT_255_2_778
10
7.5900333
20
89.3650215
40
3.5908787
50
1.4427459
51
18.8511429
0
ARC
8
DEFAULT_255_2_778
10
7.5123537
20
89.3602099
40
3.668656
50
359.9992163
51
1.4873234
0
ARC
8
DEFAULT_255_2_778
10
7.5805053
20
89.3569417
40
3.600506
50
343.4614817
51
0.0512085
0
ARC
8
DEFAULT_255_2_778
10
7.5747112
20
89.3661841
40
3.6086985
50
288.9401309
51
343.3469972
0
ARC
8
DEFAULT_255_2_778
10
7.5857683
20
89.3511693
40
3.5909119
50
271.4427867
51
288.8510192
0
ARC
8
DEFAULT_255_2_778
10
7.58096
20
89.4288159
40
3.668656
50
269.9992163
51
271.4873234
0
ARC
8
DEFAULT_255_2_778
10
7.573755
20
89.3150846
40
3.5549321
50
270.0000039
51
270.1153161
0
ARC
8
DEFAULT_255_2_778
10
7.5738346
20
89.3527867
40
3.5926342
50
224.9988977
51
269.9987343
0
ARC
8
DEFAULT_255_2_778
10
7.5745572
20
89.3533647
40
3.5935537
50
180.0013521
51
224.9972674
0
ARC
8
DEFAULT_255_2_778
10
7.5722807
20
89.3532797
40
3.5912773
50
179.8918305
51
179.9999963
0
LINE
8
DEFAULT_255_2_778
10
3.9810098
20
89.3600597
11
3.9810098
21
89.3603597
0
ARC
8
DEFAULT_255_2_778
10
7.6374811
20
89.3643476
40
5.5563762
50
167.2710742
51
180.0418036
0
ARC
8
DEFAULT_255_2_778
10
7.5480656
20
89.3821365
40
5.4652391
50
149.0473448
51
167.2464377
0
ARC
8
DEFAULT_255_2_778
10
7.5723276
20
89.3683352
40
5.4931444
50
110.1006095
51
149.0540489
0
ARC
8
DEFAULT_255_2_778
10
7.5660097
20
89.3700561
40
5.4893596
50
95.6529684
51
110.0448555
0
ARC
8
DEFAULT_255_2_778
10
7.580004
20
89.2465326
40
5.6136611
50
89.989769
51
95.67092
0
ARC
8
DEFAULT_255_2_778
10
7.5850604
20
89.3038189
40
5.5563762
50
77.2710742
51
90.0418036
0
ARC
8
DEFAULT_255_2_778
10
7.6028493
20
89.3932344
40
5.4652391
50
59.0473448
51
77.2464377
0
ARC
8
DEFAULT_255_2_778
10
7.589048
20
89.3689724
40
5.4931444
50
20.1006095
51
59.0540489
0
ARC
8
DEFAULT_255_2_778
10
7.5907689
20
89.3752903
40
5.4893596
50
5.6529684
51
20.0448555
0
ARC
8
DEFAULT_255_2_778
10
7.4672454
20
89.361296
40
5.6136611
50
359.989769
51
5.67092
0
ARC
8
DEFAULT_255_2_778
10
7.5245317
20
89.3562396
40
5.5563762
50
347.2710742
51
0.0418036
0
ARC
8
DEFAULT_255_2_778
10
7.6139472
20
89.3384507
40
5.4652391
50
329.0473448
51
347.2464377
0
ARC
8
DEFAULT_255_2_778
10
7.5896852
20
89.352252
40
5.4931444
50
290.1006095
51
329.0540489
0
ARC
8
DEFAULT_255_2_778
10
7.5960031
20
89.3505311
40
5.4893596
50
275.6529684
51
290.0448555
0
ARC
8
DEFAULT_255_2_778
10
7.5820088
20
89.4740546
40
5.6136611
50
269.989769
51
275.67092
0
ARC
8
DEFAULT_255_2_778
10
7.5769524
20
89.4167683
40
5.5563762
50
257.2710742
51
270.0418036
0
ARC
8
DEFAULT_255_2_778
10
7.5591635
20
89.3273528
40
5.4652391
50
239.0473448
51
257.2464377
0
ARC
8
DEFAULT_255_2_778
10
7.5729648
20
89.3516148
40
5.4931444
50
200.1006095
51
239.0540489
0
ARC
8
DEFAULT_255_2_778
10
7.5712439
20
89.3452969
40
5.4893596
50
185.6529684
51
200.0448555
0
ARC
8
DEFAULT_255_2_778
10
7.6947674
20
89.3592912
40
5.6136611
50
179.989769
51
185.67092
0
LINE
8
DEFAULT_255_2_778
10
2.0811064
20
89.3602936
11
2.0811064
21
89.3602936
0
ARC
8
DEFAULT_255_2_778
10
7.5950552
20
89.3689738
40
4.2638705
50
180.0000056
51
180.1164065
0
ARC
8
DEFAULT_255_2_778
10
7.5728197
20
89.3689595
40
4.241635
50
135.0026236
51
179.9998121
0
ARC
8
DEFAULT_255_2_778
10
7.572545
20
89.3686848
40
4.241635
50
90.0001879
51
134.9973764
0
ARC
8
DEFAULT_255_2_778
10
7.5725307
20
89.3464493
40
4.2638706
50
89.8835935
51
89.9999944
0
ARC
8
DEFAULT_255_2_778
10
7.5845546
20
89.3551026
40
4.2552098
50
74.8850117
51
90.0452568
0
ARC
8
DEFAULT_255_2_778
10
7.584411
20
89.3711552
40
4.2397522
50
49.2124571
51
74.826571
0
ARC
8
DEFAULT_255_2_778
10
7.578932
20
89.3564356
40
4.2544797
50
17.818442
51
49.286086
0
ARC
8
DEFAULT_255_2_778
10
7.5907479
20
89.3659802
40
4.2403134
50
1.7803204
51
17.7445165
0
ARC
8
DEFAULT_255_2_778
10
7.5029238
20
89.3603856
40
4.3282698
50
359.9990122
51
1.8182243
0
ARC
8
DEFAULT_255_2_778
10
7.5759851
20
89.3569499
40
4.2552098
50
344.8850117
51
0.0452568
0
ARC
8
DEFAULT_255_2_778
10
7.5920377
20
89.3570935
40
4.2397522
50
319.2124571
51
344.826571
0
ARC
8
DEFAULT_255_2_778
10
7.5773181
20
89.3625726
40
4.2544797
50
287.818442
51
319.286086
0
ARC
8
DEFAULT_255_2_778
10
7.5868627
20
89.3507567
40
4.2403134
50
271.7803204
51
287.7445165
0
ARC
8
DEFAULT_255_2_778
10
7.5812681
20
89.4385808
40
4.3282698
50
269.9990122
51
271.8182243
0
ARC
8
DEFAULT_255_2_778
10
7.5725307
20
89.3741727
40
4.2638705
50
270.0000056
51
270.1164065
0
ARC
8
DEFAULT_255_2_778
10
7.572545
20
89.3519372
40
4.241635
50
225.0026236
51
269.9998121
0
ARC
8
DEFAULT_255_2_778
10
7.5726451
20
89.3515902
40
4.2414604
50
179.9992109
51
224.9983535
0
ARC
8
DEFAULT_255_2_778
10
7.5950562
20
89.3516482
40
4.2638715
50
179.8835935
51
179.9999944
0
LINE
8
DEFAULT_255_2_778
10
3.3311935
20
89.360311
11
3.3311935
21
89.360311
0
ARC
8
DEFAULT_255_2_778
10
7.5799175
20
137.1114825
40
0.5987939
50
89.8748857
51
180.1251076
0
ARC
8
DEFAULT_255_2_778
10
7.5827088
20
137.1117585
40
0.5985184
50
359.8484135
51
90.142038
0
ARC
8
DEFAULT_255_2_778
10
7.5827938
20
137.1086062
40
0.5984333
50
269.8498027
51
0.1501973
0
ARC
8
DEFAULT_255_2_778
10
7.5796415
20
137.1086912
40
0.5985184
50
179.857962
51
270.1515865
0
LINE
8
DEFAULT_255_2_778
10
6.981125
20
137.110175
11
6.981125
21
137.110175
0
ARC
8
DEFAULT_255_2_778
10
7.5799175
20
133.6115825
40
0.5987939
50
89.8748857
51
180.1251076
0
ARC
8
DEFAULT_255_2_778
10
7.5827088
20
133.6118585
40
0.5985184
50
359.8484135
51
90.142038
0
ARC
8
DEFAULT_255_2_778
10
7.5827938
20
133.6087062
40
0.5984333
50
269.8498027
51
0.1501973
0
ARC
8
DEFAULT_255_2_778
10
7.5796415
20
133.6087912
40
0.5985184
50
179.857962
51
270.1515865
0
LINE
8
DEFAULT_255_2_778
10
6.981125
20
133.610275
11
6.981125
21
133.610275
0
ARC
8
DEFAULT_255_2_778
10
7.5829705
20
135.3659168
40
2.8518045
50
180.0000045
51
180.1135457
0
ARC
8
DEFAULT_255_2_778
10
7.5752082
20
135.3661186
40
2.8440422
50
134.997008
51
180.0040706
0
ARC
8
DEFAULT_255_2_778
10
7.5754182
20
135.3663287
40
2.8440423
50
89.9959294
51
135.002992
0
ARC
8
DEFAULT_255_2_778
10
7.5756201
20
135.3585663
40
2.8518045
50
89.8864543
51
89.9999955
0
ARC
8
DEFAULT_255_2_778
10
7.584375
20
135.3649142
40
2.8454528
50
70.6248181
51
90.0624895
0
ARC
8
DEFAULT_255_2_778
10
7.5773096
20
135.357142
40
2.8551317
50
12.0778297
51
70.5428053
0
ARC
8
DEFAULT_255_2_778
10
7.5697143
20
135.3619602
40
2.8615577
50
359.9680649
51
11.9516712
0
ARC
8
DEFAULT_255_2_778
10
7.585917
20
135.3572568
40
2.8453563
50
340.6244884
51
0.0625937
0
ARC
8
DEFAULT_255_2_778
10
7.5781503
20
135.3643502
40
2.8550395
50
282.0761347
51
340.5419072
0
ARC
8
DEFAULT_255_2_778
10
7.5828675
20
135.3722213
40
2.8617564
50
269.9680484
51
281.9508101
0
ARC
8
DEFAULT_255_2_778
10
7.5752469
20
135.3462168
40
2.8357579
50
270.0000078
51
270.1217274
0
ARC
8
DEFAULT_255_2_778
10
7.5752807
20
135.3544093
40
2.8439504
50
224.9990741
51
269.9993277
0
ARC
8
DEFAULT_255_2_778
10
7.5756141
20
135.35478
40
2.8444482
50
179.9973021
51
224.9996054
0
ARC
8
DEFAULT_255_2_778
10
7.5829706
20
135.3549137
40
2.8518045
50
179.8864543
51
179.9999955
0
LINE
8
DEFAULT_255_2_778
10
4.7311716
20
135.3605653
11
4.7311716
21
135.3602653
0
ARC
8
DEFAULT_255_2_778
10
7.5722807
20
135.3670396
40
3.5912773
50
180.0000037
51
180.1081695
0
ARC
8
DEFAULT_255_2_778
10
7.5741513
20
135.3670227
40
3.5931478
50
135.0000516
51
179.9997345
0
ARC
8
DEFAULT_255_2_778
10
7.5741467
20
135.3670181
40
3.5931478
50
90.0002655
51
134.9999484
0
ARC
8
DEFAULT_255_2_778
10
7.5741298
20
135.3688887
40
3.5912773
50
89.8918305
51
89.9999963
0
ARC
8
DEFAULT_255_2_778
10
7.584132
20
135.3593758
40
3.6007853
50
73.4621275
51
90.0512713
0
ARC
8
DEFAULT_255_2_778
10
7.574991
20
135.353843
40
3.6086982
50
18.9404336
51
73.3480028
0
ARC
8
DEFAULT_255_2_778
10
7.5900333
20
135.3649214
40
3.5908787
50
1.4427459
51
18.8511429
0
ARC
8
DEFAULT_255_2_778
10
7.5123537
20
135.3601098
40
3.668656
50
359.9992163
51
1.4873234
0
ARC
8
DEFAULT_255_2_778
10
7.5805053
20
135.3568416
40
3.600506
50
343.4614817
51
0.0512085
0
ARC
8
DEFAULT_255_2_778
10
7.5747112
20
135.366084
40
3.6086985
50
288.9401309
51
343.3469972
0
ARC
8
DEFAULT_255_2_778
10
7.5857683
20
135.3510692
40
3.5909119
50
271.4427867
51
288.8510192
0
ARC
8
DEFAULT_255_2_778
10
7.58096
20
135.4287158
40
3.668656
50
269.9992163
51
271.4873234
0
ARC
8
DEFAULT_255_2_778
10
7.574128
20
135.3534068
40
3.5933536
50
270.0000061
51
270.1081368
0
ARC
8
DEFAULT_255_2_778
10
7.5740063
20
135.3531034
40
3.5930502
50
225.0016614
51
270.0019458
0
ARC
8
DEFAULT_255_2_778
10
7.5745572
20
135.3532646
40
3.5935537
50
180.0013521
51
224.9972674
0
ARC
8
DEFAULT_255_2_778
10
7.5722807
20
135.3531796
40
3.5912773
50
179.8918305
51
179.9999963
0
LINE
8
DEFAULT_255_2_778
10
3.9810098
20
135.3599596
11
3.9810098
21
135.3602596
0
ARC
8
DEFAULT_255_2_778
10
7.6374811
20
135.3643476
40
5.5563762
50
167.2710742
51
180.0418036
0
ARC
8
DEFAULT_255_2_778
10
7.5480656
20
135.3821365
40
5.4652391
50
149.0473448
51
167.2464377
0
ARC
8
DEFAULT_255_2_778
10
7.5723276
20
135.3683352
40
5.4931444
50
110.1006095
51
149.0540489
0
ARC
8
DEFAULT_255_2_778
10
7.5660097
20
135.3700561
40
5.4893596
50
95.6529684
51
110.0448555
0
ARC
8
DEFAULT_255_2_778
10
7.580004
20
135.2465326
40
5.6136611
50
89.989769
51
95.67092
0
ARC
8
DEFAULT_255_2_778
10
7.5850604
20
135.3038189
40
5.5563762
50
77.2710742
51
90.0418036
0
ARC
8
DEFAULT_255_2_778
10
7.6028493
20
135.3932344
40
5.4652391
50
59.0473448
51
77.2464377
0
ARC
8
DEFAULT_255_2_778
10
7.589048
20
135.3689724
40
5.4931444
50
20.1006095
51
59.0540489
0
ARC
8
DEFAULT_255_2_778
10
7.5907689
20
135.3752903
40
5.4893596
50
5.6529684
51
20.0448555
0
ARC
8
DEFAULT_255_2_778
10
7.4672454
20
135.361296
40
5.6136611
50
359.989769
51
5.67092
0
ARC
8
DEFAULT_255_2_778
10
7.5245317
20
135.3562396
40
5.5563762
50
347.2710742
51
0.0418036
0
ARC
8
DEFAULT_255_2_778
10
7.6139472
20
135.3384507
40
5.4652391
50
329.0473448
51
347.2464377
0
ARC
8
DEFAULT_255_2_778
10
7.5896852
20
135.352252
40
5.4931444
50
290.1006095
51
329.0540489
0
ARC
8
DEFAULT_255_2_778
10
7.5960031
20
135.3505311
40
5.4893596
50
275.6529684
51
290.0448555
0
ARC
8
DEFAULT_255_2_778
10
7.5820088
20
135.4740546
40
5.6136611
50
269.989769
51
275.67092
0
ARC
8
DEFAULT_255_2_778
10
7.5769524
20
135.4167683
40
5.5563762
50
257.2710742
51
270.0418036
0
ARC
8
DEFAULT_255_2_778
10
7.5591635
20
135.3273528
40
5.4652391
50
239.0473448
51
257.2464377
0
ARC
8
DEFAULT_255_2_778
10
7.5729648
20
135.3516148
40
5.4931444
50
200.1006095
51
239.0540489
0
ARC
8
DEFAULT_255_2_778
10
7.5712439
20
135.3452969
40
5.4893596
50
185.6529684
51
200.0448555
0
ARC
8
DEFAULT_255_2_778
10
7.6947674
20
135.3592912
40
5.6136611
50
179.989769
51
185.67092
0
LINE
8
DEFAULT_255_2_778
10
2.0811064
20
135.3602936
11
2.0811064
21
135.3602936
0
ARC
8
DEFAULT_255_2_778
10
7.5950552
20
135.3689738
40
4.2638705
50
180.0000056
51
180.1164065
0
ARC
8
DEFAULT_255_2_778
10
7.5728197
20
135.3689595
40
4.241635
50
135.0026236
51
179.9998121
0
ARC
8
DEFAULT_255_2_778
10
7.572545
20
135.3686848
40
4.241635
50
90.0001879
51
134.9973764
0
ARC
8
DEFAULT_255_2_778
10
7.5725307
20
135.3464493
40
4.2638706
50
89.8835935
51
89.9999944
0
ARC
8
DEFAULT_255_2_778
10
7.5845546
20
135.3551026
40
4.2552098
50
74.8850117
51
90.0452568
0
ARC
8
DEFAULT_255_2_778
10
7.584411
20
135.3711552
40
4.2397522
50
49.2124571
51
74.826571
0
ARC
8
DEFAULT_255_2_778
10
7.578932
20
135.3564356
40
4.2544797
50
17.818442
51
49.286086
0
ARC
8
DEFAULT_255_2_778
10
7.5907479
20
135.3659802
40
4.2403134
50
1.7803204
51
17.7445165
0
ARC
8
DEFAULT_255_2_778
10
7.5029238
20
135.3603856
40
4.3282698
50
359.9990122
51
1.8182243
0
ARC
8
DEFAULT_255_2_778
10
7.5759851
20
135.3569499
40
4.2552098
50
344.8850117
51
0.0452568
0
ARC
8
DEFAULT_255_2_778
10
7.5920377
20
135.3570935
40
4.2397522
50
319.2124571
51
344.826571
0
ARC
8
DEFAULT_255_2_778
10
7.5773181
20
135.3625726
40
4.2544797
50
287.818442
51
319.286086
0
ARC
8
DEFAULT_255_2_778
10
7.5868627
20
135.3507567
40
4.2403134
50
271.7803204
51
287.7445165
0
ARC
8
DEFAULT_255_2_778
10
7.5812681
20
135.4385808
40
4.3282698
50
269.9990122
51
271.8182243
0
ARC
8
DEFAULT_255_2_778
10
7.5725307
20
135.3741727
40
4.2638705
50
270.0000056
51
270.1164065
0
ARC
8
DEFAULT_255_2_778
10
7.572545
20
135.3519372
40
4.241635
50
225.0026236
51
269.9998121
0
ARC
8
DEFAULT_255_2_778
10
7.5726451
20
135.3515902
40
4.2414604
50
179.9992109
51
224.9983535
0
ARC
8
DEFAULT_255_2_778
10
7.5950562
20
135.3516482
40
4.2638715
50
179.8835935
51
179.9999944
0
LINE
8
DEFAULT_255_2_778
10
3.3311935
20
135.360311
11
3.3311935
21
135.360311
0
ARC
8
DEFAULT_255_2_778
10
22.5800175
20
133.6115825
40
0.5987939
50
89.8748857
51
180.1251076
0
ARC
8
DEFAULT_255_2_778
10
22.5828088
20
133.6118585
40
0.5985184
50
359.8484135
51
90.142038
0
ARC
8
DEFAULT_255_2_778
10
22.5828938
20
133.6087062
40
0.5984333
50
269.8498027
51
0.1501973
0
ARC
8
DEFAULT_255_2_778
10
22.5797415
20
133.6087912
40
0.5985184
50
179.857962
51
270.1515865
0
LINE
8
DEFAULT_255_2_778
10
21.981225
20
133.610275
11
21.981225
21
133.610275
0
ARC
8
DEFAULT_255_2_778
10
22.5800175
20
137.1114825
40
0.5987939
50
89.8748857
51
180.1251076
0
ARC
8
DEFAULT_255_2_778
10
22.5828088
20
137.1117585
40
0.5985184
50
359.8484135
51
90.142038
0
ARC
8
DEFAULT_255_2_778
10
22.5828938
20
137.1086062
40
0.5984333
50
269.8498027
51
0.1501973
0
ARC
8
DEFAULT_255_2_778
10
22.5797415
20
137.1086912
40
0.5985184
50
179.857962
51
270.1515865
0
LINE
8
DEFAULT_255_2_778
10
21.981225
20
137.110175
11
21.981225
21
137.110175
0
ARC
8
DEFAULT_255_2_778
10
22.5765918
20
135.3632627
40
2.8454528
50
160.6248181
51
180.0624895
0
ARC
8
DEFAULT_255_2_778
10
22.584364
20
135.3561973
40
2.8551317
50
102.0778297
51
160.5428053
0
ARC
8
DEFAULT_255_2_778
10
22.5795457
20
135.3486019
40
2.8615577
50
89.9680649
51
101.9516712
0
ARC
8
DEFAULT_255_2_778
10
22.5842382
20
135.3649714
40
2.8451896
50
70.6239137
51
90.0623757
0
ARC
8
DEFAULT_255_2_778
10
22.5770615
20
135.3569428
40
2.8551474
50
12.0776231
51
70.5415051
0
ARC
8
DEFAULT_255_2_778
10
22.5694653
20
135.3617533
40
2.8615758
50
359.968084
51
11.951614
0
ARC
8
DEFAULT_255_2_778
10
22.5858329
20
135.3570624
40
2.8452095
50
340.6240425
51
0.0623645
0
ARC
8
DEFAULT_255_2_778
10
22.577831
20
135.3642107
40
2.8551327
50
282.0789019
51
340.5419916
0
ARC
8
DEFAULT_255_2_778
10
22.5827325
20
135.3715313
40
2.8612724
50
269.9681253
51
281.9522494
0
ARC
8
DEFAULT_255_2_778
10
22.5780379
20
135.3557302
40
2.8454726
50
250.624947
51
270.0624783
0
ARC
8
DEFAULT_255_2_778
10
22.585075
20
135.3634758
40
2.855117
50
192.0791085
51
250.5432918
0
ARC
8
DEFAULT_255_2_778
10
22.5923946
20
135.3585666
40
2.8612543
50
179.9681061
51
191.9523067
0
LINE
8
DEFAULT_255_2_778
10
19.7311407
20
135.3601593
11
19.7311407
21
135.3601593
0
ARC
8
DEFAULT_255_2_778
10
22.5818308
20
135.3633752
40
3.6007853
50
163.4621275
51
180.0512713
0
ARC
8
DEFAULT_255_2_778
10
22.5873636
20
135.3542342
40
3.6086982
50
108.9404336
51
163.3480028
0
ARC
8
DEFAULT_255_2_778
10
22.5762851
20
135.3692765
40
3.5908787
50
91.4427459
51
108.8511429
0
ARC
8
DEFAULT_255_2_778
10
22.5810968
20
135.2915968
40
3.668656
50
89.9992163
51
91.4873234
0
ARC
8
DEFAULT_255_2_778
10
22.584365
20
135.3597485
40
3.600506
50
73.4614817
51
90.0512085
0
ARC
8
DEFAULT_255_2_778
10
22.5751226
20
135.3539544
40
3.6086985
50
18.9401309
51
73.3469972
0
ARC
8
DEFAULT_255_2_778
10
22.5901374
20
135.3650115
40
3.5909119
50
1.4427867
51
18.8510192
0
ARC
8
DEFAULT_255_2_778
10
22.5124908
20
135.3602032
40
3.668656
50
359.9992163
51
1.4873234
0
ARC
8
DEFAULT_255_2_778
10
22.5806241
20
135.3569364
40
3.6005243
50
343.4615472
51
0.051187
0
ARC
8
DEFAULT_255_2_778
10
22.5748359
20
135.3661655
40
3.6087075
50
288.9411333
51
343.3472375
0
ARC
8
DEFAULT_255_2_778
10
22.5859982
20
135.3509032
40
3.5906527
50
271.4429309
51
288.8517143
0
ARC
8
DEFAULT_255_2_778
10
22.5811973
20
135.4284341
40
3.6682809
50
269.9992139
51
271.4873993
0
ARC
8
DEFAULT_255_2_778
10
22.5779261
20
135.3609552
40
3.6008037
50
253.462193
51
270.0512498
0
ARC
8
DEFAULT_255_2_778
10
22.5870539
20
135.366482
40
3.6087073
50
198.941436
51
253.3482432
0
ARC
8
DEFAULT_255_2_778
10
22.5717641
20
135.3552984
40
3.5906195
50
181.4428901
51
198.851838
0
ARC
8
DEFAULT_255_2_778
10
22.649328
20
135.3601027
40
3.6682809
50
179.9992139
51
181.4873993
0
LINE
8
DEFAULT_255_2_778
10
18.981047
20
135.360153
11
18.981047
21
135.360153
0
ARC
8
DEFAULT_255_2_778
10
22.6374811
20
135.3643476
40
5.5563762
50
167.2710742
51
180.0418036
0
ARC
8
DEFAULT_255_2_778
10
22.5480656
20
135.3821365
40
5.4652391
50
149.0473448
51
167.2464377
0
ARC
8
DEFAULT_255_2_778
10
22.5723276
20
135.3683352
40
5.4931444
50
110.1006095
51
149.0540489
0
ARC
8
DEFAULT_255_2_778
10
22.5660097
20
135.3700561
40
5.4893596
50
95.6529684
51
110.0448555
0
ARC
8
DEFAULT_255_2_778
10
22.580004
20
135.2465326
40
5.6136611
50
89.989769
51
95.67092
0
ARC
8
DEFAULT_255_2_778
10
22.5850604
20
135.3038189
40
5.5563762
50
77.2710742
51
90.0418036
0
ARC
8
DEFAULT_255_2_778
10
22.6028493
20
135.3932344
40
5.4652391
50
59.0473448
51
77.2464377
0
ARC
8
DEFAULT_255_2_778
10
22.589048
20
135.3689724
40
5.4931444
50
20.1006095
51
59.0540489
0
ARC
8
DEFAULT_255_2_778
10
22.5907689
20
135.3752903
40
5.4893596
50
5.6529684
51
20.0448555
0
ARC
8
DEFAULT_255_2_778
10
22.4672454
20
135.361296
40
5.6136611
50
359.989769
51
5.67092
0
ARC
8
DEFAULT_255_2_778
10
22.5245317
20
135.3562396
40
5.5563762
50
347.2710742
51
0.0418036
0
ARC
8
DEFAULT_255_2_778
10
22.6139472
20
135.3384507
40
5.4652391
50
329.0473448
51
347.2464377
0
ARC
8
DEFAULT_255_2_778
10
22.5896852
20
135.352252
40
5.4931444
50
290.1006095
51
329.0540489
0
ARC
8
DEFAULT_255_2_778
10
22.5960031
20
135.3505311
40
5.4893596
50
275.6529684
51
290.0448555
0
ARC
8
DEFAULT_255_2_778
10
22.5820088
20
135.4740546
40
5.6136611
50
269.989769
51
275.67092
0
ARC
8
DEFAULT_255_2_778
10
22.5769524
20
135.4167683
40
5.5563762
50
257.2710742
51
270.0418036
0
ARC
8
DEFAULT_255_2_778
10
22.5591635
20
135.3273528
40
5.4652391
50
239.0473448
51
257.2464377
0
ARC
8
DEFAULT_255_2_778
10
22.5729648
20
135.3516148
40
5.4931444
50
200.1006095
51
239.0540489
0
ARC
8
DEFAULT_255_2_778
10
22.5712439
20
135.3452969
40
5.4893596
50
185.6529684
51
200.0448555
0
ARC
8
DEFAULT_255_2_778
10
22.6947674
20
135.3592912
40
5.6136611
50
179.989769
51
185.67092
0
LINE
8
DEFAULT_255_2_778
10
17.0811064
20
135.3602936
11
17.0811064
21
135.3602936
0
ARC
8
DEFAULT_255_2_778
10
22.5865065
20
135.3636631
40
4.2552098
50
164.8850117
51
180.0452568
0
ARC
8
DEFAULT_255_2_778
10
22.5704538
20
135.3635195
40
4.2397522
50
139.2124571
51
164.826571
0
ARC
8
DEFAULT_255_2_778
10
22.5851734
20
135.3580404
40
4.2544797
50
107.818442
51
139.286086
0
ARC
8
DEFAULT_255_2_778
10
22.5756289
20
135.3698563
40
4.2403134
50
91.7803204
51
107.7445165
0
ARC
8
DEFAULT_255_2_778
10
22.5812234
20
135.2820322
40
4.3282698
50
89.9990122
51
91.8182243
0
ARC
8
DEFAULT_255_2_778
10
22.5846591
20
135.3550935
40
4.2552098
50
74.8850117
51
90.0452568
0
ARC
8
DEFAULT_255_2_778
10
22.5845156
20
135.3711462
40
4.2397522
50
49.2124571
51
74.826571
0
ARC
8
DEFAULT_255_2_778
10
22.5790365
20
135.3564266
40
4.2544797
50
17.818442
51
49.286086
0
ARC
8
DEFAULT_255_2_778
10
22.5908524
20
135.3659711
40
4.2403134
50
1.7803204
51
17.7445165
0
ARC
8
DEFAULT_255_2_778
10
22.5030283
20
135.3603766
40
4.3282698
50
359.9990122
51
1.8182243
0
ARC
8
DEFAULT_255_2_778
10
22.5760896
20
135.3569409
40
4.2552098
50
344.8850117
51
0.0452568
0
ARC
8
DEFAULT_255_2_778
10
22.5921423
20
135.3570844
40
4.2397522
50
319.2124571
51
344.826571
0
ARC
8
DEFAULT_255_2_778
10
22.5774226
20
135.3625635
40
4.2544797
50
287.818442
51
319.286086
0
ARC
8
DEFAULT_255_2_778
10
22.5869672
20
135.3507476
40
4.2403134
50
271.7803204
51
287.7445165
0
ARC
8
DEFAULT_255_2_778
10
22.5813727
20
135.4385717
40
4.3282698
50
269.9990122
51
271.8182243
0
ARC
8
DEFAULT_255_2_778
10
22.5779369
20
135.3655104
40
4.2552098
50
254.8850117
51
270.0452568
0
ARC
8
DEFAULT_255_2_778
10
22.5780805
20
135.3494577
40
4.2397522
50
229.2124571
51
254.826571
0
ARC
8
DEFAULT_255_2_778
10
22.5835596
20
135.3641774
40
4.2544797
50
197.818442
51
229.286086
0
ARC
8
DEFAULT_255_2_778
10
22.5717437
20
135.3546328
40
4.2403134
50
181.7803204
51
197.7445165
0
ARC
8
DEFAULT_255_2_778
10
22.6595678
20
135.3602273
40
4.3282698
50
179.9990122
51
181.8182243
0
LINE
8
DEFAULT_255_2_778
10
18.331298
20
135.360302
11
18.331298
21
135.360302
0
ARC
8
DEFAULT_255_2_778
10
22.5800175
20
114.1114825
40
0.5987939
50
89.8748857
51
180.1251076
0
ARC
8
DEFAULT_255_2_778
10
22.5828088
20
114.1117585
40
0.5985184
50
359.8484135
51
90.142038
0
ARC
8
DEFAULT_255_2_778
10
22.5828938
20
114.1086062
40
0.5984333
50
269.8498027
51
0.1501973
0
ARC
8
DEFAULT_255_2_778
10
22.5797415
20
114.1086912
40
0.5985184
50
179.857962
51
270.1515865
0
LINE
8
DEFAULT_255_2_778
10
21.981225
20
114.110175
11
21.981225
21
114.110175
0
ARC
8
DEFAULT_255_2_778
10
22.5765918
20
112.3633627
40
2.8454528
50
160.6248181
51
180.0624895
0
ARC
8
DEFAULT_255_2_778
10
22.584364
20
112.3562973
40
2.8551317
50
102.0778297
51
160.5428053
0
ARC
8
DEFAULT_255_2_778
10
22.5795457
20
112.3487019
40
2.8615577
50
89.9680649
51
101.9516712
0
ARC
8
DEFAULT_255_2_778
10
22.5842382
20
112.3650714
40
2.8451896
50
70.6239137
51
90.0623757
0
ARC
8
DEFAULT_255_2_778
10
22.5770615
20
112.3570428
40
2.8551474
50
12.0776231
51
70.5415051
0
ARC
8
DEFAULT_255_2_778
10
22.5694653
20
112.3618533
40
2.8615758
50
359.968084
51
11.951614
0
ARC
8
DEFAULT_255_2_778
10
22.5858329
20
112.3571624
40
2.8452095
50
340.6240425
51
0.0623645
0
ARC
8
DEFAULT_255_2_778
10
22.577831
20
112.3643107
40
2.8551327
50
282.0789019
51
340.5419916
0
ARC
8
DEFAULT_255_2_778
10
22.5827325
20
112.3716313
40
2.8612724
50
269.9681253
51
281.9522494
0
ARC
8
DEFAULT_255_2_778
10
22.5780379
20
112.3558302
40
2.8454726
50
250.624947
51
270.0624783
0
ARC
8
DEFAULT_255_2_778
10
22.585075
20
112.3635758
40
2.855117
50
192.0791085
51
250.5432918
0
ARC
8
DEFAULT_255_2_778
10
22.5923946
20
112.3586666
40
2.8612543
50
179.9681061
51
191.9523067
0
LINE
8
DEFAULT_255_2_778
10
19.7311407
20
112.3602593
11
19.7311407
21
112.3602593
0
ARC
8
DEFAULT_255_2_778
10
22.5818308
20
112.3634752
40
3.6007853
50
163.4621275
51
180.0512713
0
ARC
8
DEFAULT_255_2_778
10
22.5873636
20
112.3543342
40
3.6086982
50
108.9404336
51
163.3480028
0
ARC
8
DEFAULT_255_2_778
10
22.5762851
20
112.3693765
40
3.5908787
50
91.4427459
51
108.8511429
0
ARC
8
DEFAULT_255_2_778
10
22.5810968
20
112.2916968
40
3.668656
50
89.9992163
51
91.4873234
0
ARC
8
DEFAULT_255_2_778
10
22.584365
20
112.3598485
40
3.600506
50
73.4614817
51
90.0512085
0
ARC
8
DEFAULT_255_2_778
10
22.5751226
20
112.3540544
40
3.6086985
50
18.9401309
51
73.3469972
0
ARC
8
DEFAULT_255_2_778
10
22.5901374
20
112.3651115
40
3.5909119
50
1.4427867
51
18.8510192
0
ARC
8
DEFAULT_255_2_778
10
22.5124908
20
112.3603032
40
3.668656
50
359.9992163
51
1.4873234
0
ARC
8
DEFAULT_255_2_778
10
22.5806241
20
112.3570364
40
3.6005243
50
343.4615472
51
0.051187
0
ARC
8
DEFAULT_255_2_778
10
22.5748359
20
112.3662655
40
3.6087075
50
288.9411333
51
343.3472375
0
ARC
8
DEFAULT_255_2_778
10
22.5859982
20
112.3510032
40
3.5906527
50
271.4429309
51
288.8517143
0
ARC
8
DEFAULT_255_2_778
10
22.5811973
20
112.4285341
40
3.6682809
50
269.9992139
51
271.4873993
0
ARC
8
DEFAULT_255_2_778
10
22.5779261
20
112.3610552
40
3.6008037
50
253.462193
51
270.0512498
0
ARC
8
DEFAULT_255_2_778
10
22.5870539
20
112.366582
40
3.6087073
50
198.941436
51
253.3482432
0
ARC
8
DEFAULT_255_2_778
10
22.5717641
20
112.3553984
40
3.5906195
50
181.4428901
51
198.851838
0
ARC
8
DEFAULT_255_2_778
10
22.649328
20
112.3602027
40
3.6682809
50
179.9992139
51
181.4873993
0
LINE
8
DEFAULT_255_2_778
10
18.981047
20
112.360253
11
18.981047
21
112.360253
0
ARC
8
DEFAULT_255_2_778
10
22.5800175
20
110.6112825
40
0.5987939
50
89.8748857
51
180.1251076
0
ARC
8
DEFAULT_255_2_778
10
22.5828088
20
110.6115585
40
0.5985184
50
359.8484135
51
90.142038
0
ARC
8
DEFAULT_255_2_778
10
22.5828938
20
110.6084062
40
0.5984333
50
269.8498027
51
0.1501973
0
ARC
8
DEFAULT_255_2_778
10
22.5797415
20
110.6084912
40
0.5985184
50
179.857962
51
270.1515865
0
LINE
8
DEFAULT_255_2_778
10
21.981225
20
110.609975
11
21.981225
21
110.609975
0
ARC
8
DEFAULT_255_2_778
10
22.6374811
20
112.3643476
40
5.5563762
50
167.2710742
51
180.0418036
0
ARC
8
DEFAULT_255_2_778
10
22.5480656
20
112.3821365
40
5.4652391
50
149.0473448
51
167.2464377
0
ARC
8
DEFAULT_255_2_778
10
22.5723276
20
112.3683352
40
5.4931444
50
110.1006095
51
149.0540489
0
ARC
8
DEFAULT_255_2_778
10
22.5660097
20
112.3700561
40
5.4893596
50
95.6529684
51
110.0448555
0
ARC
8
DEFAULT_255_2_778
10
22.580004
20
112.2465326
40
5.6136611
50
89.989769
51
95.67092
0
ARC
8
DEFAULT_255_2_778
10
22.5850604
20
112.3038189
40
5.5563762
50
77.2710742
51
90.0418036
0
ARC
8
DEFAULT_255_2_778
10
22.6028493
20
112.3932344
40
5.4652391
50
59.0473448
51
77.2464377
0
ARC
8
DEFAULT_255_2_778
10
22.589048
20
112.3689724
40
5.4931444
50
20.1006095
51
59.0540489
0
ARC
8
DEFAULT_255_2_778
10
22.5907689
20
112.3752903
40
5.4893596
50
5.6529684
51
20.0448555
0
ARC
8
DEFAULT_255_2_778
10
22.4672454
20
112.361296
40
5.6136611
50
359.989769
51
5.67092
0
ARC
8
DEFAULT_255_2_778
10
22.5245317
20
112.3562396
40
5.5563762
50
347.2710742
51
0.0418036
0
ARC
8
DEFAULT_255_2_778
10
22.6139472
20
112.3384507
40
5.4652391
50
329.0473448
51
347.2464377
0
ARC
8
DEFAULT_255_2_778
10
22.5896852
20
112.352252
40
5.4931444
50
290.1006095
51
329.0540489
0
ARC
8
DEFAULT_255_2_778
10
22.5960031
20
112.3505311
40
5.4893596
50
275.6529684
51
290.0448555
0
ARC
8
DEFAULT_255_2_778
10
22.5820088
20
112.4740546
40
5.6136611
50
269.989769
51
275.67092
0
ARC
8
DEFAULT_255_2_778
10
22.5769524
20
112.4167683
40
5.5563762
50
257.2710742
51
270.0418036
0
ARC
8
DEFAULT_255_2_778
10
22.5591635
20
112.3273528
40
5.4652391
50
239.0473448
51
257.2464377
0
ARC
8
DEFAULT_255_2_778
10
22.5729648
20
112.3516148
40
5.4931444
50
200.1006095
51
239.0540489
0
ARC
8
DEFAULT_255_2_778
10
22.5712439
20
112.3452969
40
5.4893596
50
185.6529684
51
200.0448555
0
ARC
8
DEFAULT_255_2_778
10
22.6947674
20
112.3592912
40
5.6136611
50
179.989769
51
185.67092
0
LINE
8
DEFAULT_255_2_778
10
17.0811064
20
112.3602936
11
17.0811064
21
112.3602936
0
ARC
8
DEFAULT_255_2_778
10
22.5865065
20
112.3636631
40
4.2552098
50
164.8850117
51
180.0452568
0
ARC
8
DEFAULT_255_2_778
10
22.5704538
20
112.3635195
40
4.2397522
50
139.2124571
51
164.826571
0
ARC
8
DEFAULT_255_2_778
10
22.5851734
20
112.3580404
40
4.2544797
50
107.818442
51
139.286086
0
ARC
8
DEFAULT_255_2_778
10
22.5756289
20
112.3698563
40
4.2403134
50
91.7803204
51
107.7445165
0
ARC
8
DEFAULT_255_2_778
10
22.5812234
20
112.2820322
40
4.3282698
50
89.9990122
51
91.8182243
0
ARC
8
DEFAULT_255_2_778
10
22.5846591
20
112.3550935
40
4.2552098
50
74.8850117
51
90.0452568
0
ARC
8
DEFAULT_255_2_778
10
22.5845156
20
112.3711462
40
4.2397522
50
49.2124571
51
74.826571
0
ARC
8
DEFAULT_255_2_778
10
22.5790365
20
112.3564266
40
4.2544797
50
17.818442
51
49.286086
0
ARC
8
DEFAULT_255_2_778
10
22.5908524
20
112.3659711
40
4.2403134
50
1.7803204
51
17.7445165
0
ARC
8
DEFAULT_255_2_778
10
22.5030283
20
112.3603766
40
4.3282698
50
359.9990122
51
1.8182243
0
ARC
8
DEFAULT_255_2_778
10
22.5760896
20
112.3569409
40
4.2552098
50
344.8850117
51
0.0452568
0
ARC
8
DEFAULT_255_2_778
10
22.5921423
20
112.3570844
40
4.2397522
50
319.2124571
51
344.826571
0
ARC
8
DEFAULT_255_2_778
10
22.5774226
20
112.3625635
40
4.2544797
50
287.818442
51
319.286086
0
ARC
8
DEFAULT_255_2_778
10
22.5869672
20
112.3507476
40
4.2403134
50
271.7803204
51
287.7445165
0
ARC
8
DEFAULT_255_2_778
10
22.5813727
20
112.4385717
40
4.3282698
50
269.9990122
51
271.8182243
0
ARC
8
DEFAULT_255_2_778
10
22.5779369
20
112.3655104
40
4.2552098
50
254.8850117
51
270.0452568
0
ARC
8
DEFAULT_255_2_778
10
22.5780805
20
112.3494577
40
4.2397522
50
229.2124571
51
254.826571
0
ARC
8
DEFAULT_255_2_778
10
22.5835596
20
112.3641774
40
4.2544797
50
197.818442
51
229.286086
0
ARC
8
DEFAULT_255_2_778
10
22.5717437
20
112.3546328
40
4.2403134
50
181.7803204
51
197.7445165
0
ARC
8
DEFAULT_255_2_778
10
22.6595678
20
112.3602273
40
4.3282698
50
179.9990122
51
181.8182243
0
LINE
8
DEFAULT_255_2_778
10
18.331298
20
112.360302
11
18.331298
21
112.360302
0
ARC
8
DEFAULT_255_2_778
10
7.5799175
20
68.1113825
40
0.5987939
50
89.8748857
51
180.1251076
0
ARC
8
DEFAULT_255_2_778
10
7.5827088
20
68.1116585
40
0.5985184
50
359.8484135
51
90.142038
0
ARC
8
DEFAULT_255_2_778
10
7.5827938
20
68.1085062
40
0.5984333
50
269.8498027
51
0.1501973
0
ARC
8
DEFAULT_255_2_778
10
7.5796415
20
68.1085912
40
0.5985184
50
179.857962
51
270.1515865
0
LINE
8
DEFAULT_255_2_778
10
6.981125
20
68.110075
11
6.981125
21
68.110075
0
ARC
8
DEFAULT_255_2_778
10
7.5799175
20
64.6113825
40
0.5987939
50
89.8748857
51
180.1251076
0
ARC
8
DEFAULT_255_2_778
10
7.5827088
20
64.6116585
40
0.5985184
50
359.8484135
51
90.142038
0
ARC
8
DEFAULT_255_2_778
10
7.5827938
20
64.6085062
40
0.5984333
50
269.8498027
51
0.1501973
0
ARC
8
DEFAULT_255_2_778
10
7.5796415
20
64.6085912
40
0.5985184
50
179.857962
51
270.1515865
0
LINE
8
DEFAULT_255_2_778
10
6.981125
20
64.610075
11
6.981125
21
64.610075
0
ARC
8
DEFAULT_255_2_778
10
7.5829705
20
66.3657168
40
2.8518045
50
180.0000045
51
180.1135457
0
ARC
8
DEFAULT_255_2_778
10
7.5752082
20
66.3659186
40
2.8440422
50
134.997008
51
180.0040706
0
ARC
8
DEFAULT_255_2_778
10
7.5754182
20
66.3661287
40
2.8440423
50
89.9959294
51
135.002992
0
ARC
8
DEFAULT_255_2_778
10
7.5756201
20
66.3583663
40
2.8518045
50
89.8864543
51
89.9999955
0
ARC
8
DEFAULT_255_2_778
10
7.584375
20
66.3647142
40
2.8454528
50
70.6248181
51
90.0624895
0
ARC
8
DEFAULT_255_2_778
10
7.5773096
20
66.356942
40
2.8551317
50
12.0778297
51
70.5428053
0
ARC
8
DEFAULT_255_2_778
10
7.5697143
20
66.3617602
40
2.8615577
50
359.9680649
51
11.9516712
0
ARC
8
DEFAULT_255_2_778
10
7.585917
20
66.3570568
40
2.8453563
50
340.6244884
51
0.0625937
0
ARC
8
DEFAULT_255_2_778
10
7.5781503
20
66.3641502
40
2.8550395
50
282.0761347
51
340.5419072
0
ARC
8
DEFAULT_255_2_778
10
7.5828675
20
66.3720213
40
2.8617564
50
269.9680484
51
281.9508101
0
ARC
8
DEFAULT_255_2_778
10
7.5752469
20
66.3460168
40
2.8357579
50
270.0000078
51
270.1217274
0
ARC
8
DEFAULT_255_2_778
10
7.5752807
20
66.3542093
40
2.8439504
50
224.9990741
51
269.9993277
0
ARC
8
DEFAULT_255_2_778
10
7.5756141
20
66.35458
40
2.8444482
50
179.9973021
51
224.9996054
0
ARC
8
DEFAULT_255_2_778
10
7.5829706
20
66.3547137
40
2.8518045
50
179.8864543
51
179.9999955
0
LINE
8
DEFAULT_255_2_778
10
4.7311716
20
66.3603653
11
4.7311716
21
66.3600653
0
ARC
8
DEFAULT_255_2_778
10
7.5722741
20
66.3671396
40
3.5912773
50
180.0000037
51
180.1081695
0
ARC
8
DEFAULT_255_2_778
10
7.5741447
20
66.3671227
40
3.5931478
50
135.0000516
51
179.9997345
0
ARC
8
DEFAULT_255_2_778
10
7.5741401
20
66.3671181
40
3.5931478
50
90.0002655
51
134.9999484
0
ARC
8
DEFAULT_255_2_778
10
7.5741232
20
66.3689887
40
3.5912773
50
89.8918305
51
89.9999963
0
ARC
8
DEFAULT_255_2_778
10
7.5816337
20
66.3632572
40
3.5970025
50
64.6272464
51
90.0116362
0
ARC
8
DEFAULT_255_2_778
10
7.5816685
20
66.3609214
40
3.5990984
50
32.7612618
51
64.6436806
0
ARC
8
DEFAULT_255_2_778
10
7.5719665
20
66.3549577
40
3.6104843
50
30.0010942
51
32.7575309
0
ARC
8
DEFAULT_255_2_778
10
7.5833328
20
66.3608729
40
3.5976834
50
14.4078544
51
30.0100228
0
ARC
8
DEFAULT_255_2_778
10
7.5797445
20
66.3603709
40
3.6012837
50
359.9974342
51
14.4013857
0
ARC
8
DEFAULT_255_2_778
10
7.5824184
20
66.3597612
40
3.5986098
50
337.6092583
51
0.0071393
0
ARC
8
DEFAULT_255_2_778
10
7.5781178
20
66.362106
40
3.6034794
50
329.9962053
51
337.6008338
0
ARC
8
DEFAULT_255_2_778
10
7.5834893
20
66.3578385
40
3.5966939
50
304.6258839
51
330.0122871
0
ARC
8
DEFAULT_255_2_778
10
7.5813364
20
66.3592124
40
3.599048
50
272.7584416
51
304.6416592
0
ARC
8
DEFAULT_255_2_778
10
7.5809462
20
66.3710989
40
3.6109394
50
269.9993177
51
272.755549
0
ARC
8
DEFAULT_255_2_778
10
7.5741213
20
66.3535068
40
3.5933536
50
270.0000061
51
270.1081368
0
ARC
8
DEFAULT_255_2_778
10
7.5739997
20
66.3532034
40
3.5930502
50
225.0016614
51
270.0019458
0
ARC
8
DEFAULT_255_2_778
10
7.5745506
20
66.3533646
40
3.5935537
50
180.0013521
51
224.9972674
0
ARC
8
DEFAULT_255_2_778
10
7.5722741
20
66.3532796
40
3.5912773
50
179.8918305
51
179.9999963
0
LINE
8
DEFAULT_255_2_778
10
3.9810032
20
66.3600596
11
3.9810032
21
66.3603596
0
ARC
8
DEFAULT_255_2_778
10
7.6374811
20
66.3644476
40
5.5563762
50
167.2710742
51
180.0418036
0
ARC
8
DEFAULT_255_2_778
10
7.5480656
20
66.3822365
40
5.4652391
50
149.0473448
51
167.2464377
0
ARC
8
DEFAULT_255_2_778
10
7.5723276
20
66.3684352
40
5.4931444
50
110.1006095
51
149.0540489
0
ARC
8
DEFAULT_255_2_778
10
7.5660097
20
66.3701561
40
5.4893596
50
95.6529684
51
110.0448555
0
ARC
8
DEFAULT_255_2_778
10
7.580004
20
66.2466326
40
5.6136611
50
89.989769
51
95.67092
0
ARC
8
DEFAULT_255_2_778
10
7.5850604
20
66.3039189
40
5.5563762
50
77.2710742
51
90.0418036
0
ARC
8
DEFAULT_255_2_778
10
7.6028493
20
66.3933344
40
5.4652391
50
59.0473448
51
77.2464377
0
ARC
8
DEFAULT_255_2_778
10
7.589048
20
66.3690724
40
5.4931444
50
20.1006095
51
59.0540489
0
ARC
8
DEFAULT_255_2_778
10
7.5907689
20
66.3753903
40
5.4893596
50
5.6529684
51
20.0448555
0
ARC
8
DEFAULT_255_2_778
10
7.4672454
20
66.361396
40
5.6136611
50
359.989769
51
5.67092
0
ARC
8
DEFAULT_255_2_778
10
7.5245317
20
66.3563396
40
5.5563762
50
347.2710742
51
0.0418036
0
ARC
8
DEFAULT_255_2_778
10
7.6139472
20
66.3385507
40
5.4652391
50
329.0473448
51
347.2464377
0
ARC
8
DEFAULT_255_2_778
10
7.5896852
20
66.352352
40
5.4931444
50
290.1006095
51
329.0540489
0
ARC
8
DEFAULT_255_2_778
10
7.5960031
20
66.3506311
40
5.4893596
50
275.6529684
51
290.0448555
0
ARC
8
DEFAULT_255_2_778
10
7.5820088
20
66.4741546
40
5.6136611
50
269.989769
51
275.67092
0
ARC
8
DEFAULT_255_2_778
10
7.5769524
20
66.4168683
40
5.5563762
50
257.2710742
51
270.0418036
0
ARC
8
DEFAULT_255_2_778
10
7.5591635
20
66.3274528
40
5.4652391
50
239.0473448
51
257.2464377
0
ARC
8
DEFAULT_255_2_778
10
7.5729648
20
66.3517148
40
5.4931444
50
200.1006095
51
239.0540489
0
ARC
8
DEFAULT_255_2_778
10
7.5712439
20
66.3453969
40
5.4893596
50
185.6529684
51
200.0448555
0
ARC
8
DEFAULT_255_2_778
10
7.6947674
20
66.3593912
40
5.6136611
50
179.989769
51
185.67092
0
LINE
8
DEFAULT_255_2_778
10
2.0811064
20
66.3603936
11
2.0811064
21
66.3603936
0
ARC
8
DEFAULT_255_2_778
10
7.5950552
20
66.3690738
40
4.2638705
50
180.0000056
51
180.1164065
0
ARC
8
DEFAULT_255_2_778
10
7.5728197
20
66.3690595
40
4.241635
50
135.0026236
51
179.9998121
0
ARC
8
DEFAULT_255_2_778
10
7.572545
20
66.3687848
40
4.241635
50
90.0001879
51
134.9973764
0
ARC
8
DEFAULT_255_2_778
10
7.5725307
20
66.3465493
40
4.2638706
50
89.8835935
51
89.9999944
0
ARC
8
DEFAULT_255_2_778
10
7.5845546
20
66.3552026
40
4.2552098
50
74.8850117
51
90.0452568
0
ARC
8
DEFAULT_255_2_778
10
7.584411
20
66.3712552
40
4.2397522
50
49.2124571
51
74.826571
0
ARC
8
DEFAULT_255_2_778
10
7.578932
20
66.3565356
40
4.2544797
50
17.818442
51
49.286086
0
ARC
8
DEFAULT_255_2_778
10
7.5907479
20
66.3660802
40
4.2403134
50
1.7803204
51
17.7445165
0
ARC
8
DEFAULT_255_2_778
10
7.5029238
20
66.3604856
40
4.3282698
50
359.9990122
51
1.8182243
0
ARC
8
DEFAULT_255_2_778
10
7.5759851
20
66.3570499
40
4.2552098
50
344.8850117
51
0.0452568
0
ARC
8
DEFAULT_255_2_778
10
7.5920377
20
66.3571935
40
4.2397522
50
319.2124571
51
344.826571
0
ARC
8
DEFAULT_255_2_778
10
7.5773181
20
66.3626726
40
4.2544797
50
287.818442
51
319.286086
0
ARC
8
DEFAULT_255_2_778
10
7.5868627
20
66.3508567
40
4.2403134
50
271.7803204
51
287.7445165
0
ARC
8
DEFAULT_255_2_778
10
7.5812681
20
66.4386808
40
4.3282698
50
269.9990122
51
271.8182243
0
ARC
8
DEFAULT_255_2_778
10
7.5725307
20
66.3742727
40
4.2638705
50
270.0000056
51
270.1164065
0
ARC
8
DEFAULT_255_2_778
10
7.572545
20
66.3520372
40
4.241635
50
225.0026236
51
269.9998121
0
ARC
8
DEFAULT_255_2_778
10
7.5726451
20
66.3516902
40
4.2414604
50
179.9992109
51
224.9983535
0
ARC
8
DEFAULT_255_2_778
10
7.5950562
20
66.3517482
40
4.2638715
50
179.8835935
51
179.9999944
0
LINE
8
DEFAULT_255_2_778
10
3.3311935
20
66.360411
11
3.3311935
21
66.360411
0
ARC
8
DEFAULT_255_2_778
10
20.8300092
20
89.3616039
40
0.5987724
50
89.8823921
51
180.1271659
0
ARC
8
DEFAULT_255_2_778
10
20.8328003
20
89.361837
40
0.5985401
50
359.8504789
51
90.1495306
0
ARC
8
DEFAULT_255_2_778
10
20.8328853
20
89.3587278
40
0.598455
50
269.8423158
51
0.1481289
0
ARC
8
DEFAULT_255_2_778
10
20.8297331
20
89.3587697
40
0.5984966
50
179.8558963
51
270.1440942
0
LINE
8
DEFAULT_255_2_778
10
20.2312382
20
89.360275
11
20.2312382
21
89.360275
0
ARC
8
DEFAULT_255_2_778
10
22.5765918
20
89.3631627
40
2.8454528
50
160.6248181
51
180.0624895
0
ARC
8
DEFAULT_255_2_778
10
22.584364
20
89.3560973
40
2.8551317
50
102.0778297
51
160.5428053
0
ARC
8
DEFAULT_255_2_778
10
22.5795457
20
89.3485019
40
2.8615577
50
89.9680649
51
101.9516712
0
ARC
8
DEFAULT_255_2_778
10
22.5842382
20
89.3648714
40
2.8451896
50
70.6239137
51
90.0623757
0
ARC
8
DEFAULT_255_2_778
10
22.5770615
20
89.3568428
40
2.8551474
50
12.0776231
51
70.5415051
0
ARC
8
DEFAULT_255_2_778
10
22.5694653
20
89.3616533
40
2.8615758
50
359.968084
51
11.951614
0
ARC
8
DEFAULT_255_2_778
10
22.5858329
20
89.3569624
40
2.8452095
50
340.6240425
51
0.0623645
0
ARC
8
DEFAULT_255_2_778
10
22.577831
20
89.3641107
40
2.8551327
50
282.0789019
51
340.5419916
0
ARC
8
DEFAULT_255_2_778
10
22.5827325
20
89.3714313
40
2.8612724
50
269.9681253
51
281.9522494
0
ARC
8
DEFAULT_255_2_778
10
22.5780379
20
89.3556302
40
2.8454726
50
250.624947
51
270.0624783
0
ARC
8
DEFAULT_255_2_778
10
22.585075
20
89.3633758
40
2.855117
50
192.0791085
51
250.5432918
0
ARC
8
DEFAULT_255_2_778
10
22.5923946
20
89.3584666
40
2.8612543
50
179.9681061
51
191.9523067
0
LINE
8
DEFAULT_255_2_778
10
19.7311407
20
89.3600593
11
19.7311407
21
89.3600593
0
ARC
8
DEFAULT_255_2_778
10
22.5818308
20
89.3634752
40
3.6007853
50
163.4621275
51
180.0512713
0
ARC
8
DEFAULT_255_2_778
10
22.5873636
20
89.3543342
40
3.6086982
50
108.9404336
51
163.3480028
0
ARC
8
DEFAULT_255_2_778
10
22.5762851
20
89.3693765
40
3.5908787
50
91.4427459
51
108.8511429
0
ARC
8
DEFAULT_255_2_778
10
22.5810968
20
89.2916968
40
3.668656
50
89.9992163
51
91.4873234
0
ARC
8
DEFAULT_255_2_778
10
22.584365
20
89.3598485
40
3.600506
50
73.4614817
51
90.0512085
0
ARC
8
DEFAULT_255_2_778
10
22.5751226
20
89.3540544
40
3.6086985
50
18.9401309
51
73.3469972
0
ARC
8
DEFAULT_255_2_778
10
22.5901374
20
89.3651115
40
3.5909119
50
1.4427867
51
18.8510192
0
ARC
8
DEFAULT_255_2_778
10
22.5124908
20
89.3603032
40
3.668656
50
359.9992163
51
1.4873234
0
ARC
8
DEFAULT_255_2_778
10
22.5806241
20
89.3570364
40
3.6005243
50
343.4615472
51
0.051187
0
ARC
8
DEFAULT_255_2_778
10
22.5748359
20
89.3662655
40
3.6087075
50
288.9411333
51
343.3472375
0
ARC
8
DEFAULT_255_2_778
10
22.5859982
20
89.3510032
40
3.5906527
50
271.4429309
51
288.8517143
0
ARC
8
DEFAULT_255_2_778
10
22.5811973
20
89.4285341
40
3.6682809
50
269.9992139
51
271.4873993
0
ARC
8
DEFAULT_255_2_778
10
22.5779261
20
89.3610552
40
3.6008037
50
253.462193
51
270.0512498
0
ARC
8
DEFAULT_255_2_778
10
22.5870539
20
89.366582
40
3.6087073
50
198.941436
51
253.3482432
0
ARC
8
DEFAULT_255_2_778
10
22.5717641
20
89.3553984
40
3.5906195
50
181.4428901
51
198.851838
0
ARC
8
DEFAULT_255_2_778
10
22.649328
20
89.3602027
40
3.6682809
50
179.9992139
51
181.4873993
0
LINE
8
DEFAULT_255_2_778
10
18.981047
20
89.360253
11
18.981047
21
89.360253
0
ARC
8
DEFAULT_255_2_778
10
22.5800175
20
87.6113825
40
0.5987939
50
89.8748857
51
180.1251076
0
ARC
8
DEFAULT_255_2_778
10
22.5828088
20
87.6116585
40
0.5985184
50
359.8484135
51
90.142038
0
ARC
8
DEFAULT_255_2_778
10
22.5828938
20
87.6085062
40
0.5984333
50
269.8498027
51
0.1501973
0
ARC
8
DEFAULT_255_2_778
10
22.5797415
20
87.6085912
40
0.5985184
50
179.857962
51
270.1515865
0
LINE
8
DEFAULT_255_2_778
10
21.981225
20
87.610075
11
21.981225
21
87.610075
0
ARC
8
DEFAULT_255_2_778
10
22.5800175
20
91.1115825
40
0.5987939
50
89.8748857
51
180.1251076
0
ARC
8
DEFAULT_255_2_778
10
22.5828088
20
91.1118585
40
0.5985184
50
359.8484135
51
90.142038
0
ARC
8
DEFAULT_255_2_778
10
22.5828938
20
91.1087062
40
0.5984333
50
269.8498027
51
0.1501973
0
ARC
8
DEFAULT_255_2_778
10
22.5797415
20
91.1087912
40
0.5985184
50
179.857962
51
270.1515865
0
LINE
8
DEFAULT_255_2_778
10
21.981225
20
91.110275
11
21.981225
21
91.110275
0
ARC
8
DEFAULT_255_2_778
10
22.6374811
20
89.3643476
40
5.5563762
50
167.2710742
51
180.0418036
0
ARC
8
DEFAULT_255_2_778
10
22.5480656
20
89.3821365
40
5.4652391
50
149.0473448
51
167.2464377
0
ARC
8
DEFAULT_255_2_778
10
22.5723276
20
89.3683352
40
5.4931444
50
110.1006095
51
149.0540489
0
ARC
8
DEFAULT_255_2_778
10
22.5660097
20
89.3700561
40
5.4893596
50
95.6529684
51
110.0448555
0
ARC
8
DEFAULT_255_2_778
10
22.580004
20
89.2465326
40
5.6136611
50
89.989769
51
95.67092
0
ARC
8
DEFAULT_255_2_778
10
22.5850604
20
89.3038189
40
5.5563762
50
77.2710742
51
90.0418036
0
ARC
8
DEFAULT_255_2_778
10
22.6028493
20
89.3932344
40
5.4652391
50
59.0473448
51
77.2464377
0
ARC
8
DEFAULT_255_2_778
10
22.589048
20
89.3689724
40
5.4931444
50
20.1006095
51
59.0540489
0
ARC
8
DEFAULT_255_2_778
10
22.5907689
20
89.3752903
40
5.4893596
50
5.6529684
51
20.0448555
0
ARC
8
DEFAULT_255_2_778
10
22.4672454
20
89.361296
40
5.6136611
50
359.989769
51
5.67092
0
ARC
8
DEFAULT_255_2_778
10
22.5245317
20
89.3562396
40
5.5563762
50
347.2710742
51
0.0418036
0
ARC
8
DEFAULT_255_2_778
10
22.6139472
20
89.3384507
40
5.4652391
50
329.0473448
51
347.2464377
0
ARC
8
DEFAULT_255_2_778
10
22.5896852
20
89.352252
40
5.4931444
50
290.1006095
51
329.0540489
0
ARC
8
DEFAULT_255_2_778
10
22.5960031
20
89.3505311
40
5.4893596
50
275.6529684
51
290.0448555
0
ARC
8
DEFAULT_255_2_778
10
22.5820088
20
89.4740546
40
5.6136611
50
269.989769
51
275.67092
0
ARC
8
DEFAULT_255_2_778
10
22.5769524
20
89.4167683
40
5.5563762
50
257.2710742
51
270.0418036
0
ARC
8
DEFAULT_255_2_778
10
22.5591635
20
89.3273528
40
5.4652391
50
239.0473448
51
257.2464377
0
ARC
8
DEFAULT_255_2_778
10
22.5729648
20
89.3516148
40
5.4931444
50
200.1006095
51
239.0540489
0
ARC
8
DEFAULT_255_2_778
10
22.5712439
20
89.3452969
40
5.4893596
50
185.6529684
51
200.0448555
0
ARC
8
DEFAULT_255_2_778
10
22.6947674
20
89.3592912
40
5.6136611
50
179.989769
51
185.67092
0
LINE
8
DEFAULT_255_2_778
10
17.0811064
20
89.3602936
11
17.0811064
21
89.3602936
0
ARC
8
DEFAULT_255_2_778
10
22.5865065
20
89.3636631
40
4.2552098
50
164.8850117
51
180.0452568
0
ARC
8
DEFAULT_255_2_778
10
22.5704538
20
89.3635195
40
4.2397522
50
139.2124571
51
164.826571
0
ARC
8
DEFAULT_255_2_778
10
22.5851734
20
89.3580404
40
4.2544797
50
107.818442
51
139.286086
0
ARC
8
DEFAULT_255_2_778
10
22.5756289
20
89.3698563
40
4.2403134
50
91.7803204
51
107.7445165
0
ARC
8
DEFAULT_255_2_778
10
22.5812234
20
89.2820322
40
4.3282698
50
89.9990122
51
91.8182243
0
ARC
8
DEFAULT_255_2_778
10
22.5846591
20
89.3550935
40
4.2552098
50
74.8850117
51
90.0452568
0
ARC
8
DEFAULT_255_2_778
10
22.5845156
20
89.3711462
40
4.2397522
50
49.2124571
51
74.826571
0
ARC
8
DEFAULT_255_2_778
10
22.5790365
20
89.3564266
40
4.2544797
50
17.818442
51
49.286086
0
ARC
8
DEFAULT_255_2_778
10
22.5908524
20
89.3659711
40
4.2403134
50
1.7803204
51
17.7445165
0
ARC
8
DEFAULT_255_2_778
10
22.5030283
20
89.3603766
40
4.3282698
50
359.9990122
51
1.8182243
0
ARC
8
DEFAULT_255_2_778
10
22.5760896
20
89.3569409
40
4.2552098
50
344.8850117
51
0.0452568
0
ARC
8
DEFAULT_255_2_778
10
22.5921423
20
89.3570844
40
4.2397522
50
319.2124571
51
344.826571
0
ARC
8
DEFAULT_255_2_778
10
22.5774226
20
89.3625635
40
4.2544797
50
287.818442
51
319.286086
0
ARC
8
DEFAULT_255_2_778
10
22.5869672
20
89.3507476
40
4.2403134
50
271.7803204
51
287.7445165
0
ARC
8
DEFAULT_255_2_778
10
22.5813727
20
89.4385717
40
4.3282698
50
269.9990122
51
271.8182243
0
ARC
8
DEFAULT_255_2_778
10
22.5779369
20
89.3655104
40
4.2552098
50
254.8850117
51
270.0452568
0
ARC
8
DEFAULT_255_2_778
10
22.5780805
20
89.3494577
40
4.2397522
50
229.2124571
51
254.826571
0
ARC
8
DEFAULT_255_2_778
10
22.5835596
20
89.3641774
40
4.2544797
50
197.818442
51
229.286086
0
ARC
8
DEFAULT_255_2_778
10
22.5717437
20
89.3546328
40
4.2403134
50
181.7803204
51
197.7445165
0
ARC
8
DEFAULT_255_2_778
10
22.6595678
20
89.3602273
40
4.3282698
50
179.9990122
51
181.8182243
0
LINE
8
DEFAULT_255_2_778
10
18.331298
20
89.360302
11
18.331298
21
89.360302
0
ARC
8
DEFAULT_255_2_778
10
20.8300092
20
66.3614039
40
0.5987724
50
89.8823921
51
180.1271659
0
ARC
8
DEFAULT_255_2_778
10
20.8328003
20
66.361637
40
0.5985401
50
359.8504789
51
90.1495306
0
ARC
8
DEFAULT_255_2_778
10
20.8328853
20
66.3585278
40
0.598455
50
269.8423158
51
0.1481289
0
ARC
8
DEFAULT_255_2_778
10
20.8297331
20
66.3585697
40
0.5984966
50
179.8558963
51
270.1440942
0
LINE
8
DEFAULT_255_2_778
10
20.2312382
20
66.360075
11
20.2312382
21
66.360075
0
ARC
8
DEFAULT_255_2_778
10
22.5765918
20
66.3631627
40
2.8454528
50
160.6248181
51
180.0624895
0
ARC
8
DEFAULT_255_2_778
10
22.584364
20
66.3560973
40
2.8551317
50
102.0778297
51
160.5428053
0
ARC
8
DEFAULT_255_2_778
10
22.5795457
20
66.3485019
40
2.8615577
50
89.9680649
51
101.9516712
0
ARC
8
DEFAULT_255_2_778
10
22.5842382
20
66.3648714
40
2.8451896
50
70.6239137
51
90.0623757
0
ARC
8
DEFAULT_255_2_778
10
22.5770615
20
66.3568428
40
2.8551474
50
12.0776231
51
70.5415051
0
ARC
8
DEFAULT_255_2_778
10
22.5694653
20
66.3616533
40
2.8615758
50
359.968084
51
11.951614
0
ARC
8
DEFAULT_255_2_778
10
22.5858329
20
66.3569624
40
2.8452095
50
340.6240425
51
0.0623645
0
ARC
8
DEFAULT_255_2_778
10
22.577831
20
66.3641107
40
2.8551327
50
282.0789019
51
340.5419916
0
ARC
8
DEFAULT_255_2_778
10
22.5827325
20
66.3714313
40
2.8612724
50
269.9681253
51
281.9522494
0
ARC
8
DEFAULT_255_2_778
10
22.5780379
20
66.3556302
40
2.8454726
50
250.624947
51
270.0624783
0
ARC
8
DEFAULT_255_2_778
10
22.585075
20
66.3633758
40
2.855117
50
192.0791085
51
250.5432918
0
ARC
8
DEFAULT_255_2_778
10
22.5923946
20
66.3584666
40
2.8612543
50
179.9681061
51
191.9523067
0
LINE
8
DEFAULT_255_2_778
10
19.7311407
20
66.3600593
11
19.7311407
21
66.3600593
0
ARC
8
DEFAULT_255_2_778
10
22.5818308
20
66.3635752
40
3.6007853
50
163.4621275
51
180.0512713
0
ARC
8
DEFAULT_255_2_778
10
22.5873636
20
66.3544342
40
3.6086982
50
108.9404336
51
163.3480028
0
ARC
8
DEFAULT_255_2_778
10
22.5762851
20
66.3694765
40
3.5908787
50
91.4427459
51
108.8511429
0
ARC
8
DEFAULT_255_2_778
10
22.5810968
20
66.2917968
40
3.668656
50
89.9992163
51
91.4873234
0
ARC
8
DEFAULT_255_2_778
10
22.584365
20
66.3599485
40
3.600506
50
73.4614817
51
90.0512085
0
ARC
8
DEFAULT_255_2_778
10
22.5751226
20
66.3541544
40
3.6086985
50
18.9401309
51
73.3469972
0
ARC
8
DEFAULT_255_2_778
10
22.5901374
20
66.3652115
40
3.5909119
50
1.4427867
51
18.8510192
0
ARC
8
DEFAULT_255_2_778
10
22.5124908
20
66.3604032
40
3.668656
50
359.9992163
51
1.4873234
0
ARC
8
DEFAULT_255_2_778
10
22.5806241
20
66.3571364
40
3.6005243
50
343.4615472
51
0.051187
0
ARC
8
DEFAULT_255_2_778
10
22.5748359
20
66.3663655
40
3.6087075
50
288.9411333
51
343.3472375
0
ARC
8
DEFAULT_255_2_778
10
22.5859982
20
66.3511032
40
3.5906527
50
271.4429309
51
288.8517143
0
ARC
8
DEFAULT_255_2_778
10
22.5811973
20
66.4286341
40
3.6682809
50
269.9992139
51
271.4873993
0
ARC
8
DEFAULT_255_2_778
10
22.5779261
20
66.3611552
40
3.6008037
50
253.462193
51
270.0512498
0
ARC
8
DEFAULT_255_2_778
10
22.5870539
20
66.366682
40
3.6087073
50
198.941436
51
253.3482432
0
ARC
8
DEFAULT_255_2_778
10
22.5717641
20
66.3554984
40
3.5906195
50
181.4428901
51
198.851838
0
ARC
8
DEFAULT_255_2_778
10
22.649328
20
66.3603027
40
3.6682809
50
179.9992139
51
181.4873993
0
LINE
8
DEFAULT_255_2_778
10
18.981047
20
66.360353
11
18.981047
21
66.360353
0
ARC
8
DEFAULT_255_2_778
10
22.5800175
20
64.6113825
40
0.5987939
50
89.8748857
51
180.1251076
0
ARC
8
DEFAULT_255_2_778
10
22.5828088
20
64.6116585
40
0.5985184
50
359.8484135
51
90.142038
0
ARC
8
DEFAULT_255_2_778
10
22.5828938
20
64.6085062
40
0.5984333
50
269.8498027
51
0.1501973
0
ARC
8
DEFAULT_255_2_778
10
22.5797415
20
64.6085912
40
0.5985184
50
179.857962
51
270.1515865
0
LINE
8
DEFAULT_255_2_778
10
21.981225
20
64.610075
11
21.981225
21
64.610075
0
ARC
8
DEFAULT_255_2_778
10
22.5800175
20
68.1113825
40
0.5987939
50
89.8748857
51
180.1251076
0
ARC
8
DEFAULT_255_2_778
10
22.5828088
20
68.1116585
40
0.5985184
50
359.8484135
51
90.142038
0
ARC
8
DEFAULT_255_2_778
10
22.5828938
20
68.1085062
40
0.5984333
50
269.8498027
51
0.1501973
0
ARC
8
DEFAULT_255_2_778
10
22.5797415
20
68.1085912
40
0.5985184
50
179.857962
51
270.1515865
0
LINE
8
DEFAULT_255_2_778
10
21.981225
20
68.110075
11
21.981225
21
68.110075
0
ARC
8
DEFAULT_255_2_778
10
22.6374811
20
66.3644476
40
5.5563762
50
167.2710742
51
180.0418036
0
ARC
8
DEFAULT_255_2_778
10
22.5480656
20
66.3822365
40
5.4652391
50
149.0473448
51
167.2464377
0
ARC
8
DEFAULT_255_2_778
10
22.5723276
20
66.3684352
40
5.4931444
50
110.1006095
51
149.0540489
0
ARC
8
DEFAULT_255_2_778
10
22.5660097
20
66.3701561
40
5.4893596
50
95.6529684
51
110.0448555
0
ARC
8
DEFAULT_255_2_778
10
22.580004
20
66.2466326
40
5.6136611
50
89.989769
51
95.67092
0
ARC
8
DEFAULT_255_2_778
10
22.5850604
20
66.3039189
40
5.5563762
50
77.2710742
51
90.0418036
0
ARC
8
DEFAULT_255_2_778
10
22.6028493
20
66.3933344
40
5.4652391
50
59.0473448
51
77.2464377
0
ARC
8
DEFAULT_255_2_778
10
22.589048
20
66.3690724
40
5.4931444
50
20.1006095
51
59.0540489
0
ARC
8
DEFAULT_255_2_778
10
22.5907689
20
66.3753903
40
5.4893596
50
5.6529684
51
20.0448555
0
ARC
8
DEFAULT_255_2_778
10
22.4672454
20
66.361396
40
5.6136611
50
359.989769
51
5.67092
0
ARC
8
DEFAULT_255_2_778
10
22.5245317
20
66.3563396
40
5.5563762
50
347.2710742
51
0.0418036
0
ARC
8
DEFAULT_255_2_778
10
22.6139472
20
66.3385507
40
5.4652391
50
329.0473448
51
347.2464377
0
ARC
8
DEFAULT_255_2_778
10
22.5896852
20
66.352352
40
5.4931444
50
290.1006095
51
329.0540489
0
ARC
8
DEFAULT_255_2_778
10
22.5960031
20
66.3506311
40
5.4893596
50
275.6529684
51
290.0448555
0
ARC
8
DEFAULT_255_2_778
10
22.5820088
20
66.4741546
40
5.6136611
50
269.989769
51
275.67092
0
ARC
8
DEFAULT_255_2_778
10
22.5769524
20
66.4168683
40
5.5563762
50
257.2710742
51
270.0418036
0
ARC
8
DEFAULT_255_2_778
10
22.5591635
20
66.3274528
40
5.4652391
50
239.0473448
51
257.2464377
0
ARC
8
DEFAULT_255_2_778
10
22.5729648
20
66.3517148
40
5.4931444
50
200.1006095
51
239.0540489
0
ARC
8
DEFAULT_255_2_778
10
22.5712439
20
66.3453969
40
5.4893596
50
185.6529684
51
200.0448555
0
ARC
8
DEFAULT_255_2_778
10
22.6947674
20
66.3593912
40
5.6136611
50
179.989769
51
185.67092
0
LINE
8
DEFAULT_255_2_778
10
17.0811064
20
66.3603936
11
17.0811064
21
66.3603936
0
ARC
8
DEFAULT_255_2_778
10
22.5865065
20
66.3637631
40
4.2552098
50
164.8850117
51
180.0452568
0
ARC
8
DEFAULT_255_2_778
10
22.5704538
20
66.3636195
40
4.2397522
50
139.2124571
51
164.826571
0
ARC
8
DEFAULT_255_2_778
10
22.5851734
20
66.3581404
40
4.2544797
50
107.818442
51
139.286086
0
ARC
8
DEFAULT_255_2_778
10
22.5756289
20
66.3699563
40
4.2403134
50
91.7803204
51
107.7445165
0
ARC
8
DEFAULT_255_2_778
10
22.5812234
20
66.2821322
40
4.3282698
50
89.9990122
51
91.8182243
0
ARC
8
DEFAULT_255_2_778
10
22.5846591
20
66.3551935
40
4.2552098
50
74.8850117
51
90.0452568
0
ARC
8
DEFAULT_255_2_778
10
22.5845156
20
66.3712462
40
4.2397522
50
49.2124571
51
74.826571
0
ARC
8
DEFAULT_255_2_778
10
22.5790365
20
66.3565266
40
4.2544797
50
17.818442
51
49.286086
0
ARC
8
DEFAULT_255_2_778
10
22.5908524
20
66.3660711
40
4.2403134
50
1.7803204
51
17.7445165
0
ARC
8
DEFAULT_255_2_778
10
22.5030283
20
66.3604766
40
4.3282698
50
359.9990122
51
1.8182243
0
ARC
8
DEFAULT_255_2_778
10
22.5760896
20
66.3570409
40
4.2552098
50
344.8850117
51
0.0452568
0
ARC
8
DEFAULT_255_2_778
10
22.5921423
20
66.3571844
40
4.2397522
50
319.2124571
51
344.826571
0
ARC
8
DEFAULT_255_2_778
10
22.5774226
20
66.3626635
40
4.2544797
50
287.818442
51
319.286086
0
ARC
8
DEFAULT_255_2_778
10
22.5869672
20
66.3508476
40
4.2403134
50
271.7803204
51
287.7445165
0
ARC
8
DEFAULT_255_2_778
10
22.5813727
20
66.4386717
40
4.3282698
50
269.9990122
51
271.8182243
0
ARC
8
DEFAULT_255_2_778
10
22.5779369
20
66.3656104
40
4.2552098
50
254.8850117
51
270.0452568
0
ARC
8
DEFAULT_255_2_778
10
22.5780805
20
66.3495577
40
4.2397522
50
229.2124571
51
254.826571
0
ARC
8
DEFAULT_255_2_778
10
22.5835596
20
66.3642774
40
4.2544797
50
197.818442
51
229.286086
0
ARC
8
DEFAULT_255_2_778
10
22.5717437
20
66.3547328
40
4.2403134
50
181.7803204
51
197.7445165
0
ARC
8
DEFAULT_255_2_778
10
22.6595678
20
66.3603273
40
4.3282698
50
179.9990122
51
181.8182243
0
LINE
8
DEFAULT_255_2_778
10
18.331298
20
66.360402
11
18.331298
21
66.360402
0
ARC
8
DEFAULT_255_2_778
10
22.5765918
20
41.3631627
40
2.8454528
50
160.6248181
51
180.0624895
0
ARC
8
DEFAULT_255_2_778
10
22.584364
20
41.3560973
40
2.8551317
50
102.0778297
51
160.5428053
0
ARC
8
DEFAULT_255_2_778
10
22.5795457
20
41.3485019
40
2.8615577
50
89.9680649
51
101.9516712
0
ARC
8
DEFAULT_255_2_778
10
22.5842382
20
41.3648714
40
2.8451896
50
70.6239137
51
90.0623757
0
ARC
8
DEFAULT_255_2_778
10
22.5770615
20
41.3568428
40
2.8551474
50
12.0776231
51
70.5415051
0
ARC
8
DEFAULT_255_2_778
10
22.5694653
20
41.3616533
40
2.8615758
50
359.968084
51
11.951614
0
ARC
8
DEFAULT_255_2_778
10
22.5856662
20
41.3569514
40
2.8453762
50
340.6246172
51
0.0625825
0
ARC
8
DEFAULT_255_2_778
10
22.5779261
20
41.3640165
40
2.8550248
50
282.0774135
51
340.5423937
0
ARC
8
DEFAULT_255_2_778
10
22.5827344
20
41.3716119
40
2.861453
50
269.9680897
51
281.9514455
0
ARC
8
DEFAULT_255_2_778
10
22.5780334
20
41.3557804
40
2.8456228
50
250.6261059
51
270.0625655
0
ARC
8
DEFAULT_255_2_778
10
22.5849677
20
41.3632765
40
2.8549976
50
192.078188
51
250.5447273
0
ARC
8
DEFAULT_255_2_778
10
22.5926359
20
41.3584623
40
2.8614955
50
179.968023
51
191.9517989
0
LINE
8
DEFAULT_255_2_778
10
19.7311407
20
41.3600593
11
19.7311407
21
41.3600593
0
ARC
8
DEFAULT_255_2_778
10
22.5818308
20
41.3635752
40
3.6007853
50
163.4621275
51
180.0512713
0
ARC
8
DEFAULT_255_2_778
10
22.5873636
20
41.3544342
40
3.6086982
50
108.9404336
51
163.3480028
0
ARC
8
DEFAULT_255_2_778
10
22.5762851
20
41.3694765
40
3.5908787
50
91.4427459
51
108.8511429
0
ARC
8
DEFAULT_255_2_778
10
22.5810968
20
41.2917968
40
3.668656
50
89.9992163
51
91.4873234
0
ARC
8
DEFAULT_255_2_778
10
22.584365
20
41.3599485
40
3.600506
50
73.4614817
51
90.0512085
0
ARC
8
DEFAULT_255_2_778
10
22.5751226
20
41.3541544
40
3.6086985
50
18.9401309
51
73.3469972
0
ARC
8
DEFAULT_255_2_778
10
22.5901374
20
41.3652115
40
3.5909119
50
1.4427867
51
18.8510192
0
ARC
8
DEFAULT_255_2_778
10
22.5124908
20
41.3604032
40
3.668656
50
359.9992163
51
1.4873234
0
ARC
8
DEFAULT_255_2_778
10
22.5806241
20
41.3571364
40
3.6005243
50
343.4615472
51
0.051187
0
ARC
8
DEFAULT_255_2_778
10
22.5748359
20
41.3663655
40
3.6087075
50
288.9411333
51
343.3472375
0
ARC
8
DEFAULT_255_2_778
10
22.5859982
20
41.3511032
40
3.5906527
50
271.4429309
51
288.8517143
0
ARC
8
DEFAULT_255_2_778
10
22.5811973
20
41.4286341
40
3.6682809
50
269.9992139
51
271.4873993
0
ARC
8
DEFAULT_255_2_778
10
22.5779261
20
41.3611552
40
3.6008037
50
253.462193
51
270.0512498
0
ARC
8
DEFAULT_255_2_778
10
22.5870539
20
41.366682
40
3.6087073
50
198.941436
51
253.3482432
0
ARC
8
DEFAULT_255_2_778
10
22.5717641
20
41.3554984
40
3.5906195
50
181.4428901
51
198.851838
0
ARC
8
DEFAULT_255_2_778
10
22.649328
20
41.3603027
40
3.6682809
50
179.9992139
51
181.4873993
0
LINE
8
DEFAULT_255_2_778
10
18.981047
20
41.360353
11
18.981047
21
41.360353
0
ARC
8
DEFAULT_255_2_778
10
22.636924
20
41.364112
40
5.4607983
50
167.1832011
51
180.0423805
0
ARC
8
DEFAULT_255_2_778
10
22.5489525
20
41.3817161
40
5.371114
50
148.9819602
51
167.1581371
0
ARC
8
DEFAULT_255_2_778
10
22.5723499
20
41.3684271
40
5.3980137
50
109.9604169
51
148.9890512
0
ARC
8
DEFAULT_255_2_778
10
22.5669716
20
41.36757
40
5.3969859
50
95.2975608
51
109.9036429
0
ARC
8
DEFAULT_255_2_778
10
22.5804494
20
41.2440486
40
5.5212244
50
89.99089
51
95.3184786
0
ARC
8
DEFAULT_255_2_778
10
22.585364
20
41.3047771
40
5.4604972
50
77.1828466
51
90.0423571
0
ARC
8
DEFAULT_255_2_778
10
22.6029311
20
41.3925925
40
5.3709733
50
58.9814546
51
77.1577598
0
ARC
8
DEFAULT_255_2_778
10
22.5895498
20
41.3690507
40
5.3980442
50
19.9602923
51
58.988499
0
ARC
8
DEFAULT_255_2_778
10
22.5886901
20
41.3744245
40
5.3970206
50
5.2975683
51
19.9035539
0
ARC
8
DEFAULT_255_2_778
10
22.465203
20
41.3609506
40
5.5212244
50
359.99089
51
5.3184786
0
ARC
8
DEFAULT_255_2_778
10
22.5259001
20
41.3560377
40
5.4605286
50
347.1829024
51
0.0423383
0
ARC
8
DEFAULT_255_2_778
10
22.6136974
20
41.3384785
40
5.371024
50
328.9816613
51
347.1577785
0
ARC
8
DEFAULT_255_2_778
10
22.5902068
20
41.3518179
40
5.3980296
50
289.9608713
51
328.9888059
0
ARC
8
DEFAULT_255_2_778
10
22.5956662
20
41.352475
40
5.3967862
50
275.2977607
51
289.9040107
0
ARC
8
DEFAULT_255_2_778
10
22.5822047
20
41.475852
40
5.5208795
50
269.9908933
51
275.3186454
0
ARC
8
DEFAULT_255_2_778
10
22.5772898
20
41.415801
40
5.4608297
50
257.1832569
51
270.0423618
0
ARC
8
DEFAULT_255_2_778
10
22.5596934
20
41.3278476
40
5.3711647
50
238.982167
51
257.1581558
0
ARC
8
DEFAULT_255_2_778
10
22.5729406
20
41.3511938
40
5.397999
50
199.9609959
51
238.9893581
0
ARC
8
DEFAULT_255_2_778
10
22.573595
20
41.3457299
40
5.3967516
50
185.2977531
51
199.9040997
0
ARC
8
DEFAULT_255_2_778
10
22.6970065
20
41.3591953
40
5.5208795
50
179.9908933
51
185.3186454
0
LINE
8
DEFAULT_255_2_778
10
17.1761272
20
41.3600728
11
17.1761272
21
41.3600728
0
ARC
8
DEFAULT_255_2_778
10
22.5864992
20
41.3635089
40
4.3052088
50
164.8848544
51
180.0452573
0
ARC
8
DEFAULT_255_2_778
10
22.5699385
20
41.3635166
40
4.2892212
50
139.4988602
51
164.8272697
0
ARC
8
DEFAULT_255_2_778
10
22.5854839
20
41.3574063
40
4.3050138
50
107.9234317
51
139.5713932
0
ARC
8
DEFAULT_255_2_778
10
22.575407
20
41.3705846
40
4.2893775
50
91.9328382
51
107.8495343
0
ARC
8
DEFAULT_255_2_778
10
22.5811978
20
41.2825888
40
4.3775194
50
89.9987699
51
91.9697425
0
ARC
8
DEFAULT_255_2_778
10
22.5846924
20
41.3549008
40
4.3052088
50
74.8848544
51
90.0452573
0
ARC
8
DEFAULT_255_2_778
10
22.5847002
20
41.3714615
40
4.2892212
50
49.4988602
51
74.8272697
0
ARC
8
DEFAULT_255_2_778
10
22.5785899
20
41.3559161
40
4.3050138
50
17.9234317
51
49.5713932
0
ARC
8
DEFAULT_255_2_778
10
22.5917682
20
41.365993
40
4.2893775
50
1.9328382
51
17.8495343
0
ARC
8
DEFAULT_255_2_778
10
22.5037724
20
41.3602022
40
4.3775194
50
359.9987699
51
1.9697425
0
ARC
8
DEFAULT_255_2_778
10
22.5758782
20
41.3567006
40
4.305415
50
344.8852178
51
0.0453482
0
ARC
8
DEFAULT_255_2_778
10
22.592729
20
41.35661
40
4.2891257
50
319.4986281
51
344.8276901
0
ARC
8
DEFAULT_255_2_778
10
22.5771862
20
41.3627396
40
4.3049288
50
287.9225881
51
319.5709464
0
ARC
8
DEFAULT_255_2_778
10
22.5871825
20
41.3497779
40
4.2895234
50
271.9326934
51
287.8488238
0
ARC
8
DEFAULT_255_2_778
10
22.5813799
20
41.4383047
40
4.3781965
50
269.9988462
51
271.969514
0
ARC
8
DEFAULT_255_2_778
10
22.5778895
20
41.3654933
40
4.3053864
50
254.8855148
51
270.0452768
0
ARC
8
DEFAULT_255_2_778
10
22.577821
20
41.3487289
40
4.2891863
50
229.4995566
51
254.8280063
0
ARC
8
DEFAULT_255_2_778
10
22.5838758
20
41.3641914
40
4.3048798
50
197.9230149
51
229.571935
0
ARC
8
DEFAULT_255_2_778
10
22.5709778
20
41.3542099
40
4.2895395
50
181.9326663
51
197.8491785
0
ARC
8
DEFAULT_255_2_778
10
22.659146
20
41.3600141
40
4.3778543
50
179.9987677
51
181.9696694
0
LINE
8
DEFAULT_255_2_778
10
18.2812918
20
41.3601082
11
18.2812918
21
41.3601082
0
ARC
8
DEFAULT_255_2_778
10
23.0800175
20
39.6614825
40
0.5987939
50
89.8748857
51
180.1251076
0
ARC
8
DEFAULT_255_2_778
10
23.0828088
20
39.6617585
40
0.5985184
50
359.8484135
51
90.142038
0
ARC
8
DEFAULT_255_2_778
10
23.0828938
20
39.6586062
40
0.5984333
50
269.8498027
51
0.1501973
0
ARC
8
DEFAULT_255_2_778
10
23.0797415
20
39.6586912
40
0.5985184
50
179.857962
51
270.1515865
0
LINE
8
DEFAULT_255_2_778
10
22.481225
20
39.660175
11
22.481225
21
39.660175
0
ARC
8
DEFAULT_255_2_778
10
23.0800175
20
43.0613825
40
0.5987939
50
89.8748857
51
180.1251076
0
ARC
8
DEFAULT_255_2_778
10
23.0828088
20
43.0616585
40
0.5985184
50
359.8484135
51
90.142038
0
ARC
8
DEFAULT_255_2_778
10
23.0828938
20
43.0585062
40
0.5984333
50
269.8498027
51
0.1501973
0
ARC
8
DEFAULT_255_2_778
10
23.0797415
20
43.0585912
40
0.5985184
50
179.857962
51
270.1515865
0
LINE
8
DEFAULT_255_2_778
10
22.481225
20
43.060075
11
22.481225
21
43.060075
0
ARC
8
DEFAULT_255_2_778
10
21.1298307
20
40.2863825
40
0.5987939
50
89.8748857
51
180.1251076
0
ARC
8
DEFAULT_255_2_778
10
21.132622
20
40.2866585
40
0.5985184
50
359.8484135
51
90.142038
0
ARC
8
DEFAULT_255_2_778
10
21.132707
20
40.2835062
40
0.5984333
50
269.8498027
51
0.1501973
0
ARC
8
DEFAULT_255_2_778
10
21.1295548
20
40.2835912
40
0.5985184
50
179.857962
51
270.1515865
0
LINE
8
DEFAULT_255_2_778
10
20.5310382
20
40.285075
11
20.5310382
21
40.285075
0
ARC
8
DEFAULT_255_2_778
10
21.1298307
20
42.4363825
40
0.5987939
50
89.8748857
51
180.1251076
0
ARC
8
DEFAULT_255_2_778
10
21.132622
20
42.4366585
40
0.5985184
50
359.8484135
51
90.142038
0
ARC
8
DEFAULT_255_2_778
10
21.132707
20
42.4335062
40
0.5984333
50
269.8498027
51
0.1501973
0
ARC
8
DEFAULT_255_2_778
10
21.1295548
20
42.4335912
40
0.5985184
50
179.857962
51
270.1515865
0
LINE
8
DEFAULT_255_2_778
10
20.5310382
20
42.435075
11
20.5310382
21
42.435075
0
ARC
8
DEFAULT_255_2_778
10
22.3265918
20
19.3633627
40
2.8454528
50
160.6248181
51
180.0624895
0
ARC
8
DEFAULT_255_2_778
10
22.334364
20
19.3562973
40
2.8551317
50
102.0778297
51
160.5428053
0
ARC
8
DEFAULT_255_2_778
10
22.3295457
20
19.3487019
40
2.8615577
50
89.9680649
51
101.9516712
0
ARC
8
DEFAULT_255_2_778
10
22.3342382
20
19.3650714
40
2.8451896
50
70.6239137
51
90.0623757
0
ARC
8
DEFAULT_255_2_778
10
22.3270615
20
19.3570428
40
2.8551474
50
12.0776231
51
70.5415051
0
ARC
8
DEFAULT_255_2_778
10
22.3194653
20
19.3618533
40
2.8615758
50
359.968084
51
11.951614
0
ARC
8
DEFAULT_255_2_778
10
22.3356662
20
19.3571514
40
2.8453762
50
340.6246172
51
0.0625825
0
ARC
8
DEFAULT_255_2_778
10
22.3279261
20
19.3642165
40
2.8550248
50
282.0774135
51
340.5423937
0
ARC
8
DEFAULT_255_2_778
10
22.3327344
20
19.3718119
40
2.861453
50
269.9680897
51
281.9514455
0
ARC
8
DEFAULT_255_2_778
10
22.3280334
20
19.3559804
40
2.8456228
50
250.6261059
51
270.0625655
0
ARC
8
DEFAULT_255_2_778
10
22.3349677
20
19.3634765
40
2.8549976
50
192.078188
51
250.5447273
0
ARC
8
DEFAULT_255_2_778
10
22.3426359
20
19.3586623
40
2.8614955
50
179.968023
51
191.9517989
0
LINE
8
DEFAULT_255_2_778
10
19.4811407
20
19.3602593
11
19.4811407
21
19.3602593
0
ARC
8
DEFAULT_255_2_778
10
22.3318308
20
19.3634752
40
3.6007853
50
163.4621275
51
180.0512713
0
ARC
8
DEFAULT_255_2_778
10
22.3373636
20
19.3543342
40
3.6086982
50
108.9404336
51
163.3480028
0
ARC
8
DEFAULT_255_2_778
10
22.3262851
20
19.3693765
40
3.5908787
50
91.4427459
51
108.8511429
0
ARC
8
DEFAULT_255_2_778
10
22.3310968
20
19.2916968
40
3.668656
50
89.9992163
51
91.4873234
0
ARC
8
DEFAULT_255_2_778
10
22.334365
20
19.3598485
40
3.600506
50
73.4614817
51
90.0512085
0
ARC
8
DEFAULT_255_2_778
10
22.3251226
20
19.3540544
40
3.6086985
50
18.9401309
51
73.3469972
0
ARC
8
DEFAULT_255_2_778
10
22.3401374
20
19.3651115
40
3.5909119
50
1.4427867
51
18.8510192
0
ARC
8
DEFAULT_255_2_778
10
22.2624908
20
19.3603032
40
3.668656
50
359.9992163
51
1.4873234
0
ARC
8
DEFAULT_255_2_778
10
22.3306241
20
19.3570364
40
3.6005243
50
343.4615472
51
0.051187
0
ARC
8
DEFAULT_255_2_778
10
22.3248359
20
19.3662655
40
3.6087075
50
288.9411333
51
343.3472375
0
ARC
8
DEFAULT_255_2_778
10
22.3359982
20
19.3510032
40
3.5906527
50
271.4429309
51
288.8517143
0
ARC
8
DEFAULT_255_2_778
10
22.3311973
20
19.4285341
40
3.6682809
50
269.9992139
51
271.4873993
0
ARC
8
DEFAULT_255_2_778
10
22.3279261
20
19.3610552
40
3.6008037
50
253.462193
51
270.0512498
0
ARC
8
DEFAULT_255_2_778
10
22.3370539
20
19.366582
40
3.6087073
50
198.941436
51
253.3482432
0
ARC
8
DEFAULT_255_2_778
10
22.3217641
20
19.3553984
40
3.5906195
50
181.4428901
51
198.851838
0
ARC
8
DEFAULT_255_2_778
10
22.399328
20
19.3602027
40
3.6682809
50
179.9992139
51
181.4873993
0
LINE
8
DEFAULT_255_2_778
10
18.731047
20
19.360253
11
18.731047
21
19.360253
0
ARC
8
DEFAULT_255_2_778
10
22.3363992
20
19.3637089
40
4.3052088
50
164.8848544
51
180.0452573
0
ARC
8
DEFAULT_255_2_778
10
22.3198385
20
19.3637166
40
4.2892212
50
139.4988602
51
164.8272697
0
ARC
8
DEFAULT_255_2_778
10
22.3353839
20
19.3576063
40
4.3050138
50
107.9234317
51
139.5713932
0
ARC
8
DEFAULT_255_2_778
10
22.325307
20
19.3707846
40
4.2893775
50
91.9328382
51
107.8495343
0
ARC
8
DEFAULT_255_2_778
10
22.3310978
20
19.2827888
40
4.3775194
50
89.9987699
51
91.9697425
0
ARC
8
DEFAULT_255_2_778
10
22.3345924
20
19.3551008
40
4.3052088
50
74.8848544
51
90.0452573
0
ARC
8
DEFAULT_255_2_778
10
22.3346002
20
19.3716615
40
4.2892212
50
49.4988602
51
74.8272697
0
ARC
8
DEFAULT_255_2_778
10
22.3284899
20
19.3561161
40
4.3050138
50
17.9234317
51
49.5713932
0
ARC
8
DEFAULT_255_2_778
10
22.3416682
20
19.366193
40
4.2893775
50
1.9328382
51
17.8495343
0
ARC
8
DEFAULT_255_2_778
10
22.2536724
20
19.3604022
40
4.3775194
50
359.9987699
51
1.9697425
0
ARC
8
DEFAULT_255_2_778
10
22.3259844
20
19.3569076
40
4.3052088
50
344.8848544
51
0.0452573
0
ARC
8
DEFAULT_255_2_778
10
22.3425451
20
19.3568998
40
4.2892212
50
319.4988602
51
344.8272697
0
ARC
8
DEFAULT_255_2_778
10
22.3269997
20
19.3630101
40
4.3050138
50
287.9234317
51
319.5713932
0
ARC
8
DEFAULT_255_2_778
10
22.3370766
20
19.3498318
40
4.2893775
50
271.9328382
51
287.8495343
0
ARC
8
DEFAULT_255_2_778
10
22.3312858
20
19.4378276
40
4.3775194
50
269.9987699
51
271.9697425
0
ARC
8
DEFAULT_255_2_778
10
22.3277911
20
19.3655156
40
4.3052088
50
254.8848544
51
270.0452573
0
ARC
8
DEFAULT_255_2_778
10
22.3277834
20
19.3489549
40
4.2892212
50
229.4988602
51
254.8272697
0
ARC
8
DEFAULT_255_2_778
10
22.3338937
20
19.3645003
40
4.3050138
50
197.9234317
51
229.5713932
0
ARC
8
DEFAULT_255_2_778
10
22.3207154
20
19.3544234
40
4.2893775
50
181.9328382
51
197.8495343
0
ARC
8
DEFAULT_255_2_778
10
22.4087112
20
19.3602142
40
4.3775194
50
179.9987699
51
181.9697425
0
LINE
8
DEFAULT_255_2_778
10
18.0311918
20
19.3603082
11
18.0311918
21
19.3603082
0
ARC
8
DEFAULT_255_2_778
10
22.8300175
20
17.6613825
40
0.5987939
50
89.8748857
51
180.1251076
0
ARC
8
DEFAULT_255_2_778
10
22.8328088
20
17.6616585
40
0.5985184
50
359.8484135
51
90.142038
0
ARC
8
DEFAULT_255_2_778
10
22.8328938
20
17.6585062
40
0.5984333
50
269.8498027
51
0.1501973
0
ARC
8
DEFAULT_255_2_778
10
22.8297415
20
17.6585912
40
0.5985184
50
179.857962
51
270.1515865
0
LINE
8
DEFAULT_255_2_778
10
22.231225
20
17.660075
11
22.231225
21
17.660075
0
ARC
8
DEFAULT_255_2_778
10
22.8300175
20
21.0614825
40
0.5987939
50
89.8748857
51
180.1251076
0
ARC
8
DEFAULT_255_2_778
10
22.8328088
20
21.0617585
40
0.5985184
50
359.8484135
51
90.142038
0
ARC
8
DEFAULT_255_2_778
10
22.8328938
20
21.0586062
40
0.5984333
50
269.8498027
51
0.1501973
0
ARC
8
DEFAULT_255_2_778
10
22.8297415
20
21.0586912
40
0.5985184
50
179.857962
51
270.1515865
0
LINE
8
DEFAULT_255_2_778
10
22.231225
20
21.060175
11
22.231225
21
21.060175
0
ARC
8
DEFAULT_255_2_778
10
20.8800175
20
18.2865825
40
0.5987939
50
89.8748857
51
180.1251076
0
ARC
8
DEFAULT_255_2_778
10
20.8828088
20
18.2868585
40
0.5985184
50
359.8484135
51
90.142038
0
ARC
8
DEFAULT_255_2_778
10
20.8828938
20
18.2837062
40
0.5984333
50
269.8498027
51
0.1501973
0
ARC
8
DEFAULT_255_2_778
10
20.8797415
20
18.2837912
40
0.5985184
50
179.857962
51
270.1515865
0
LINE
8
DEFAULT_255_2_778
10
20.281225
20
18.285275
11
20.281225
21
18.285275
0
ARC
8
DEFAULT_255_2_778
10
20.8800175
20
20.4362825
40
0.5987939
50
89.8748857
51
180.1251076
0
ARC
8
DEFAULT_255_2_778
10
20.8828088
20
20.4365585
40
0.5985184
50
359.8484135
51
90.142038
0
ARC
8
DEFAULT_255_2_778
10
20.8828938
20
20.4334062
40
0.5984333
50
269.8498027
51
0.1501973
0
ARC
8
DEFAULT_255_2_778
10
20.8797415
20
20.4334912
40
0.5985184
50
179.857962
51
270.1515865
0
LINE
8
DEFAULT_255_2_778
10
20.281225
20
20.434975
11
20.281225
21
20.434975
0
ARC
8
DEFAULT_255_2_778
10
7.8321918
20
19.3659292
40
2.8510257
50
180.0000045
51
180.1135617
0
ARC
8
DEFAULT_255_2_778
10
7.8253818
20
19.3660599
40
2.8442158
50
134.9984569
51
180.0026371
0
ARC
8
DEFAULT_255_2_778
10
7.8254182
20
19.3663418
40
2.8440423
50
89.9959294
51
135.002992
0
ARC
8
DEFAULT_255_2_778
10
7.8256201
20
19.3585795
40
2.8518045
50
89.8864543
51
89.9999955
0
ARC
8
DEFAULT_255_2_778
10
7.834375
20
19.3649273
40
2.8454528
50
70.6248181
51
90.0624895
0
ARC
8
DEFAULT_255_2_778
10
7.8273096
20
19.3571551
40
2.8551317
50
12.0778297
51
70.5428053
0
ARC
8
DEFAULT_255_2_778
10
7.8197143
20
19.3619733
40
2.8615577
50
359.9680649
51
11.9516712
0
ARC
8
DEFAULT_255_2_778
10
7.835917
20
19.3572699
40
2.8453563
50
340.6244884
51
0.0625937
0
ARC
8
DEFAULT_255_2_778
10
7.8281503
20
19.3643633
40
2.8550395
50
282.0761347
51
340.5419072
0
ARC
8
DEFAULT_255_2_778
10
7.8328675
20
19.3722344
40
2.8617564
50
269.9680484
51
281.9508101
0
ARC
8
DEFAULT_255_2_778
10
7.8252469
20
19.3462299
40
2.8357579
50
270.0000078
51
270.1217274
0
ARC
8
DEFAULT_255_2_778
10
7.8252807
20
19.3544225
40
2.8439504
50
224.9990741
51
269.9993277
0
ARC
8
DEFAULT_255_2_778
10
7.8256141
20
19.3547931
40
2.8444482
50
179.9973021
51
224.9996054
0
ARC
8
DEFAULT_255_2_778
10
7.8329706
20
19.3549268
40
2.8518045
50
179.8864543
51
179.9999955
0
LINE
8
DEFAULT_255_2_778
10
4.9811716
20
19.3605784
11
4.9811716
21
19.3602784
0
ARC
8
DEFAULT_255_2_778
10
7.8223807
20
19.3671396
40
3.5912773
50
180.0000037
51
180.1081695
0
ARC
8
DEFAULT_255_2_778
10
7.8242513
20
19.3671227
40
3.5931478
50
135.0000516
51
179.9997345
0
ARC
8
DEFAULT_255_2_778
10
7.8242467
20
19.3671181
40
3.5931478
50
90.0002655
51
134.9999484
0
ARC
8
DEFAULT_255_2_778
10
7.8242298
20
19.3689887
40
3.5912773
50
89.8918305
51
89.9999963
0
ARC
8
DEFAULT_255_2_778
10
7.834232
20
19.3594758
40
3.6007853
50
73.4621275
51
90.0512713
0
ARC
8
DEFAULT_255_2_778
10
7.825091
20
19.353943
40
3.6086982
50
18.9404336
51
73.3480028
0
ARC
8
DEFAULT_255_2_778
10
7.8401333
20
19.3650214
40
3.5908787
50
1.4427459
51
18.8511429
0
ARC
8
DEFAULT_255_2_778
10
7.7624537
20
19.3602098
40
3.668656
50
359.9992163
51
1.4873234
0
ARC
8
DEFAULT_255_2_778
10
7.8306053
20
19.3569416
40
3.600506
50
343.4614817
51
0.0512085
0
ARC
8
DEFAULT_255_2_778
10
7.8248112
20
19.366184
40
3.6086985
50
288.9401309
51
343.3469972
0
ARC
8
DEFAULT_255_2_778
10
7.8358683
20
19.3511692
40
3.5909119
50
271.4427867
51
288.8510192
0
ARC
8
DEFAULT_255_2_778
10
7.83106
20
19.4288158
40
3.668656
50
269.9992163
51
271.4873234
0
ARC
8
DEFAULT_255_2_778
10
7.824228
20
19.3535068
40
3.5933536
50
270.0000061
51
270.1081368
0
ARC
8
DEFAULT_255_2_778
10
7.8241063
20
19.3532034
40
3.5930502
50
225.0016614
51
270.0019458
0
ARC
8
DEFAULT_255_2_778
10
7.8246572
20
19.3533646
40
3.5935537
50
180.0013521
51
224.9972674
0
ARC
8
DEFAULT_255_2_778
10
7.8223807
20
19.3532796
40
3.5912773
50
179.8918305
51
179.9999963
0
LINE
8
DEFAULT_255_2_778
10
4.2311098
20
19.3600596
11
4.2311098
21
19.3603596
0
ARC
8
DEFAULT_255_2_778
10
7.8232657
20
19.3686036
40
4.2922861
50
180.0000054
51
180.1106202
0
ARC
8
DEFAULT_255_2_778
10
7.8226959
20
19.3686216
40
4.2917162
50
135.000125
51
180.0002449
0
ARC
8
DEFAULT_255_2_778
10
7.8226826
20
19.3686083
40
4.2917162
50
89.9997551
51
134.999875
0
ARC
8
DEFAULT_255_2_778
10
7.8227006
20
19.3680384
40
4.2922861
50
89.8893798
51
89.9999946
0
ARC
8
DEFAULT_255_2_778
10
7.8343952
20
19.354903
40
4.305415
50
74.8852178
51
90.0453482
0
ARC
8
DEFAULT_255_2_778
10
7.8344858
20
19.3717538
40
4.2891257
50
49.4986281
51
74.8276901
0
ARC
8
DEFAULT_255_2_778
10
7.8283562
20
19.356211
40
4.3049288
50
17.9225881
51
49.5709464
0
ARC
8
DEFAULT_255_2_778
10
7.841318
20
19.3662072
40
4.2895234
50
1.9326934
51
17.8488238
0
ARC
8
DEFAULT_255_2_778
10
7.7527911
20
19.3604047
40
4.3781965
50
359.9988462
51
1.969514
0
ARC
8
DEFAULT_255_2_778
10
7.8253964
20
19.3569073
40
4.3055926
50
344.8858782
51
0.0453677
0
ARC
8
DEFAULT_255_2_778
10
7.8424508
20
19.356756
40
4.2890909
50
319.4993245
51
344.8284266
0
ARC
8
DEFAULT_255_2_778
10
7.8269909
20
19.3628301
40
4.3047948
50
287.9221713
51
319.5714882
0
ARC
8
DEFAULT_255_2_778
10
7.8368918
20
19.3501486
40
4.2896854
50
271.9325214
51
287.848468
0
ARC
8
DEFAULT_255_2_778
10
7.831076
20
19.438848
40
4.3785314
50
269.998844
51
271.9694409
0
ARC
8
DEFAULT_255_2_778
10
7.8223256
20
19.3234118
40
4.263104
50
270.0000076
51
270.1164166
0
ARC
8
DEFAULT_255_2_778
10
7.8223711
20
19.3515113
40
4.2912034
50
224.9991616
51
269.9994
0
ARC
8
DEFAULT_255_2_778
10
7.8229271
20
19.3520074
40
4.2919475
50
179.9996992
51
224.9985961
0
ARC
8
DEFAULT_255_2_778
10
7.8232666
20
19.3520295
40
4.292287
50
179.8893798
51
179.9999946
0
LINE
8
DEFAULT_255_2_778
10
3.5309876
20
19.3603166
11
3.5309876
21
19.3603166
0
ARC
8
DEFAULT_255_2_778
10
9.2799175
20
18.2865825
40
0.5987939
50
89.8748857
51
180.1251076
0
ARC
8
DEFAULT_255_2_778
10
9.2827088
20
18.2868585
40
0.5985184
50
359.8484135
51
90.142038
0
ARC
8
DEFAULT_255_2_778
10
9.2827938
20
18.2837062
40
0.5984333
50
269.8498027
51
0.1501973
0
ARC
8
DEFAULT_255_2_778
10
9.2796415
20
18.2837912
40
0.5985184
50
179.857962
51
270.1515865
0
LINE
8
DEFAULT_255_2_778
10
8.681125
20
18.285275
11
8.681125
21
18.285275
0
ARC
8
DEFAULT_255_2_778
10
9.2799175
20
20.4362825
40
0.5987939
50
89.8748857
51
180.1251076
0
ARC
8
DEFAULT_255_2_778
10
9.2827088
20
20.4365585
40
0.5985184
50
359.8484135
51
90.142038
0
ARC
8
DEFAULT_255_2_778
10
9.2827938
20
20.4334062
40
0.5984333
50
269.8498027
51
0.1501973
0
ARC
8
DEFAULT_255_2_778
10
9.2796415
20
20.4334912
40
0.5985184
50
179.857962
51
270.1515865
0
LINE
8
DEFAULT_255_2_778
10
8.681125
20
20.434975
11
8.681125
21
20.434975
0
ARC
8
DEFAULT_255_2_778
10
7.3299175
20
17.6613825
40
0.5987939
50
89.8748857
51
180.1251076
0
ARC
8
DEFAULT_255_2_778
10
7.3327088
20
17.6616585
40
0.5985184
50
359.8484135
51
90.142038
0
ARC
8
DEFAULT_255_2_778
10
7.3327938
20
17.6585062
40
0.5984333
50
269.8498027
51
0.1501973
0
ARC
8
DEFAULT_255_2_778
10
7.3296415
20
17.6585912
40
0.5985184
50
179.857962
51
270.1515865
0
LINE
8
DEFAULT_255_2_778
10
6.731125
20
17.660075
11
6.731125
21
17.660075
0
ARC
8
DEFAULT_255_2_778
10
7.3299175
20
21.0614825
40
0.5987939
50
89.8748857
51
180.1251076
0
ARC
8
DEFAULT_255_2_778
10
7.3327088
20
21.0617585
40
0.5985184
50
359.8484135
51
90.142038
0
ARC
8
DEFAULT_255_2_778
10
7.3327938
20
21.0586062
40
0.5984333
50
269.8498027
51
0.1501973
0
ARC
8
DEFAULT_255_2_778
10
7.3296415
20
21.0586912
40
0.5985184
50
179.857962
51
270.1515865
0
LINE
8
DEFAULT_255_2_778
10
6.731125
20
21.060175
11
6.731125
21
21.060175
0
LINE
8
DEFAULT_255_2_778
10
1.7488344
20
130.8242187
11
1.7466344
21
130.5832187
0
LINE
8
DEFAULT_255_2_778
10
1.7466344
20
130.5832187
11
1.7443344
21
130.5408187
0
LINE
8
DEFAULT_255_2_778
10
1.7443344
20
130.5408187
11
1.7390344
21
130.4882187
0
LINE
8
DEFAULT_255_2_778
10
1.7390344
20
130.4882187
11
1.7302344
21
130.4361187
0
LINE
8
DEFAULT_255_2_778
10
1.7302344
20
130.4361187
11
1.7130344
21
130.3750187
0
LINE
8
DEFAULT_255_2_778
10
1.7130344
20
130.3750187
11
1.6847344
21
130.3181187
0
LINE
8
DEFAULT_255_2_778
10
1.6847344
20
130.3181187
11
1.5834344
21
130.2464187
0
LINE
8
DEFAULT_255_2_778
10
1.5834344
20
130.2464187
11
1.4008344
21
130.2781187
0
LINE
8
DEFAULT_255_2_778
10
1.4008344
20
130.2781187
11
1.3548344
21
130.3358187
0
LINE
8
DEFAULT_255_2_778
10
1.3548344
20
130.3358187
11
1.3289344
21
130.4051187
0
LINE
8
DEFAULT_255_2_778
10
1.3289344
20
130.4051187
11
1.3159344
21
130.4673187
0
LINE
8
DEFAULT_255_2_778
10
1.3159344
20
130.4673187
11
1.3085344
21
130.5305187
0
LINE
8
DEFAULT_255_2_778
10
1.3085344
20
130.5305187
11
1.3109344
21
131.0264187
0
LINE
8
DEFAULT_255_2_778
10
1.3109344
20
131.0264187
11
1.3180344
21
131.0790187
0
LINE
8
DEFAULT_255_2_778
10
1.3180344
20
131.0790187
11
1.3299344
21
131.1309187
0
LINE
8
DEFAULT_255_2_778
10
1.3299344
20
131.1309187
11
1.3490344
21
131.1806187
0
LINE
8
DEFAULT_255_2_778
10
1.3490344
20
131.1806187
11
1.4323344
21
131.2674187
0
LINE
8
DEFAULT_255_2_778
10
1.4323344
20
131.2674187
11
1.5630344
21
131.2830187
0
LINE
8
DEFAULT_255_2_778
10
1.5630344
20
131.2830187
11
1.6734344
21
131.2248187
0
LINE
8
DEFAULT_255_2_778
10
1.6734344
20
131.2248187
11
1.7109344
21
131.1608187
0
LINE
8
DEFAULT_255_2_778
10
1.7109344
20
131.1608187
11
1.7297344
21
131.0999187
0
LINE
8
DEFAULT_255_2_778
10
1.7297344
20
131.0999187
11
1.7387344
21
131.0475187
0
LINE
8
DEFAULT_255_2_778
10
1.7387344
20
131.0475187
11
1.7445344
21
130.9840187
0
LINE
8
DEFAULT_255_2_778
10
1.7445344
20
130.9840187
11
1.7472344
21
130.9308187
0
LINE
8
DEFAULT_255_2_778
10
1.7472344
20
130.9308187
11
1.7490344
21
130.8245187
0
LINE
8
DEFAULT_255_2_778
10
1.832096
20
130.7710947
11
1.829496
21
130.9641947
0
LINE
8
DEFAULT_255_2_778
10
1.829496
20
130.9641947
11
1.827396
21
131.0028947
0
LINE
8
DEFAULT_255_2_778
10
1.827396
20
131.0028947
11
1.822396
21
131.0541947
0
LINE
8
DEFAULT_255_2_778
10
1.822396
20
131.0541947
11
1.814396
21
131.1049947
0
LINE
8
DEFAULT_255_2_778
10
1.814396
20
131.1049947
11
1.798496
21
131.1673947
0
LINE
8
DEFAULT_255_2_778
10
1.798496
20
131.1673947
11
1.774196
21
131.2269947
0
LINE
8
DEFAULT_255_2_778
10
1.774196
20
131.2269947
11
1.729796
21
131.2898947
0
LINE
8
DEFAULT_255_2_778
10
1.729796
20
131.2898947
11
1.645896
21
131.3486947
0
LINE
8
DEFAULT_255_2_778
10
1.645896
20
131.3486947
11
1.493696
21
131.3692947
0
LINE
8
DEFAULT_255_2_778
10
1.493696
20
131.3692947
11
1.361196
21
131.3237947
0
LINE
8
DEFAULT_255_2_778
10
1.361196
20
131.3237947
11
1.297996
21
131.2597947
0
LINE
8
DEFAULT_255_2_778
10
1.297996
20
131.2597947
11
1.266696
21
131.2033947
0
LINE
8
DEFAULT_255_2_778
10
1.266696
20
131.2033947
11
1.242696
21
131.1300947
0
LINE
8
DEFAULT_255_2_778
10
1.242696
20
131.1300947
11
1.230496
21
131.0668947
0
LINE
8
DEFAULT_255_2_778
10
1.230496
20
131.0668947
11
1.224396
21
131.0157947
0
LINE
8
DEFAULT_255_2_778
10
1.224396
20
131.0157947
11
1.225696
21
130.4966947
0
LINE
8
DEFAULT_255_2_778
10
1.225696
20
130.4966947
11
1.232596
21
130.4458947
0
LINE
8
DEFAULT_255_2_778
10
1.232596
20
130.4458947
11
1.246096
21
130.3831947
0
LINE
8
DEFAULT_255_2_778
10
1.246096
20
130.3831947
11
1.266696
21
130.3225947
0
LINE
8
DEFAULT_255_2_778
10
1.266696
20
130.3225947
11
1.298196
21
130.2667947
0
LINE
8
DEFAULT_255_2_778
10
1.298196
20
130.2667947
11
1.417796
21
130.1730947
0
LINE
8
DEFAULT_255_2_778
10
1.417796
20
130.1730947
11
1.569896
21
130.1582947
0
LINE
8
DEFAULT_255_2_778
10
1.569896
20
130.1582947
11
1.688996
21
130.2029947
0
LINE
8
DEFAULT_255_2_778
10
1.688996
20
130.2029947
11
1.751396
21
130.2670947
0
LINE
8
DEFAULT_255_2_778
10
1.751396
20
130.2670947
11
1.787996
21
130.3347947
0
LINE
8
DEFAULT_255_2_778
10
1.787996
20
130.3347947
11
1.807496
21
130.3958947
0
LINE
8
DEFAULT_255_2_778
10
1.807496
20
130.3958947
11
1.819996
21
130.4588947
0
LINE
8
DEFAULT_255_2_778
10
1.819996
20
130.4588947
11
1.826096
21
130.5096947
0
LINE
8
DEFAULT_255_2_778
10
1.826096
20
130.5096947
11
1.828996
21
130.5479947
0
LINE
8
DEFAULT_255_2_778
10
1.828996
20
130.5479947
11
1.831396
21
130.6249947
0
LINE
8
DEFAULT_255_2_778
10
1.831396
20
130.6249947
11
1.832396
21
130.7715947
0
LINE
8
DEFAULT_255_2_778
10
16.217796
20
135.4512947
11
15.515296
21
135.4512947
0
LINE
8
DEFAULT_255_2_778
10
15.515296
20
135.4512947
11
15.515296
21
131.4732947
0
LINE
8
DEFAULT_255_2_778
10
15.515296
20
131.4732947
11
15.694996
21
131.4732947
0
LINE
8
DEFAULT_255_2_778
10
15.694996
20
131.4732947
11
15.694996
21
135.2715947
0
LINE
8
DEFAULT_255_2_778
10
15.694996
20
135.2715947
11
16.217796
21
135.2715947
0
LINE
8
DEFAULT_255_2_778
10
16.217796
20
135.2715947
11
16.217796
21
135.4512947
0
LINE
8
DEFAULT_255_2_778
10
14.520796
20
135.4512947
11
13.818296
21
135.4512947
0
LINE
8
DEFAULT_255_2_778
10
13.818296
20
135.4512947
11
13.818296
21
135.2715947
0
LINE
8
DEFAULT_255_2_778
10
13.818296
20
135.2715947
11
14.341096
21
135.2715947
0
LINE
8
DEFAULT_255_2_778
10
14.341096
20
135.2715947
11
14.341096
21
131.4732947
0
LINE
8
DEFAULT_255_2_778
10
14.341096
20
131.4732947
11
14.520796
21
131.4732947
0
LINE
8
DEFAULT_255_2_778
10
14.520796
20
131.4732947
11
14.520796
21
135.4512947
0
LINE
8
DEFAULT_255_2_778
10
16.2177656
20
112.4510052
11
15.5152656
21
112.4510052
0
LINE
8
DEFAULT_255_2_778
10
15.5152656
20
112.4510052
11
15.5152656
21
108.4730052
0
LINE
8
DEFAULT_255_2_778
10
15.5152656
20
108.4730052
11
15.6949656
21
108.4730052
0
LINE
8
DEFAULT_255_2_778
10
15.6949656
20
108.4730052
11
15.6949656
21
112.2713052
0
LINE
8
DEFAULT_255_2_778
10
15.6949656
20
112.2713052
11
16.2177656
21
112.2713052
0
LINE
8
DEFAULT_255_2_778
10
16.2177656
20
112.2713052
11
16.2177656
21
112.4510052
0
LINE
8
DEFAULT_255_2_778
10
14.5207656
20
112.4510052
11
13.8182656
21
112.4510052
0
LINE
8
DEFAULT_255_2_778
10
13.8182656
20
112.4510052
11
13.8182656
21
112.2713052
0
LINE
8
DEFAULT_255_2_778
10
13.8182656
20
112.2713052
11
14.3410656
21
112.2713052
0
LINE
8
DEFAULT_255_2_778
10
14.3410656
20
112.2713052
11
14.3410656
21
108.4730052
0
LINE
8
DEFAULT_255_2_778
10
14.3410656
20
108.4730052
11
14.5207656
21
108.4730052
0
LINE
8
DEFAULT_255_2_778
10
14.5207656
20
108.4730052
11
14.5207656
21
112.4510052
0
LINE
8
DEFAULT_255_2_778
10
16.2177656
20
89.4511052
11
15.5152656
21
89.4511052
0
LINE
8
DEFAULT_255_2_778
10
15.5152656
20
89.4511052
11
15.5152656
21
85.4731052
0
LINE
8
DEFAULT_255_2_778
10
15.5152656
20
85.4731052
11
15.6949656
21
85.4731052
0
LINE
8
DEFAULT_255_2_778
10
15.6949656
20
85.4731052
11
15.6949656
21
89.2714052
0
LINE
8
DEFAULT_255_2_778
10
15.6949656
20
89.2714052
11
16.2177656
21
89.2714052
0
LINE
8
DEFAULT_255_2_778
10
16.2177656
20
89.2714052
11
16.2177656
21
89.4511052
0
LINE
8
DEFAULT_255_2_778
10
14.5207656
20
89.4511052
11
13.8182656
21
89.4511052
0
LINE
8
DEFAULT_255_2_778
10
13.8182656
20
89.4511052
11
13.8182656
21
89.2714052
0
LINE
8
DEFAULT_255_2_778
10
13.8182656
20
89.2714052
11
14.3410656
21
89.2714052
0
LINE
8
DEFAULT_255_2_778
10
14.3410656
20
89.2714052
11
14.3410656
21
85.4731052
0
LINE
8
DEFAULT_255_2_778
10
14.3410656
20
85.4731052
11
14.5207656
21
85.4731052
0
LINE
8
DEFAULT_255_2_778
10
14.5207656
20
85.4731052
11
14.5207656
21
89.4511052
0
LINE
8
DEFAULT_255_2_778
10
16.2177656
20
66.4511052
11
15.5152656
21
66.4511052
0
LINE
8
DEFAULT_255_2_778
10
15.5152656
20
66.4511052
11
15.5152656
21
62.4731052
0
LINE
8
DEFAULT_255_2_778
10
15.5152656
20
62.4731052
11
15.6949656
21
62.4731052
0
LINE
8
DEFAULT_255_2_778
10
15.6949656
20
62.4731052
11
15.6949656
21
66.2714052
0
LINE
8
DEFAULT_255_2_778
10
15.6949656
20
66.2714052
11
16.2177656
21
66.2714052
0
LINE
8
DEFAULT_255_2_778
10
16.2177656
20
66.2714052
11
16.2177656
21
66.4511052
0
LINE
8
DEFAULT_255_2_778
10
14.5207656
20
66.4511052
11
13.8182656
21
66.4511052
0
LINE
8
DEFAULT_255_2_778
10
13.8182656
20
66.4511052
11
13.8182656
21
66.2714052
0
LINE
8
DEFAULT_255_2_778
10
13.8182656
20
66.2714052
11
14.3410656
21
66.2714052
0
LINE
8
DEFAULT_255_2_778
10
14.3410656
20
66.2714052
11
14.3410656
21
62.4731052
0
LINE
8
DEFAULT_255_2_778
10
14.3410656
20
62.4731052
11
14.5207656
21
62.4731052
0
LINE
8
DEFAULT_255_2_778
10
14.5207656
20
62.4731052
11
14.5207656
21
66.4511052
0
LINE
8
DEFAULT_255_2_778
10
15.7105531
20
129.4584135
11
15.5160531
21
129.4584135
0
LINE
8
DEFAULT_255_2_778
10
15.5160531
20
129.4584135
11
15.5160531
21
125.4656135
0
LINE
8
DEFAULT_255_2_778
10
15.5160531
20
125.4656135
11
16.2153531
21
125.4656135
0
LINE
8
DEFAULT_255_2_778
10
16.2153531
20
125.4656135
11
16.2153531
21
125.6600135
0
LINE
8
DEFAULT_255_2_778
10
16.2153531
20
125.6600135
11
15.7105531
21
125.6600135
0
LINE
8
DEFAULT_255_2_778
10
15.7105531
20
125.6600135
11
15.7105531
21
129.4584135
0
LINE
8
DEFAULT_255_2_778
10
14.5199664
20
129.4584135
11
14.3254664
21
129.4584135
0
LINE
8
DEFAULT_255_2_778
10
14.3254664
20
129.4584135
11
14.3254664
21
125.6600135
0
LINE
8
DEFAULT_255_2_778
10
14.3254664
20
125.6600135
11
13.8206664
21
125.6600135
0
LINE
8
DEFAULT_255_2_778
10
13.8206664
20
125.6600135
11
13.8206664
21
125.4656135
0
LINE
8
DEFAULT_255_2_778
10
13.8206664
20
125.4656135
11
14.5199664
21
125.4656135
0
LINE
8
DEFAULT_255_2_778
10
14.5199664
20
125.4656135
11
14.5199664
21
129.4584135
0
LINE
8
DEFAULT_255_2_778
10
15.7105531
20
106.4585135
11
15.5160531
21
106.4585135
0
LINE
8
DEFAULT_255_2_778
10
15.5160531
20
106.4585135
11
15.5160531
21
102.4657135
0
LINE
8
DEFAULT_255_2_778
10
15.5160531
20
102.4657135
11
16.2153531
21
102.4657135
0
LINE
8
DEFAULT_255_2_778
10
16.2153531
20
102.4657135
11
16.2153531
21
102.6601135
0
LINE
8
DEFAULT_255_2_778
10
16.2153531
20
102.6601135
11
15.7105531
21
102.6601135
0
LINE
8
DEFAULT_255_2_778
10
15.7105531
20
102.6601135
11
15.7105531
21
106.4585135
0
LINE
8
DEFAULT_255_2_778
10
14.5199664
20
106.4585135
11
14.3254664
21
106.4585135
0
LINE
8
DEFAULT_255_2_778
10
14.3254664
20
106.4585135
11
14.3254664
21
102.6601135
0
LINE
8
DEFAULT_255_2_778
10
14.3254664
20
102.6601135
11
13.8206664
21
102.6601135
0
LINE
8
DEFAULT_255_2_778
10
13.8206664
20
102.6601135
11
13.8206664
21
102.4657135
0
LINE
8
DEFAULT_255_2_778
10
13.8206664
20
102.4657135
11
14.5199664
21
102.4657135
0
LINE
8
DEFAULT_255_2_778
10
14.5199664
20
102.4657135
11
14.5199664
21
106.4585135
0
LINE
8
DEFAULT_255_2_778
10
15.7105531
20
83.4585135
11
15.5160531
21
83.4585135
0
LINE
8
DEFAULT_255_2_778
10
15.5160531
20
83.4585135
11
15.5160531
21
79.4657135
0
LINE
8
DEFAULT_255_2_778
10
15.5160531
20
79.4657135
11
16.2153531
21
79.4657135
0
LINE
8
DEFAULT_255_2_778
10
16.2153531
20
79.4657135
11
16.2153531
21
79.6601135
0
LINE
8
DEFAULT_255_2_778
10
16.2153531
20
79.6601135
11
15.7105531
21
79.6601135
0
LINE
8
DEFAULT_255_2_778
10
15.7105531
20
79.6601135
11
15.7105531
21
83.4585135
0
LINE
8
DEFAULT_255_2_778
10
14.5199664
20
83.4585135
11
14.3254664
21
83.4585135
0
LINE
8
DEFAULT_255_2_778
10
14.3254664
20
83.4585135
11
14.3254664
21
79.6601135
0
LINE
8
DEFAULT_255_2_778
10
14.3254664
20
79.6601135
11
13.8206664
21
79.6601135
0
LINE
8
DEFAULT_255_2_778
10
13.8206664
20
79.6601135
11
13.8206664
21
79.4657135
0
LINE
8
DEFAULT_255_2_778
10
13.8206664
20
79.4657135
11
14.5199664
21
79.4657135
0
LINE
8
DEFAULT_255_2_778
10
14.5199664
20
79.4657135
11
14.5199664
21
83.4585135
0
LINE
8
DEFAULT_255_2_778
10
15.7105531
20
60.4586135
11
15.5160531
21
60.4586135
0
LINE
8
DEFAULT_255_2_778
10
15.5160531
20
60.4586135
11
15.5160531
21
56.4658135
0
LINE
8
DEFAULT_255_2_778
10
15.5160531
20
56.4658135
11
16.2153531
21
56.4658135
0
LINE
8
DEFAULT_255_2_778
10
16.2153531
20
56.4658135
11
16.2153531
21
56.6602135
0
LINE
8
DEFAULT_255_2_778
10
16.2153531
20
56.6602135
11
15.7105531
21
56.6602135
0
LINE
8
DEFAULT_255_2_778
10
15.7105531
20
56.6602135
11
15.7105531
21
60.4586135
0
LINE
8
DEFAULT_255_2_778
10
14.5199664
20
60.4586135
11
14.3254664
21
60.4586135
0
LINE
8
DEFAULT_255_2_778
10
14.3254664
20
60.4586135
11
14.3254664
21
56.6602135
0
LINE
8
DEFAULT_255_2_778
10
14.3254664
20
56.6602135
11
13.8206664
21
56.6602135
0
LINE
8
DEFAULT_255_2_778
10
13.8206664
20
56.6602135
11
13.8206664
21
56.4658135
0
LINE
8
DEFAULT_255_2_778
10
13.8206664
20
56.4658135
11
14.5199664
21
56.4658135
0
LINE
8
DEFAULT_255_2_778
10
14.5199664
20
56.4658135
11
14.5199664
21
60.4586135
0
ARC
8
DEFAULT_255_2_778
10
11.3645996
20
145.6700361
40
0.1953408
50
133.9318262
51
175.732546
0
ARC
8
DEFAULT_255_2_778
10
11.3451749
20
145.6651174
40
0.1862211
50
86.7606295
51
128.5699381
0
ARC
8
DEFAULT_255_2_778
10
11.3543146
20
145.470111
40
0.3809322
50
82.8390528
51
89.7919453
0
ARC
8
DEFAULT_255_2_778
10
11.3579131
20
145.6785334
40
0.1751268
50
15.5609609
51
75.4867937
0
ARC
8
DEFAULT_255_2_778
10
11.0231874
20
145.5518492
40
0.5325452
50
2.8942102
51
19.0323784
0
ARC
8
DEFAULT_255_2_778
10
10.5373901
20
145.5081646
40
1.0201074
50
359.8870935
51
3.9670528
0
ARC
8
DEFAULT_255_2_778
10
10.2218126
20
145.506967
40
1.3356831
50
357.9021125
51
359.9651399
0
ARC
8
DEFAULT_255_2_778
10
11.2504732
20
145.4819986
40
0.3070609
50
325.8189031
51
355.5308699
0
ARC
8
DEFAULT_255_2_778
10
11.3466468
20
145.4303365
40
0.1987963
50
271.0242474
51
322.5623536
0
ARC
8
DEFAULT_255_2_778
10
11.2958688
20
145.5823762
40
0.3549867
50
270.2927462
51
278.8038643
0
ARC
8
DEFAULT_255_2_778
10
11.2839551
20
145.3902336
40
0.1634171
50
200.811697
51
274.8186767
0
ARC
8
DEFAULT_255_2_778
10
10.8043997
20
145.9842788
40
0.7294122
50
288.9192118
51
296.61755
0
ARC
8
DEFAULT_255_2_778
10
11.2923942
20
145.4096132
40
0.2766817
50
204.6373703
51
272.5981667
0
ARC
8
DEFAULT_255_2_778
10
11.3022377
20
145.625376
40
0.4921676
50
270.3141759
51
280.0617992
0
ARC
8
DEFAULT_255_2_778
10
11.2837119
20
145.747934
40
0.6160853
50
279.7668745
51
281.0505846
0
ARC
8
DEFAULT_255_2_778
10
11.296828
20
145.4644612
40
0.3379079
50
288.0986357
51
357.1617343
0
ARC
8
DEFAULT_255_2_778
10
11.1145833
20
145.4921236
40
0.5216308
50
355.1178075
51
0.0693368
0
ARC
8
DEFAULT_255_2_778
10
11.0096315
20
145.4918713
40
0.6265829
50
0.0807959
51
4.9256782
0
ARC
8
DEFAULT_255_2_778
10
10.8640515
20
145.5577416
40
0.7699435
50
359.1017885
51
12.5465657
0
ARC
8
DEFAULT_255_2_778
10
11.3280917
20
145.6687279
40
0.2929717
50
11.0735696
51
43.6321972
0
ARC
8
DEFAULT_255_2_778
10
11.4073598
20
145.733445
40
0.1911037
50
45.9881483
51
67.9508637
0
ARC
8
DEFAULT_255_2_778
10
11.3275565
20
145.4831745
40
0.4534689
50
70.476823
51
83.969854
0
ARC
8
DEFAULT_255_2_778
10
11.3427173
20
145.5992645
40
0.336441
50
84.4605773
51
89.9404326
0
ARC
8
DEFAULT_255_2_778
10
11.3404376
20
145.6677333
40
0.2679847
50
89.4378054
51
141.332055
0
ARC
8
DEFAULT_255_2_778
10
18.547907
20
145.8218572
40
7.4167185
50
177.8853281
51
179.8971415
0
ARC
8
DEFAULT_255_2_778
10
22.4891284
20
145.689378
40
11.3601517
50
177.0431839
51
177.9510992
0
LINE
8
DEFAULT_255_2_778
10
11.1441004
20
146.2753719
11
11.6212004
21
146.2753719
0
ARC
8
DEFAULT_255_2_778
10
12.0693755
20
146.2857854
40
0.4482961
50
172.3603519
51
181.3310581
0
ARC
8
DEFAULT_255_2_778
10
11.6434967
20
146.3474706
40
0.0185561
50
120.4224752
51
186.4597422
0
LINE
8
DEFAULT_255_2_778
10
5.1458004
20
145.9610719
11
5.0759004
21
146.0060719
0
LINE
8
DEFAULT_255_2_778
10
5.0759004
20
146.0060719
11
4.8661004
21
145.6747719
0
LINE
8
DEFAULT_255_2_778
10
4.8661004
20
145.6747719
11
4.6581004
21
146.0092719
0
LINE
8
DEFAULT_255_2_778
10
4.6581004
20
146.0092719
11
4.5867004
21
145.9642719
0
LINE
8
DEFAULT_255_2_778
10
4.5867004
20
145.9642719
11
4.8164004
21
145.5964719
0
LINE
8
DEFAULT_255_2_778
10
4.8164004
20
145.5964719
11
4.5666004
21
145.2003719
0
LINE
8
DEFAULT_255_2_778
10
4.5666004
20
145.2003719
11
4.6380004
21
145.1553719
0
LINE
8
DEFAULT_255_2_778
10
4.6380004
20
145.1553719
11
4.8645004
21
145.5165719
0
LINE
8
DEFAULT_255_2_778
10
4.8645004
20
145.5165719
11
5.0910004
21
145.1519719
0
LINE
8
DEFAULT_255_2_778
10
5.0910004
20
145.1519719
11
5.1624004
21
145.1953719
0
LINE
8
DEFAULT_255_2_778
10
5.1624004
20
145.1953719
11
4.9145004
21
145.5964719
0
LINE
8
DEFAULT_255_2_778
10
4.9145004
20
145.5964719
11
5.1458004
21
145.9610719
0
LINE
8
DEFAULT_255_2_778
10
7.5892004
20
146.3486719
11
7.5077004
21
146.3719719
0
LINE
8
DEFAULT_255_2_778
10
7.5077004
20
146.3719719
11
7.1865004
21
145.2636719
0
LINE
8
DEFAULT_255_2_778
10
7.1865004
20
145.2636719
11
6.8637004
21
146.3719719
0
LINE
8
DEFAULT_255_2_778
10
6.8637004
20
146.3719719
11
6.7822004
21
146.3486719
0
LINE
8
DEFAULT_255_2_778
10
6.7822004
20
146.3486719
11
7.1283004
21
145.1635719
0
LINE
8
DEFAULT_255_2_778
10
7.1283004
20
145.1635719
11
7.2447004
21
145.1635719
0
LINE
8
DEFAULT_255_2_778
10
7.2447004
20
145.1635719
11
7.5892004
21
146.3486719
0
LINE
8
DEFAULT_255_2_778
10
9.8974004
20
146.3986719
11
9.8159004
21
146.4219719
0
LINE
8
DEFAULT_255_2_778
10
9.8159004
20
146.4219719
11
9.4114004
21
145.0156719
0
LINE
8
DEFAULT_255_2_778
10
9.4114004
20
145.0156719
11
9.4929004
21
144.9924719
0
LINE
8
DEFAULT_255_2_778
10
9.4929004
20
144.9924719
11
9.8974004
21
146.3986719
0
LINE
8
DEFAULT_255_2_778
10
2.2017004
20
146.3603719
11
2.1184004
21
146.3603719
0
LINE
8
DEFAULT_255_2_778
10
2.1184004
20
146.3603719
11
2.1184004
21
145.1635719
0
LINE
8
DEFAULT_255_2_778
10
2.1184004
20
145.1635719
11
2.2017004
21
145.1635719
0
LINE
8
DEFAULT_255_2_778
10
2.2017004
20
145.1635719
11
2.2017004
21
146.3603719
0
LINE
8
DEFAULT_255_2_778
10
10.8330004
20
145.3384719
11
10.7480004
21
145.3384719
0
LINE
8
DEFAULT_255_2_778
10
10.7480004
20
145.3384719
11
10.7480004
21
145.1638719
0
LINE
8
DEFAULT_255_2_778
10
10.7480004
20
145.1638719
11
10.8330004
21
145.1638719
0
LINE
8
DEFAULT_255_2_778
10
10.8330004
20
145.1638719
11
10.8330004
21
145.3384719
0
LINE
8
DEFAULT_255_2_778
10
11.6339004
20
146.3637719
11
11.0409004
21
146.3637719
0
LINE
8
DEFAULT_255_2_778
10
11.0409004
20
146.3637719
11
11.0409004
21
145.6845719
0
LINE
8
DEFAULT_255_2_778
10
11.0409004
20
145.6845719
11
11.1698004
21
145.6845719
0
LINE
8
DEFAULT_255_2_778
10
11.6341004
20
146.3634719
11
11.6339004
21
146.3637719
0
ARC
8
DEFAULT_255_2_778
10
5.4510728
20
146.0664438
40
0.3881145
50
349.8251628
51
0.0512104
0
ARC
8
DEFAULT_255_2_778
10
5.4415873
20
146.0668375
40
0.3975997
50
359.9932502
51
0.2370353
0
ARC
8
DEFAULT_255_2_778
10
5.515571
20
146.0671513
40
0.3236152
50
0.2356623
51
6.535065
0
ARC
8
DEFAULT_255_2_778
10
5.5612605
20
146.0718226
40
0.2776914
50
6.6504124
51
14.0170335
0
ARC
8
DEFAULT_255_2_778
10
5.6455414
20
146.0928167
40
0.1908353
50
14.0304767
51
35.4067844
0
ARC
8
DEFAULT_255_2_778
10
5.6656723
20
146.1032229
40
0.1684283
50
36.4891838
51
54.5817106
0
ARC
8
DEFAULT_255_2_778
10
5.6210954
20
146.0567907
40
0.219443
50
93.2424592
51
107.2330577
0
ARC
8
DEFAULT_255_2_778
10
5.6506697
20
146.0553219
40
0.2375899
50
139.9556911
51
152.7840959
0
ARC
8
DEFAULT_255_2_778
10
5.6462657
20
146.0595573
40
0.3190393
50
138.7815601
51
153.2447765
0
ARC
8
DEFAULT_255_2_778
10
5.6884302
20
146.1242411
40
0.2255463
50
47.7831804
51
63.5525226
0
ARC
8
DEFAULT_255_2_778
10
5.646582
20
146.0822117
40
0.2848064
50
36.6155492
51
47.22954
0
ARC
8
DEFAULT_255_2_778
10
5.5201928
20
146.0658746
40
0.4079181
50
5.5720489
51
12.9201766
0
ARC
8
DEFAULT_255_2_778
10
5.4344373
20
146.067892
40
0.4938506
50
352.3420967
51
358.3512002
0
ARC
8
DEFAULT_255_2_778
10
5.5267333
20
146.0448403
40
0.3988007
50
338.8551963
51
346.3581594
0
ARC
8
DEFAULT_255_2_778
10
5.5006923
20
146.0506509
40
0.425203
50
332.4799987
51
339.3907255
0
ARC
8
DEFAULT_255_2_778
10
5.48817
20
146.0472615
40
0.346708
50
331.9607633
51
340.2990348
0
ARC
8
DEFAULT_255_2_778
10
9.1057335
20
145.4300901
40
0.2413079
50
268.3089948
51
339.2463243
0
ARC
8
DEFAULT_255_2_778
10
9.0988883
20
145.5441996
40
0.3553123
50
265.9321808
51
269.9555441
0
ARC
8
DEFAULT_255_2_778
10
9.0600018
20
145.4759393
40
0.2864838
50
235.2384192
51
272.73733
0
ARC
8
DEFAULT_255_2_778
10
9.0664434
20
145.4488709
40
0.2687194
50
188.776407
51
230.8149926
0
ARC
8
DEFAULT_255_2_778
10
9.3517194
20
145.5192575
40
0.5619982
50
182.0572976
51
191.4316681
0
LINE
8
DEFAULT_255_2_778
10
8.7900834
20
145.4990824
11
8.7900834
21
145.9372824
0
ARC
8
DEFAULT_255_2_778
10
9.4474622
20
145.9630303
40
0.6578828
50
180.0226097
51
182.2429916
0
ARC
8
DEFAULT_255_2_778
10
9.1789682
20
145.9748413
40
0.3895758
50
156.625179
51
181.7755293
0
ARC
8
DEFAULT_255_2_778
10
9.0435312
20
146.020843
40
0.2472711
50
94.1930626
51
153.9577683
0
ARC
8
DEFAULT_255_2_778
10
9.0971093
20
145.7600768
40
0.5124107
50
89.7457166
51
98.0388671
0
ARC
8
DEFAULT_255_2_778
10
9.125012
20
145.9469914
40
0.3264984
50
90.0650492
51
94.5020761
0
ARC
8
DEFAULT_255_2_778
10
9.1353377
20
146.0850472
40
0.1887457
50
13.9917062
51
93.2487536
0
ARC
8
DEFAULT_255_2_778
10
9.0547266
20
146.0169141
40
0.3840471
50
20.2727458
51
47.667963
0
ARC
8
DEFAULT_255_2_778
10
9.137712
20
146.0937676
40
0.2715177
50
49.6925474
51
91.5703151
0
ARC
8
DEFAULT_255_2_778
10
9.130983
20
145.9663374
40
0.3988465
50
90.1022197
51
96.4203188
0
ARC
8
DEFAULT_255_2_778
10
9.0735929
20
145.8883693
40
0.4744855
50
88.4553056
51
112.5582932
0
ARC
8
DEFAULT_255_2_778
10
9.0238025
20
146.040018
40
0.3155743
50
114.7729925
51
171.1866235
0
ARC
8
DEFAULT_255_2_778
10
9.3078681
20
145.9611585
40
0.6093403
50
167.9498469
51
176.1773382
0
LINE
8
DEFAULT_255_2_778
10
8.6998834
20
146.0017824
11
8.6998834
21
145.4604824
0
ARC
8
DEFAULT_255_2_778
10
9.1584947
20
145.4852163
40
0.4592777
50
183.0870939
51
209.6281351
0
ARC
8
DEFAULT_255_2_778
10
9.0498259
20
145.4411668
40
0.3433875
50
212.203958
51
261.3991142
0
ARC
8
DEFAULT_255_2_778
10
9.1062843
20
145.6336564
40
0.5428294
50
258.5442194
51
259.6955204
0
ARC
8
DEFAULT_255_2_778
10
9.0698431
20
145.8152753
40
0.718259
50
265.1553869
51
269.9017407
0
ARC
8
DEFAULT_255_2_778
10
9.0802806
20
145.5151011
40
0.4182466
50
268.4012181
51
293.4695091
0
ARC
8
DEFAULT_255_2_778
10
9.1274797
20
145.3841099
40
0.2794353
50
295.2893988
51
343.7001448
0
ARC
8
DEFAULT_255_2_778
10
9.2832194
20
145.1909459
40
0.1606631
50
45.5730362
51
72.6301735
0
LINE
8
DEFAULT_255_2_778
10
1.8156834
20
145.6239824
11
1.8156834
21
145.9192824
0
ARC
8
DEFAULT_255_2_778
10
1.3825332
20
145.8992878
40
0.4336115
50
2.6429404
51
30.3125167
0
ARC
8
DEFAULT_255_2_778
10
1.4758838
20
145.9348651
40
0.335468
50
33.115034
51
81.0543808
0
ARC
8
DEFAULT_255_2_778
10
1.4004209
20
145.6364285
40
0.6426249
50
78.5447348
51
88.3358353
0
LINE
8
DEFAULT_255_2_778
10
1.4190834
20
146.2787824
11
1.2734834
21
146.2787824
0
LINE
8
DEFAULT_255_2_778
10
1.2734834
20
146.2787824
11
1.2734834
21
145.2127824
0
ARC
8
DEFAULT_255_2_778
10
1.2859155
20
146.2166997
40
1.0039943
50
269.2905137
51
281.9897534
0
ARC
8
DEFAULT_255_2_778
10
1.4034092
20
145.6948638
40
0.4691801
50
281.1927719
51
307.4125531
0
ARC
8
DEFAULT_255_2_778
10
1.4629201
20
145.591628
40
0.3513659
50
309.9331301
51
359.254534
0
ARC
8
DEFAULT_255_2_778
10
1.2330203
20
145.623275
40
0.5823633
50
356.4343483
51
0.0400786
0
ARC
8
DEFAULT_255_2_778
10
1.5755958
20
145.4469668
40
0.2809353
50
284.0889855
51
337.5375562
0
ARC
8
DEFAULT_255_2_778
10
1.2189026
20
145.6238418
40
0.6786904
50
335.2431364
51
351.0324469
0
ARC
8
DEFAULT_255_2_778
10
0.4729351
20
145.7527431
40
1.4356748
50
350.5915381
51
359.4236097
0
ARC
8
DEFAULT_255_2_778
10
-0.1948684
20
145.7764331
40
2.1037514
50
358.9614012
51
0.0083847
0
ARC
8
DEFAULT_255_2_778
10
-0.4419634
20
145.7761963
40
2.3508463
50
0.013274
51
1.293945
0
ARC
8
DEFAULT_255_2_778
10
0.9145134
20
145.7917499
40
0.9944785
50
2.1629045
51
15.3012302
0
ARC
8
DEFAULT_255_2_778
10
1.4113428
20
145.9344692
40
0.477643
50
14.515507
51
41.8464823
0
ARC
8
DEFAULT_255_2_778
10
1.4932038
20
145.9850026
40
0.3833248
50
44.3835818
51
89.5426639
0
ARC
8
DEFAULT_255_2_778
10
1.4659522
20
145.7810787
40
0.5880184
50
87.0451995
51
88.1257952
0
ARC
8
DEFAULT_255_2_778
10
1.3360244
20
146.7741043
40
1.6456228
50
264.6009027
51
269.7732459
0
ARC
8
DEFAULT_255_2_778
10
1.3311899
20
146.0227338
40
0.8942411
50
269.8924726
51
270.03584
0
ARC
8
DEFAULT_255_2_778
10
1.3406252
20
146.214645
40
1.0861887
50
269.5317977
51
280.9684736
0
ARC
8
DEFAULT_255_2_778
10
1.4002635
20
145.8828672
40
0.7491386
50
281.3186181
51
288.9857864
0
LINE
8
DEFAULT_255_2_778
10
5.8147834
20
145.9295824
11
5.8253834
21
145.9634824
0
LINE
8
DEFAULT_255_2_778
10
5.8253834
20
145.9634824
11
5.8330834
21
145.9978824
0
LINE
8
DEFAULT_255_2_778
10
5.7632834
20
146.2404824
11
5.7399834
21
146.2539824
0
LINE
8
DEFAULT_255_2_778
10
5.7399834
20
146.2539824
11
5.7150834
21
146.2639824
0
LINE
8
DEFAULT_255_2_778
10
5.7150834
20
146.2639824
11
5.6888834
21
146.2708824
0
LINE
8
DEFAULT_255_2_778
10
5.6888834
20
146.2708824
11
5.6623834
21
146.2748824
0
LINE
8
DEFAULT_255_2_778
10
5.6623834
20
146.2748824
11
5.6356834
21
146.2764824
0
LINE
8
DEFAULT_255_2_778
10
5.6356834
20
146.2764824
11
5.6086834
21
146.2758824
0
LINE
8
DEFAULT_255_2_778
10
5.5560834
20
146.2663824
11
5.5433834
21
146.2618824
0
LINE
8
DEFAULT_255_2_778
10
5.5433834
20
146.2618824
11
5.5311834
21
146.2565824
0
LINE
8
DEFAULT_255_2_778
10
5.5311834
20
146.2565824
11
5.5081834
21
146.2436824
0
LINE
8
DEFAULT_255_2_778
10
5.5081834
20
146.2436824
11
5.4872834
21
146.2271824
0
LINE
8
DEFAULT_255_2_778
10
5.4872834
20
146.2271824
11
5.4687834
21
146.2081824
0
LINE
8
DEFAULT_255_2_778
10
5.4393834
20
146.1639824
11
5.3613834
21
146.2031824
0
LINE
8
DEFAULT_255_2_778
10
5.4062834
20
146.2697824
11
5.4353834
21
146.2983824
0
LINE
8
DEFAULT_255_2_778
10
5.4353834
20
146.2983824
11
5.4684834
21
146.3219824
0
LINE
8
DEFAULT_255_2_778
10
5.4684834
20
146.3219824
11
5.4864834
21
146.3317824
0
LINE
8
DEFAULT_255_2_778
10
5.4864834
20
146.3317824
11
5.5052834
21
146.3401824
0
LINE
8
DEFAULT_255_2_778
10
5.5052834
20
146.3401824
11
5.5443834
21
146.3526824
0
LINE
8
DEFAULT_255_2_778
10
5.5443834
20
146.3526824
11
5.5851834
21
146.3594824
0
LINE
8
DEFAULT_255_2_778
10
5.5851834
20
146.3594824
11
5.6264834
21
146.3616824
0
LINE
8
DEFAULT_255_2_778
10
5.6264834
20
146.3616824
11
5.6682834
21
146.3597824
0
LINE
8
DEFAULT_255_2_778
10
5.6682834
20
146.3597824
11
5.7097834
21
146.3534824
0
LINE
8
DEFAULT_255_2_778
10
5.7097834
20
146.3534824
11
5.7301834
21
146.3483824
0
LINE
8
DEFAULT_255_2_778
10
5.7301834
20
146.3483824
11
5.7502834
21
146.3420824
0
LINE
8
DEFAULT_255_2_778
10
5.7502834
20
146.3420824
11
5.7888834
21
146.3261824
0
LINE
8
DEFAULT_255_2_778
10
5.8751834
20
146.2520824
11
5.8894834
21
146.2301824
0
LINE
8
DEFAULT_255_2_778
10
5.8894834
20
146.2301824
11
5.9013834
21
146.2065824
0
LINE
8
DEFAULT_255_2_778
10
5.9013834
20
146.2065824
11
5.9108834
21
146.1822824
0
LINE
8
DEFAULT_255_2_778
10
5.9108834
20
146.1822824
11
5.9177834
21
146.1570824
0
LINE
8
DEFAULT_255_2_778
10
5.9261834
20
146.1054824
11
5.9280834
21
146.0536824
0
LINE
8
DEFAULT_255_2_778
10
5.9238834
20
146.0020824
11
5.9198834
21
145.9761824
0
LINE
8
DEFAULT_255_2_778
10
5.9198834
20
145.9761824
11
5.9142834
21
145.9507824
0
LINE
8
DEFAULT_255_2_778
10
5.8777834
20
145.8541824
11
5.8528834
21
145.8096824
0
LINE
8
DEFAULT_255_2_778
10
5.8528834
20
145.8096824
11
5.8253834
21
145.7670824
0
LINE
8
DEFAULT_255_2_778
10
5.8253834
20
145.7670824
11
5.7960834
21
145.7255824
0
LINE
8
DEFAULT_255_2_778
10
5.7960834
20
145.7255824
11
5.7338834
21
145.6445824
0
LINE
8
DEFAULT_255_2_778
10
5.7338834
20
145.6445824
11
5.7015834
21
145.6048824
0
LINE
8
DEFAULT_255_2_778
10
5.7015834
20
145.6048824
11
5.6687834
21
145.5654824
0
LINE
8
DEFAULT_255_2_778
10
5.6687834
20
145.5654824
11
5.6026834
21
145.4874824
0
LINE
8
DEFAULT_255_2_778
10
5.6026834
20
145.4874824
11
5.5353834
21
145.4099824
0
LINE
8
DEFAULT_255_2_778
10
5.5353834
20
145.4099824
11
5.4012834
21
145.2548824
0
LINE
8
DEFAULT_255_2_778
10
5.4012834
20
145.2548824
11
5.4012834
21
145.2141824
0
LINE
8
DEFAULT_255_2_778
10
5.4012834
20
145.2141824
11
5.9801834
21
145.2141824
0
LINE
8
DEFAULT_255_2_778
10
5.9801834
20
145.2141824
11
5.9801834
21
145.1291824
0
LINE
8
DEFAULT_255_2_778
10
5.9801834
20
145.1291824
11
5.3139834
21
145.1291824
0
LINE
8
DEFAULT_255_2_778
10
5.3139834
20
145.1291824
11
5.3139834
21
145.2855824
0
LINE
8
DEFAULT_255_2_778
10
5.3139834
20
145.2855824
11
5.3242834
21
145.2974824
0
LINE
8
DEFAULT_255_2_778
10
5.3242834
20
145.2974824
11
5.3909834
21
145.3728824
0
LINE
8
DEFAULT_255_2_778
10
5.3909834
20
145.3728824
11
5.4573834
21
145.4482824
0
LINE
8
DEFAULT_255_2_778
10
5.4573834
20
145.4482824
11
5.4904834
21
145.4861824
0
LINE
8
DEFAULT_255_2_778
10
5.4904834
20
145.4861824
11
5.5232834
21
145.5242824
0
LINE
8
DEFAULT_255_2_778
10
5.5232834
20
145.5242824
11
5.5885834
21
145.6006824
0
LINE
8
DEFAULT_255_2_778
10
5.5885834
20
145.6006824
11
5.6208834
21
145.6392824
0
LINE
8
DEFAULT_255_2_778
10
5.6208834
20
145.6392824
11
5.6523834
21
145.6784824
0
LINE
8
DEFAULT_255_2_778
10
5.6523834
20
145.6784824
11
5.6830834
21
145.7181824
0
LINE
8
DEFAULT_255_2_778
10
5.6830834
20
145.7181824
11
5.7129834
21
145.7583824
0
LINE
8
DEFAULT_255_2_778
10
5.7129834
20
145.7583824
11
5.7415834
21
145.7993824
0
LINE
8
DEFAULT_255_2_778
10
5.7415834
20
145.7993824
11
5.7690834
21
145.8411824
0
LINE
8
DEFAULT_255_2_778
10
5.7690834
20
145.8411824
11
5.7941834
21
145.8842824
0
LINE
8
DEFAULT_255_2_778
10
9.3184834
20
146.1306824
11
9.4149834
21
146.1499824
0
LINE
8
DEFAULT_255_2_778
10
9.3311834
20
145.3442824
11
9.3313834
21
145.3445824
0
LINE
8
DEFAULT_255_2_778
10
1.8153834
20
145.6236824
11
1.8156834
21
145.6239824
0
LINE
8
DEFAULT_255_2_778
10
1.4851834
20
146.3687824
11
1.1811834
21
146.3687824
0
LINE
8
DEFAULT_255_2_778
10
1.1811834
20
146.3687824
11
1.1811834
21
145.1357824
0
LINE
8
DEFAULT_255_2_778
10
1.6439834
20
145.1744824
11
1.6439834
21
145.1744824
0
LINE
8
DEFAULT_255_2_778
10
8.441411
20
145.6239963
11
8.441411
21
145.9191963
0
ARC
8
DEFAULT_255_2_778
10
8.0082802
20
145.8993275
40
0.4335862
50
2.6264609
51
30.2970252
0
ARC
8
DEFAULT_255_2_778
10
8.1016232
20
145.934867
40
0.3354641
50
33.0999346
51
81.0394856
0
ARC
8
DEFAULT_255_2_778
10
8.0260757
20
145.6364325
40
0.6426398
50
78.5295159
51
88.3204637
0
LINE
8
DEFAULT_255_2_778
10
8.044911
20
146.2787963
11
7.899311
21
146.2787963
0
LINE
8
DEFAULT_255_2_778
10
7.899311
20
146.2787963
11
7.899311
21
145.2127963
0
ARC
8
DEFAULT_255_2_778
10
7.911743
20
146.2167136
40
1.0039943
50
269.2905137
51
281.9897534
0
ARC
8
DEFAULT_255_2_778
10
8.0292367
20
145.6948777
40
0.4691801
50
281.1927719
51
307.4125531
0
ARC
8
DEFAULT_255_2_778
10
8.0887476
20
145.5916419
40
0.3513659
50
309.9331301
51
359.254534
0
ARC
8
DEFAULT_255_2_778
10
7.8588478
20
145.6232889
40
0.5823633
50
356.4343483
51
0.0400786
0
ARC
8
DEFAULT_255_2_778
10
8.2013747
20
145.4468759
40
0.2809181
50
284.0790463
51
337.5219678
0
ARC
8
DEFAULT_255_2_778
10
7.8451692
20
145.6235788
40
0.6781613
50
335.2325799
51
351.0279136
0
ARC
8
DEFAULT_255_2_778
10
7.0999687
20
145.7524064
40
1.4343773
50
350.5871254
51
359.423276
0
ARC
8
DEFAULT_255_2_778
10
6.4327249
20
145.7760842
40
2.1018943
50
358.9609451
51
0.0083832
0
ARC
8
DEFAULT_255_2_778
10
6.1837219
20
145.7758301
40
2.3508972
50
0.0136875
51
1.3031833
0
ARC
8
DEFAULT_255_2_778
10
7.5403302
20
145.7919592
40
0.994382
50
2.1518482
51
15.2910808
0
ARC
8
DEFAULT_255_2_778
10
8.037201
20
145.9345968
40
0.4775293
50
14.5049455
51
41.8403922
0
ARC
8
DEFAULT_255_2_778
10
8.1190413
20
145.9850882
40
0.3832531
50
44.3790916
51
89.5440827
0
ARC
8
DEFAULT_255_2_778
10
8.0917837
20
145.7811992
40
0.5879116
50
87.0450542
51
88.1258442
0
ARC
8
DEFAULT_255_2_778
10
7.9625352
20
146.7760953
40
1.6476555
50
264.5837169
51
269.6850568
0
ARC
8
DEFAULT_255_2_778
10
7.9579716
20
146.5304561
40
1.4019987
50
269.8163757
51
269.9998518
0
ARC
8
DEFAULT_255_2_778
10
7.9668349
20
146.212402
40
1.0839808
50
269.5313164
51
280.9735664
0
ARC
8
DEFAULT_255_2_778
10
8.0263933
20
145.8812288
40
0.7475397
50
281.3239519
51
288.995338
0
ARC
8
DEFAULT_255_2_778
10
2.6492936
20
145.9144641
40
0.511394
50
3.3554689
51
22.451517
0
ARC
8
DEFAULT_255_2_778
10
2.9198411
20
146.0306234
40
0.2170292
50
21.3869398
51
93.2833617
0
ARC
8
DEFAULT_255_2_778
10
2.9002861
20
146.0133061
40
0.2340987
50
88.2559176
51
168.6956999
0
ARC
8
DEFAULT_255_2_778
10
3.192431
20
145.8975906
40
0.5461582
50
162.7890129
51
169.7371706
0
LINE
8
DEFAULT_255_2_778
10
2.655011
20
145.9948963
11
2.655011
21
145.4646963
0
ARC
8
DEFAULT_255_2_778
10
2.9914133
20
145.4519694
40
0.336643
50
177.8333958
51
206.9359411
0
ARC
8
DEFAULT_255_2_778
10
2.8849619
20
145.4094599
40
0.2227232
50
209.592774
51
256.1671376
0
ARC
8
DEFAULT_255_2_778
10
2.8934269
20
145.7820726
40
0.5921015
50
264.017075
51
269.830923
0
ARC
8
DEFAULT_255_2_778
10
2.9027783
20
145.4934368
40
0.303666
50
267.9054441
51
295.7585546
0
ARC
8
DEFAULT_255_2_778
10
2.9463985
20
145.3858712
40
0.1879803
50
298.032953
51
345.4028824
0
ARC
8
DEFAULT_255_2_778
10
2.5534795
20
145.5390216
40
0.6088034
50
340.7690825
51
352.0276541
0
ARC
8
DEFAULT_255_2_778
10
1.9401186
20
145.6481598
40
1.2315883
50
350.9569746
51
352.0300851
0
LINE
8
DEFAULT_255_2_778
10
3.159811
20
145.4773963
11
3.159811
21
145.9443963
0
ARC
8
DEFAULT_255_2_778
10
1.3357502
20
145.8322247
40
1.9174291
50
357.5391406
51
359.3341555
0
ARC
8
DEFAULT_255_2_778
10
1.5268481
20
145.8293774
40
1.726311
50
359.3549443
51
359.996534
0
ARC
8
DEFAULT_255_2_778
10
2.0571388
20
145.8406184
40
1.1960739
50
359.4565115
51
9.5051548
0
ARC
8
DEFAULT_255_2_778
10
2.6845069
20
145.9513593
40
0.5590599
50
8.9292533
51
27.9377379
0
ARC
8
DEFAULT_255_2_778
10
2.9261401
20
146.0807025
40
0.2849904
50
27.7243823
51
93.0229261
0
ARC
8
DEFAULT_255_2_778
10
2.8979046
20
146.0195607
40
0.3459877
50
87.8124959
51
124.3798757
0
ARC
8
DEFAULT_255_2_778
10
2.9153428
20
146.0280277
40
0.3493733
50
127.5257647
51
162.8304879
0
ARC
8
DEFAULT_255_2_778
10
3.2927312
20
145.8953444
40
0.7492691
50
161.6554267
51
176.1572348
0
ARC
8
DEFAULT_255_2_778
10
3.7998271
20
145.8460318
40
1.2586219
50
175.4645045
51
180.11924
0
ARC
8
DEFAULT_255_2_778
10
4.1531275
20
145.8444058
40
1.6119199
50
180.0353097
51
182.3611302
0
ARC
8
DEFAULT_255_2_778
10
4.3996186
20
145.8538358
40
1.8585902
50
182.3385374
51
183.6073418
0
ARC
8
DEFAULT_255_2_778
10
5.1592691
20
145.5725401
40
2.6197189
50
176.4030086
51
178.0664531
0
ARC
8
DEFAULT_255_2_778
10
4.6794209
20
145.5885868
40
2.1396025
50
178.062366
51
179.9659781
0
ARC
8
DEFAULT_255_2_778
10
3.9044547
20
145.5795233
40
1.3646751
50
179.5661253
51
187.4603134
0
ARC
8
DEFAULT_255_2_778
10
3.1605484
20
145.4768776
40
0.6137605
50
186.9759509
51
201.6331792
0
ARC
8
DEFAULT_255_2_778
10
2.8094882
20
145.3300628
40
0.2334091
50
199.9021434
51
238.0403894
0
ARC
8
DEFAULT_255_2_778
10
2.7769776
20
145.2968722
40
0.1883073
50
241.0888371
51
271.0447199
0
ARC
8
DEFAULT_255_2_778
10
2.7857346
20
145.4854943
40
0.4585501
50
319.4023903
51
351.3158704
0
ARC
8
DEFAULT_255_2_778
10
2.4184196
20
145.5611997
40
0.8333101
50
349.9834025
51
0.3848068
0
LINE
8
DEFAULT_255_2_778
10
3.251711
20
145.5667963
11
3.251711
21
145.7501963
0
ARC
8
DEFAULT_255_2_778
10
4.0933616
20
145.3553318
40
0.1575964
50
208.7638638
51
216.0911413
0
ARC
8
DEFAULT_255_2_778
10
4.130308
20
145.3774846
40
0.2006507
50
197.845108
51
209.232384
0
ARC
8
DEFAULT_255_2_778
10
4.1747267
20
145.3940989
40
0.2480335
50
189.0939497
51
198.3540177
0
ARC
8
DEFAULT_255_2_778
10
4.2272858
20
145.4079201
40
0.3021636
50
184.6362703
51
190.1066287
0
ARC
8
DEFAULT_255_2_778
10
4.2108635
20
145.4370976
40
0.2857097
50
162.082307
51
167.7956561
0
ARC
8
DEFAULT_255_2_778
10
4.1379001
20
145.4614913
40
0.2087817
50
154.4020102
51
162.2918155
0
ARC
8
DEFAULT_255_2_778
10
4.125709
20
145.4690704
40
0.1945188
50
146.442147
51
154.8638443
0
ARC
8
DEFAULT_255_2_778
10
4.1193965
20
145.4717899
40
0.1877592
50
137.4345216
51
146.068886
0
ARC
8
DEFAULT_255_2_778
10
4.1702508
20
145.4236155
40
0.2578026
50
130.8253477
51
137.1942386
0
ARC
8
DEFAULT_255_2_778
10
4.1817179
20
145.4000834
40
0.2831856
50
117.9677655
51
129.468213
0
ARC
8
DEFAULT_255_2_778
10
4.3117273
20
145.1027503
40
0.608693
50
104.929364
51
110.2838463
0
ARC
8
DEFAULT_255_2_778
10
4.1430981
20
145.4314243
40
0.2446073
50
42.8561079
51
54.1919338
0
ARC
8
DEFAULT_255_2_778
10
4.1767144
20
145.465407
40
0.1968614
50
35.1330874
51
42.260295
0
ARC
8
DEFAULT_255_2_778
10
4.181671
20
145.4658219
40
0.1925853
50
28.6289271
51
35.8807744
0
ARC
8
DEFAULT_255_2_778
10
4.1751643
20
145.4624974
40
0.1998894
50
21.6045228
51
28.5717433
0
ARC
8
DEFAULT_255_2_778
10
4.1411369
20
145.4475796
40
0.2370228
50
15.9709071
51
21.9286694
0
ARC
8
DEFAULT_255_2_778
10
4.101546
20
145.4376896
40
0.2778102
50
5.6408529
51
15.6852394
0
ARC
8
DEFAULT_255_2_778
10
3.9810337
20
145.4042851
40
0.3976202
50
347.5548847
51
354.6333621
0
ARC
8
DEFAULT_255_2_778
10
4.1874367
20
145.3422422
40
0.1812265
50
329.3286623
51
337.1252686
0
ARC
8
DEFAULT_255_2_778
10
4.2304857
20
145.3162173
40
0.1309248
50
318.8103028
51
329.5143658
0
ARC
8
DEFAULT_255_2_778
10
4.2161091
20
145.3268097
40
0.1487268
50
309.9507629
51
319.3868644
0
ARC
8
DEFAULT_255_2_778
10
4.2032206
20
145.3426342
40
0.1691341
50
301.5469511
51
309.8555697
0
ARC
8
DEFAULT_255_2_778
10
4.2009618
20
145.3448851
40
0.1722356
50
293.6344328
51
301.7955562
0
ARC
8
DEFAULT_255_2_778
10
4.1720446
20
145.4232091
40
0.255835
50
276.2532463
51
287.1095033
0
ARC
8
DEFAULT_255_2_778
10
4.1512052
20
145.4549355
40
0.2887392
50
262.1583679
51
270.0011395
0
ARC
8
DEFAULT_255_2_778
10
4.1459653
20
145.4087467
40
0.2422699
50
252.5737795
51
261.8956538
0
ARC
8
DEFAULT_255_2_778
10
4.1232146
20
145.3381702
40
0.1678956
50
239.3056507
51
245.994628
0
ARC
8
DEFAULT_255_2_778
10
4.1276401
20
145.3494977
40
0.1799061
50
233.6516343
51
239.9352251
0
ARC
8
DEFAULT_255_2_778
10
4.228214
20
145.3175525
40
0.2200513
50
316.7568518
51
323.899069
0
ARC
8
DEFAULT_255_2_778
10
4.2520462
20
145.3014269
40
0.1912965
50
323.5956595
51
330.6988707
0
ARC
8
DEFAULT_255_2_778
10
3.8584204
20
145.5312682
40
0.6470929
50
330.0086571
51
330.3546051
0
ARC
8
DEFAULT_255_2_778
10
4.1686028
20
145.3525613
40
0.2891246
50
330.7289665
51
341.7037404
0
ARC
8
DEFAULT_255_2_778
10
4.0266972
20
145.3972851
40
0.4375263
50
349.2260476
51
352.8524927
0
ARC
8
DEFAULT_255_2_778
10
3.7615232
20
145.4305004
40
0.7047723
50
352.8554978
51
355.0914661
0
ARC
8
DEFAULT_255_2_778
10
3.9781493
20
145.4278728
40
0.4876684
50
359.6972839
51
359.9907974
0
ARC
8
DEFAULT_255_2_778
10
4.0456272
20
145.4284781
40
0.4201911
50
359.9067816
51
7.0837738
0
ARC
8
DEFAULT_255_2_778
10
4.1539168
20
145.4476312
40
0.310635
50
36.7510419
51
46.9138025
0
ARC
8
DEFAULT_255_2_778
10
4.1924657
20
145.4880604
40
0.2547764
50
47.0343714
51
53.2482356
0
ARC
8
DEFAULT_255_2_778
10
4.0661346
20
145.3239431
40
0.4617913
50
56.2919469
51
63.1353457
0
ARC
8
DEFAULT_255_2_778
10
4.0812444
20
146.0900914
40
0.4036362
50
298.6564686
51
309.357082
0
ARC
8
DEFAULT_255_2_778
10
4.1036974
20
146.0594287
40
0.3656949
50
309.6835868
51
315.5629308
0
ARC
8
DEFAULT_255_2_778
10
4.1268766
20
146.0382864
40
0.334156
50
321.9209415
51
328.440842
0
ARC
8
DEFAULT_255_2_778
10
4.1489082
20
146.0232468
40
0.3075141
50
328.6801443
51
335.7604868
0
ARC
8
DEFAULT_255_2_778
10
4.1634952
20
146.0182666
40
0.2923286
50
343.0406336
51
350.4955896
0
ARC
8
DEFAULT_255_2_778
10
4.1536834
20
146.0182316
40
0.3020044
50
350.8095079
51
358.0388104
0
ARC
8
DEFAULT_255_2_778
10
4.0004385
20
146.0257508
40
0.4550456
50
2.6130158
51
12.1978194
0
ARC
8
DEFAULT_255_2_778
10
4.0800923
20
146.0366538
40
0.3749372
50
13.1411807
51
18.9959392
0
ARC
8
DEFAULT_255_2_778
10
4.2195711
20
146.0861973
40
0.2269322
50
18.6311255
51
28.3898107
0
ARC
8
DEFAULT_255_2_778
10
4.1741953
20
146.0655252
40
0.2767005
50
27.6880758
51
35.6247952
0
ARC
8
DEFAULT_255_2_778
10
4.2108295
20
146.0885495
40
0.2335261
50
36.268419
51
45.7400048
0
ARC
8
DEFAULT_255_2_778
10
4.1907674
20
146.0646836
40
0.2646299
50
46.2354621
51
60.9384903
0
ARC
8
DEFAULT_255_2_778
10
4.175826
20
146.0280301
40
0.3042064
50
68.2583169
51
74.6583936
0
ARC
8
DEFAULT_255_2_778
10
4.1486896
20
145.9519958
40
0.3826613
50
88.9785894
51
90.0072889
0
ARC
8
DEFAULT_255_2_778
10
4.14866
20
145.9332179
40
0.4014392
50
90.0027222
51
90.6239072
0
ARC
8
DEFAULT_255_2_778
10
4.1491836
20
145.9042032
40
0.430458
50
90.651543
51
93.6325396
0
ARC
8
DEFAULT_255_2_778
10
4.1256465
20
146.0381582
40
0.2939751
50
103.9229809
51
117.16935
0
ARC
8
DEFAULT_255_2_778
10
4.0832413
20
146.1007743
40
0.2181433
50
123.7299209
51
132.6979713
0
ARC
8
DEFAULT_255_2_778
10
4.0926481
20
146.086046
40
0.2353669
50
131.9495577
51
140.2032831
0
ARC
8
DEFAULT_255_2_778
10
4.097217
20
146.0838533
40
0.240284
50
140.4988898
51
148.6969522
0
ARC
8
DEFAULT_255_2_778
10
4.1211667
20
146.0723443
40
0.2667397
50
149.2575375
51
164.0383014
0
ARC
8
DEFAULT_255_2_778
10
4.226629
20
146.040937
40
0.3767747
50
163.8566042
51
174.3094582
0
ARC
8
DEFAULT_255_2_778
10
4.1852799
20
146.0198983
40
0.3360238
50
181.7398213
51
193.4051146
0
ARC
8
DEFAULT_255_2_778
10
4.1285056
20
146.0054098
40
0.2769553
50
200.3943938
51
207.5302759
0
ARC
8
DEFAULT_255_2_778
10
4.1285755
20
146.0053206
40
0.276976
50
207.5072414
51
214.536003
0
ARC
8
DEFAULT_255_2_778
10
4.1685255
20
146.0388913
40
0.3289615
50
221.411348
51
227.4122008
0
ARC
8
DEFAULT_255_2_778
10
4.1879874
20
145.3913969
40
0.3815078
50
114.4121832
51
120.6826022
0
ARC
8
DEFAULT_255_2_778
10
4.1194096
20
145.4822598
40
0.2678089
50
126.9805145
51
138.7335438
0
ARC
8
DEFAULT_255_2_778
10
4.1794212
20
145.4426993
40
0.3399404
50
149.7024052
51
159.0228741
0
ARC
8
DEFAULT_255_2_778
10
4.2603044
20
145.4336822
40
0.4211077
50
169.3791272
51
175.0205329
0
ARC
8
DEFAULT_255_2_778
10
4.2626052
20
145.4333922
40
0.4234251
50
175.0084626
51
176.872111
0
ARC
8
DEFAULT_255_2_778
10
4.3154849
20
145.4029899
40
0.4751168
50
186.9017744
51
193.5595124
0
ARC
8
DEFAULT_255_2_778
10
4.0867356
20
145.3244424
40
0.2317774
50
208.4301363
51
215.2732971
0
ARC
8
DEFAULT_255_2_778
10
4.0725167
20
145.3116447
40
0.2127903
50
214.6709322
51
222.1319619
0
ARC
8
DEFAULT_255_2_778
10
4.0888021
20
145.3279365
40
0.2357997
50
222.4131227
51
229.0667078
0
ARC
8
DEFAULT_255_2_778
10
4.091045
20
145.328664
40
0.2378218
50
228.7733158
51
235.403382
0
ARC
8
DEFAULT_255_2_778
10
4.1245156
20
145.3874757
40
0.3057514
50
241.6890282
51
251.9955932
0
ARC
8
DEFAULT_255_2_778
10
4.1252174
20
145.3907948
40
0.3091249
50
252.0620348
51
262.2461274
0
ARC
8
DEFAULT_255_2_778
10
4.1499501
20
145.5265551
40
0.4470237
50
261.4527177
51
268.4439163
0
ARC
8
DEFAULT_255_2_778
10
4.160672
20
145.4841828
40
0.4041427
50
274.5185333
51
282.2193823
0
ARC
8
DEFAULT_255_2_778
10
4.1999605
20
145.3479201
40
0.26182
50
292.1348213
51
304.1697849
0
ARC
8
DEFAULT_255_2_778
10
4.3337827
20
146.0251448
40
0.3984875
50
180.0032545
51
180.5102283
0
ARC
8
DEFAULT_255_2_778
10
4.3391409
20
146.0248444
40
0.4038458
50
170.9602847
51
179.9605891
0
ARC
8
DEFAULT_255_2_778
10
4.2162898
20
146.0419687
40
0.2798403
50
163.6176789
51
170.470801
0
ARC
8
DEFAULT_255_2_778
10
4.1374436
20
146.0647303
40
0.1977755
50
153.7848495
51
163.5016052
0
ARC
8
DEFAULT_255_2_778
10
4.0931536
20
146.0872325
40
0.1481022
50
147.5969463
51
154.0257956
0
ARC
8
DEFAULT_255_2_778
10
4.0857435
20
146.0928284
40
0.1388493
50
141.9191084
51
147.908001
0
ARC
8
DEFAULT_255_2_778
10
2.6988521
20
147.1475529
40
1.6035534
50
322.8188796
51
322.9053588
0
ARC
8
DEFAULT_255_2_778
10
4.069315
20
146.1083832
40
0.116364
50
133.6388786
51
141.7670426
0
ARC
8
DEFAULT_255_2_778
10
4.1144437
20
146.0600544
40
0.1824848
50
128.2330134
51
133.4214691
0
ARC
8
DEFAULT_255_2_778
10
4.1244551
20
146.0368634
40
0.2075254
50
108.1205981
51
117.2263026
0
ARC
8
DEFAULT_255_2_778
10
4.1434605
20
145.9720258
40
0.275124
50
93.9494653
51
100.7780583
0
ARC
8
DEFAULT_255_2_778
10
4.1776536
20
146.0399645
40
0.204968
50
58.6435363
51
67.9170731
0
ARC
8
DEFAULT_255_2_778
10
4.2202044
20
146.0945185
40
0.1356467
50
33.9618654
51
47.9196642
0
ARC
8
DEFAULT_255_2_778
10
4.1979197
20
146.0766416
40
0.1641337
50
23.0844078
51
34.7920634
0
ARC
8
DEFAULT_255_2_778
10
4.142436
20
146.0546713
40
0.2237944
50
14.1806119
51
22.6892857
0
ARC
8
DEFAULT_255_2_778
10
4.0848684
20
146.0389034
40
0.2834731
50
7.6615266
51
14.420026
0
ARC
8
DEFAULT_255_2_778
10
4.2058153
20
146.0074812
40
0.1625981
50
337.4766063
51
349.1579962
0
ARC
8
DEFAULT_255_2_778
10
4.161607
20
146.0208092
40
0.2084561
50
320.3507678
51
329.4957195
0
ARC
8
DEFAULT_255_2_778
10
4.1070372
20
146.0603373
40
0.2757301
50
314.3288908
51
321.2619734
0
ARC
8
DEFAULT_255_2_778
10
4.1019442
20
146.0659253
40
0.2832867
50
307.6053093
51
314.275998
0
ARC
8
DEFAULT_255_2_778
10
4.0946191
20
146.0739362
40
0.2941044
50
301.3225654
51
307.7835205
0
ARC
8
DEFAULT_255_2_778
10
4.0822381
20
146.0905976
40
0.3147796
50
295.632514
51
301.6711429
0
ARC
8
DEFAULT_255_2_778
10
4.0514018
20
146.156608
40
0.3876342
50
285.7330326
51
295.5210097
0
ARC
8
DEFAULT_255_2_778
10
4.1607267
20
146.0353906
40
0.2343213
50
223.1632399
51
234.9359235
0
ARC
8
DEFAULT_255_2_778
10
4.1378987
20
146.0126914
40
0.2021445
50
211.5914399
51
222.8965793
0
ARC
8
DEFAULT_255_2_778
10
4.2306098
20
146.0285866
40
0.2958862
50
181.3924794
51
189.1771821
0
ARC
8
DEFAULT_255_2_778
10
10.2697547
20
145.5050377
40
0.2898684
50
270.0030403
51
270.7820192
0
ARC
8
DEFAULT_255_2_778
10
10.2696969
20
145.5000203
40
0.284851
50
257.6168018
51
270.0147148
0
ARC
8
DEFAULT_255_2_778
10
10.2854153
20
145.4246469
40
0.225585
50
200.3506955
51
216.3004239
0
ARC
8
DEFAULT_255_2_778
10
10.5046331
20
145.5092319
40
0.4605455
50
193.6053786
51
200.7325091
0
ARC
8
DEFAULT_255_2_778
10
11.0753883
20
145.6045262
40
1.0398676
50
181.9304821
51
188.1841179
0
ARC
8
DEFAULT_255_2_778
10
10.4808241
20
145.9949171
40
0.437642
50
161.2079974
51
168.6699704
0
ARC
8
DEFAULT_255_2_778
10
10.2764775
20
146.0752868
40
0.2174221
50
133.5011245
51
148.7448495
0
ARC
8
DEFAULT_255_2_778
10
10.2322791
20
146.1239894
40
0.1516774
50
119.2739614
51
134.0547223
0
ARC
8
DEFAULT_255_2_778
10
10.3099984
20
146.114975
40
0.1618817
50
46.7042591
51
60.6632587
0
ARC
8
DEFAULT_255_2_778
10
10.2514391
20
146.06316
40
0.2398564
50
27.3877177
51
45.010867
0
ARC
8
DEFAULT_255_2_778
10
10.2018315
20
146.0369511
40
0.2959604
50
20.3549129
51
27.4750997
0
ARC
8
DEFAULT_255_2_778
10
9.9690479
20
145.5319922
40
0.5378056
50
344.3480862
51
352.0701602
0
ARC
8
DEFAULT_255_2_778
10
10.2054377
20
145.4542114
40
0.2886859
50
332.1605278
51
339.3695874
0
ARC
8
DEFAULT_255_2_778
10
10.2715236
20
145.4250251
40
0.3053136
50
313.4284725
51
329.7674099
0
ARC
8
DEFAULT_255_2_778
10
10.0072314
20
145.5269162
40
0.5894265
50
342.5432123
51
350.8214923
0
ARC
8
DEFAULT_255_2_778
10
10.102123
20
146.0035289
40
0.4907226
50
12.6621657
51
22.5854526
0
ARC
8
DEFAULT_255_2_778
10
10.2725372
20
146.0739738
40
0.3063229
50
22.6616044
51
30.70685
0
ARC
8
DEFAULT_255_2_778
10
10.2704645
20
145.993957
40
0.3745534
50
89.5033862
51
103.3452239
0
ARC
8
DEFAULT_255_2_778
10
10.6576551
20
145.9454546
40
0.711364
50
166.6509555
51
173.4665238
0
ARC
8
DEFAULT_255_2_778
10
10.5552826
20
145.5273096
40
0.6069185
50
189.0449641
51
197.1054167
0
ARC
8
DEFAULT_255_2_778
10
10.2601314
20
145.4178642
40
0.2914061
50
210.4471128
51
227.5934549
0
ARC
8
DEFAULT_255_2_778
10
10.2362696
20
145.3807986
40
0.2480553
50
225.8891355
51
238.8109936
0
ARC
8
DEFAULT_255_2_778
10
10.3084661
20
145.379589
40
0.2471822
50
301.1722966
51
314.2381677
0
ARC
8
DEFAULT_255_2_778
10
25.0102814
20
146.0892596
40
0.2849499
50
119.813374
51
154.3969057
0
ARC
8
DEFAULT_255_2_778
10
25.0023194
20
146.0744666
40
0.2941726
50
91.0426286
51
117.0343051
0
ARC
8
DEFAULT_255_2_778
10
25.0120838
20
145.9680911
40
0.4007848
50
89.990574
51
92.1616535
0
ARC
8
DEFAULT_255_2_778
10
25.0119904
20
145.9405078
40
0.428368
50
86.7720773
51
89.9786869
0
ARC
8
DEFAULT_255_2_778
10
25.0159351
20
145.995172
40
0.3735695
50
84.260081
51
86.9040531
0
ARC
8
DEFAULT_255_2_778
10
25.0291743
20
146.0707565
40
0.2970929
50
55.2277761
51
85.3427077
0
ARC
8
DEFAULT_255_2_778
10
25.0471058
20
146.1133436
40
0.2520654
50
13.6892202
51
53.0545096
0
ARC
8
DEFAULT_255_2_778
10
24.8958525
20
146.0762759
40
0.4077945
50
0.7615903
51
13.72011
0
ARC
8
DEFAULT_255_2_778
10
24.8879966
20
146.0591003
40
0.4137097
50
339.3047379
51
350.3985762
0
ARC
8
DEFAULT_255_2_778
10
24.5768553
20
146.1978945
40
0.7540857
50
322.5248917
51
337.7939367
0
ARC
8
DEFAULT_255_2_778
10
24.7633654
20
146.1027813
40
0.4603368
50
327.108618
51
339.4505994
0
ARC
8
DEFAULT_255_2_778
10
24.7553503
20
146.0894943
40
0.4634291
50
341.3369768
51
349.4943638
0
ARC
8
DEFAULT_255_2_778
10
24.8573655
20
146.0729903
40
0.3601226
50
349.1167741
51
355.3660698
0
ARC
8
DEFAULT_255_2_778
10
24.874505
20
146.0755845
40
0.343186
50
1.237506
51
7.8060748
0
ARC
8
DEFAULT_255_2_778
10
25.0439785
20
146.1140991
40
0.1680573
50
29.594776
51
43.0384068
0
LINE
8
DEFAULT_255_2_778
10
8.441211
20
145.6236963
11
8.441411
21
145.6239963
0
LINE
8
DEFAULT_255_2_778
10
8.111011
20
146.3687963
11
7.807011
21
146.3687963
0
LINE
8
DEFAULT_255_2_778
10
7.807011
20
146.3687963
11
7.807011
21
145.1357963
0
LINE
8
DEFAULT_255_2_778
10
8.269711
20
145.1743963
11
8.269711
21
145.1743963
0
LINE
8
DEFAULT_255_2_778
10
3.159811
20
145.9443963
11
3.159811
21
145.9443963
0
LINE
8
DEFAULT_255_2_778
10
2.780411
20
145.1085963
11
3.291111
21
145.1085963
0
LINE
8
DEFAULT_255_2_778
10
3.291111
20
145.1085963
11
3.291111
21
145.1870963
0
LINE
8
DEFAULT_255_2_778
10
3.291111
20
145.1870963
11
3.133911
21
145.1870963
0
LINE
8
DEFAULT_255_2_778
10
3.251711
20
145.7501963
11
3.251411
21
145.7498963
0
LINE
8
DEFAULT_255_2_778
10
4.005711
20
145.2177963
11
3.991711
21
145.2320963
0
LINE
8
DEFAULT_255_2_778
10
3.991711
20
145.2320963
11
3.978411
21
145.2468963
0
LINE
8
DEFAULT_255_2_778
10
3.978411
20
145.2468963
11
3.972111
21
145.2545963
0
LINE
8
DEFAULT_255_2_778
10
3.972111
20
145.2545963
11
3.966011
21
145.2624963
0
LINE
8
DEFAULT_255_2_778
10
3.926111
20
145.3834963
11
3.924711
21
145.4119963
0
LINE
8
DEFAULT_255_2_778
10
3.924711
20
145.4119963
11
3.925011
21
145.4405963
0
LINE
8
DEFAULT_255_2_778
10
3.925011
20
145.4405963
11
3.927111
21
145.4691963
0
LINE
8
DEFAULT_255_2_778
10
3.927111
20
145.4691963
11
3.931611
21
145.4974963
0
LINE
8
DEFAULT_255_2_778
10
4.048911
20
145.6501963
11
4.074511
21
145.6628963
0
LINE
8
DEFAULT_255_2_778
10
4.074511
20
145.6628963
11
4.100711
21
145.6736963
0
LINE
8
DEFAULT_255_2_778
10
4.154911
20
145.6908963
11
4.200711
21
145.6749963
0
LINE
8
DEFAULT_255_2_778
10
4.200711
20
145.6749963
11
4.244611
21
145.6551963
0
LINE
8
DEFAULT_255_2_778
10
4.244611
20
145.6551963
11
4.265811
21
145.6432963
0
LINE
8
DEFAULT_255_2_778
10
4.265811
20
145.6432963
11
4.286211
21
145.6297963
0
LINE
8
DEFAULT_255_2_778
10
4.378011
20
145.4649963
11
4.379611
21
145.4405963
0
LINE
8
DEFAULT_255_2_778
10
4.379611
20
145.4405963
11
4.379611
21
145.4159963
0
LINE
8
DEFAULT_255_2_778
10
4.379611
20
145.4159963
11
4.376911
21
145.3670963
0
LINE
8
DEFAULT_255_2_778
10
4.369311
20
145.3185963
11
4.362911
21
145.2947963
0
LINE
8
DEFAULT_255_2_778
10
4.362911
20
145.2947963
11
4.354411
21
145.2717963
0
LINE
8
DEFAULT_255_2_778
10
4.270011
20
145.1870963
11
4.247311
21
145.1786963
0
LINE
8
DEFAULT_255_2_778
10
4.199911
20
145.1688963
11
4.175611
21
145.1667963
0
LINE
8
DEFAULT_255_2_778
10
4.175611
20
145.1667963
11
4.151211
21
145.1661963
0
LINE
8
DEFAULT_255_2_778
10
4.073411
20
145.1775963
11
4.054911
21
145.1847963
0
LINE
8
DEFAULT_255_2_778
10
4.021011
20
145.2045963
11
4.005711
21
145.2172963
0
LINE
8
DEFAULT_255_2_778
10
4.005711
20
145.2172963
11
4.005711
21
145.2177963
0
LINE
8
DEFAULT_255_2_778
10
4.357911
20
145.1389963
11
4.388511
21
145.1667963
0
LINE
8
DEFAULT_255_2_778
10
4.443111
20
145.2617963
11
4.450711
21
145.2881963
0
LINE
8
DEFAULT_255_2_778
10
4.450711
20
145.2881963
11
4.456511
21
145.3154963
0
LINE
8
DEFAULT_255_2_778
10
4.463711
20
145.3701963
11
4.465811
21
145.4252963
0
LINE
8
DEFAULT_255_2_778
10
4.462611
20
145.4802963
11
4.458211
21
145.5077963
0
LINE
8
DEFAULT_255_2_778
10
4.458211
20
145.5077963
11
4.451511
21
145.5347963
0
LINE
8
DEFAULT_255_2_778
10
4.451511
20
145.5347963
11
4.442511
21
145.5609963
0
LINE
8
DEFAULT_255_2_778
10
4.442511
20
145.5609963
11
4.431411
21
145.5863963
0
LINE
8
DEFAULT_255_2_778
10
4.431411
20
145.5863963
11
4.418211
21
145.6106963
0
LINE
8
DEFAULT_255_2_778
10
4.418211
20
145.6106963
11
4.402811
21
145.6334963
0
LINE
8
DEFAULT_255_2_778
10
4.344911
20
145.6921963
11
4.333811
21
145.7003963
0
LINE
8
DEFAULT_255_2_778
10
4.333811
20
145.7003963
11
4.322411
21
145.7080963
0
LINE
8
DEFAULT_255_2_778
10
4.364811
20
145.8033963
11
4.377711
21
145.8173963
0
LINE
8
DEFAULT_255_2_778
10
4.377711
20
145.8173963
11
4.389911
21
145.8321963
0
LINE
8
DEFAULT_255_2_778
10
4.429311
20
145.8969963
11
4.436711
21
145.9146963
0
LINE
8
DEFAULT_255_2_778
10
4.436711
20
145.9146963
11
4.443111
21
145.9329963
0
LINE
8
DEFAULT_255_2_778
10
4.455511
20
146.0078963
11
4.455511
21
146.0271963
0
LINE
8
DEFAULT_255_2_778
10
4.455511
20
146.0271963
11
4.455011
21
146.0464963
0
LINE
8
DEFAULT_255_2_778
10
4.319311
20
146.2959963
11
4.304111
21
146.3036963
0
LINE
8
DEFAULT_255_2_778
10
4.304111
20
146.3036963
11
4.288511
21
146.3105963
0
LINE
8
DEFAULT_255_2_778
10
4.256311
20
146.3213963
11
4.223211
21
146.3287963
0
LINE
8
DEFAULT_255_2_778
10
4.223211
20
146.3287963
11
4.189311
21
146.3329963
0
LINE
8
DEFAULT_255_2_778
10
4.189311
20
146.3329963
11
4.155511
21
146.3345963
0
LINE
8
DEFAULT_255_2_778
10
4.121911
20
146.3337963
11
4.088211
21
146.3300963
0
LINE
8
DEFAULT_255_2_778
10
4.088211
20
146.3300963
11
4.054911
21
146.3234963
0
LINE
8
DEFAULT_255_2_778
10
3.991411
20
146.2996963
11
3.976611
21
146.2914963
0
LINE
8
DEFAULT_255_2_778
10
3.976611
20
146.2914963
11
3.962111
21
146.2821963
0
LINE
8
DEFAULT_255_2_778
10
3.851711
20
146.0782963
11
3.849411
21
146.0440963
0
LINE
8
DEFAULT_255_2_778
10
3.849411
20
146.0440963
11
3.849411
21
146.0096963
0
LINE
8
DEFAULT_255_2_778
10
3.858411
20
145.9419963
11
3.863111
21
145.9252963
0
LINE
8
DEFAULT_255_2_778
10
3.863111
20
145.9252963
11
3.868911
21
145.9088963
0
LINE
8
DEFAULT_255_2_778
10
3.900411
20
145.8482963
11
3.910711
21
145.8345963
0
LINE
8
DEFAULT_255_2_778
10
3.910711
20
145.8345963
11
3.921811
21
145.8212963
0
LINE
8
DEFAULT_255_2_778
10
3.945911
20
145.7966963
11
3.958911
21
145.7855963
0
LINE
8
DEFAULT_255_2_778
10
3.958911
20
145.7855963
11
3.972411
21
145.7752963
0
LINE
8
DEFAULT_255_2_778
10
3.972411
20
145.7752963
11
4.000711
21
145.7559963
0
LINE
8
DEFAULT_255_2_778
10
4.000711
20
145.7559963
11
4.030311
21
145.7387963
0
LINE
8
DEFAULT_255_2_778
10
3.993311
20
145.7194963
11
3.958311
21
145.6961963
0
LINE
8
DEFAULT_255_2_778
10
3.918111
20
145.6588963
11
3.900911
21
145.6374963
0
LINE
8
DEFAULT_255_2_778
10
3.900911
20
145.6374963
11
3.885911
21
145.6141963
0
LINE
8
DEFAULT_255_2_778
10
3.862011
20
145.5643963
11
3.853011
21
145.5381963
0
LINE
8
DEFAULT_255_2_778
10
3.853011
20
145.5381963
11
3.846411
21
145.5112963
0
LINE
8
DEFAULT_255_2_778
10
3.839811
20
145.4564963
11
3.839011
21
145.4286963
0
LINE
8
DEFAULT_255_2_778
10
3.839011
20
145.4286963
11
3.839511
21
145.4008963
0
LINE
8
DEFAULT_255_2_778
10
3.839511
20
145.4008963
11
3.843811
21
145.3458963
0
LINE
8
DEFAULT_255_2_778
10
3.853611
20
145.2915963
11
3.861211
21
145.2648963
0
LINE
8
DEFAULT_255_2_778
10
3.861211
20
145.2648963
11
3.871111
21
145.2389963
0
LINE
8
DEFAULT_255_2_778
10
3.871111
20
145.2389963
11
3.882911
21
145.2140963
0
LINE
8
DEFAULT_255_2_778
10
3.956011
20
145.1328963
11
3.979511
21
145.1182963
0
LINE
8
DEFAULT_255_2_778
10
4.137811
20
145.0796963
11
4.165311
21
145.0796963
0
LINE
8
DEFAULT_255_2_778
10
4.165311
20
145.0796963
11
4.192511
21
145.0812963
0
LINE
8
DEFAULT_255_2_778
10
4.246211
20
145.0891963
11
4.272711
21
145.0960963
0
LINE
8
DEFAULT_255_2_778
10
4.272711
20
145.0960963
11
4.298611
21
145.1053963
0
LINE
8
DEFAULT_255_2_778
10
4.347011
20
145.1312963
11
4.358111
21
145.1394963
0
LINE
8
DEFAULT_255_2_778
10
4.358111
20
145.1394963
11
4.369011
21
145.1481963
0
LINE
8
DEFAULT_255_2_778
10
4.001511
20
146.2033963
11
4.015211
21
146.2128963
0
LINE
8
DEFAULT_255_2_778
10
4.015211
20
146.2128963
11
4.029511
21
146.2213963
0
LINE
8
DEFAULT_255_2_778
10
4.059911
20
146.2340963
11
4.075811
21
146.2388963
0
LINE
8
DEFAULT_255_2_778
10
4.075811
20
146.2388963
11
4.092011
21
146.2422963
0
LINE
8
DEFAULT_255_2_778
10
4.124511
20
146.2464963
11
4.157611
21
146.2472963
0
LINE
8
DEFAULT_255_2_778
10
4.157611
20
146.2472963
11
4.190611
21
146.2451963
0
LINE
8
DEFAULT_255_2_778
10
4.190611
20
146.2451963
11
4.223211
21
146.2396963
0
LINE
8
DEFAULT_255_2_778
10
4.223211
20
146.2396963
11
4.239111
21
146.2353963
0
LINE
8
DEFAULT_255_2_778
10
4.239111
20
146.2353963
11
4.254711
21
146.2298963
0
LINE
8
DEFAULT_255_2_778
10
4.284311
20
146.2149963
11
4.298111
21
146.2057963
0
LINE
8
DEFAULT_255_2_778
10
4.298111
20
146.2057963
11
4.311111
21
146.1951963
0
LINE
8
DEFAULT_255_2_778
10
4.365811
20
146.0766963
11
4.369011
21
146.0432963
0
LINE
8
DEFAULT_255_2_778
10
4.369011
20
146.0432963
11
4.369511
21
146.0266963
0
LINE
8
DEFAULT_255_2_778
10
4.369511
20
146.0266963
11
4.369511
21
146.0099963
0
LINE
8
DEFAULT_255_2_778
10
4.369511
20
146.0099963
11
4.368211
21
145.9932963
0
LINE
8
DEFAULT_255_2_778
10
4.368211
20
145.9932963
11
4.365511
21
145.9768963
0
LINE
8
DEFAULT_255_2_778
10
4.356011
20
145.9451963
11
4.349111
21
145.9297963
0
LINE
8
DEFAULT_255_2_778
10
4.349111
20
145.9297963
11
4.341211
21
145.9149963
0
LINE
8
DEFAULT_255_2_778
10
4.156511
20
145.7834963
11
4.111011
21
145.7990963
0
LINE
8
DEFAULT_255_2_778
10
4.111011
20
145.7990963
11
4.067111
21
145.8186963
0
LINE
8
DEFAULT_255_2_778
10
4.067111
20
145.8186963
11
4.046211
21
145.8302963
0
LINE
8
DEFAULT_255_2_778
10
4.046211
20
145.8302963
11
4.026111
21
145.8435963
0
LINE
8
DEFAULT_255_2_778
10
3.965711
20
145.9067963
11
3.956211
21
145.9244963
0
LINE
8
DEFAULT_255_2_778
10
3.956211
20
145.9244963
11
3.948611
21
145.9427963
0
LINE
8
DEFAULT_255_2_778
10
3.948611
20
145.9427963
11
3.942811
21
145.9617963
0
LINE
8
DEFAULT_255_2_778
10
3.942811
20
145.9617963
11
3.938511
21
145.9813963
0
LINE
8
DEFAULT_255_2_778
10
3.934811
20
146.0213963
11
3.935311
21
146.0215963
0
LINE
8
DEFAULT_255_2_778
10
6.395711
20
146.2803963
11
6.453911
21
146.2803963
0
LINE
8
DEFAULT_255_2_778
10
6.453911
20
146.2803963
11
6.453911
21
145.5646963
0
LINE
8
DEFAULT_255_2_778
10
6.453911
20
145.5646963
11
6.087711
21
145.5646963
0
LINE
8
DEFAULT_255_2_778
10
6.087711
20
145.5646963
11
6.087711
21
145.5863963
0
LINE
8
DEFAULT_255_2_778
10
6.087711
20
145.5863963
11
6.395711
21
146.2803963
0
LINE
8
DEFAULT_255_2_778
10
6.538811
20
146.3636963
11
6.340611
21
146.3636963
0
LINE
8
DEFAULT_255_2_778
10
6.340611
20
146.3636963
11
6.004411
21
145.6048963
0
LINE
8
DEFAULT_255_2_778
10
6.004411
20
145.6048963
11
6.004411
21
145.4818963
0
LINE
8
DEFAULT_255_2_778
10
6.004411
20
145.4818963
11
6.453611
21
145.4818963
0
LINE
8
DEFAULT_255_2_778
10
6.453611
20
145.4818963
11
6.453611
21
145.1640963
0
LINE
8
DEFAULT_255_2_778
10
6.453611
20
145.1640963
11
6.538611
21
145.1640963
0
LINE
8
DEFAULT_255_2_778
10
6.538611
20
145.1640963
11
6.538611
21
145.4818963
0
LINE
8
DEFAULT_255_2_778
10
6.538611
20
145.4818963
11
6.715011
21
145.4818963
0
LINE
8
DEFAULT_255_2_778
10
6.715011
20
145.4818963
11
6.715011
21
145.5651963
0
LINE
8
DEFAULT_255_2_778
10
6.715011
20
145.5651963
11
6.538611
21
145.5651963
0
LINE
8
DEFAULT_255_2_778
10
6.538611
20
145.5651963
11
6.538811
21
146.3636963
0
LINE
8
DEFAULT_255_2_778
10
10.208611
20
145.2217963
11
10.177411
21
145.2315963
0
LINE
8
DEFAULT_255_2_778
10
10.177411
20
145.2315963
11
10.148811
21
145.2466963
0
LINE
8
DEFAULT_255_2_778
10
10.148811
20
145.2466963
11
10.135811
21
145.2561963
0
LINE
8
DEFAULT_255_2_778
10
10.135811
20
145.2561963
11
10.124211
21
145.2669963
0
LINE
8
DEFAULT_255_2_778
10
10.124211
20
145.2669963
11
10.103611
21
145.2910963
0
LINE
8
DEFAULT_255_2_778
10
10.057011
20
145.4008963
11
10.046111
21
145.4564963
0
LINE
8
DEFAULT_255_2_778
10
10.036111
20
145.5694963
11
10.035311
21
145.5979963
0
LINE
8
DEFAULT_255_2_778
10
10.035311
20
145.5979963
11
10.034811
21
145.6265963
0
LINE
8
DEFAULT_255_2_778
10
10.034811
20
145.6265963
11
10.034011
21
145.6834963
0
LINE
8
DEFAULT_255_2_778
10
10.034011
20
145.6834963
11
10.033711
21
145.7403963
0
LINE
8
DEFAULT_255_2_778
10
10.033711
20
145.7403963
11
10.033711
21
145.7972963
0
LINE
8
DEFAULT_255_2_778
10
10.033711
20
145.7972963
11
10.035611
21
145.9109963
0
LINE
8
DEFAULT_255_2_778
10
10.035611
20
145.9109963
11
10.043011
21
146.0244963
0
LINE
8
DEFAULT_255_2_778
10
10.043011
20
146.0244963
11
10.046711
21
146.0528963
0
LINE
8
DEFAULT_255_2_778
10
10.046711
20
146.0528963
11
10.051711
21
146.0808963
0
LINE
8
DEFAULT_255_2_778
10
10.066511
20
146.1358963
11
10.077111
21
146.1626963
0
LINE
8
DEFAULT_255_2_778
10
10.077111
20
146.1626963
11
10.090611
21
146.1880963
0
LINE
8
DEFAULT_255_2_778
10
10.158111
20
146.2562963
11
10.175811
21
146.2650963
0
LINE
8
DEFAULT_255_2_778
10
10.175811
20
146.2650963
11
10.194611
21
146.2716963
0
LINE
8
DEFAULT_255_2_778
10
10.194611
20
146.2716963
11
10.213911
21
146.2763963
0
LINE
8
DEFAULT_255_2_778
10
10.213911
20
146.2763963
11
10.233711
21
146.2795963
0
LINE
8
DEFAULT_255_2_778
10
10.233711
20
146.2795963
11
10.273711
21
146.2819963
0
LINE
8
DEFAULT_255_2_778
10
10.273711
20
146.2819963
11
10.313411
21
146.2795963
0
LINE
8
DEFAULT_255_2_778
10
10.313411
20
146.2795963
11
10.352511
21
146.2713963
0
LINE
8
DEFAULT_255_2_778
10
10.352511
20
146.2713963
11
10.371311
21
146.2647963
0
LINE
8
DEFAULT_255_2_778
10
10.371311
20
146.2647963
11
10.389311
21
146.2560963
0
LINE
8
DEFAULT_255_2_778
10
10.479311
20
146.1398963
11
10.490411
21
146.1054963
0
LINE
8
DEFAULT_255_2_778
10
10.490411
20
146.1054963
11
10.498311
21
146.0702963
0
LINE
8
DEFAULT_255_2_778
10
10.498311
20
146.0702963
11
10.503911
21
146.0345963
0
LINE
8
DEFAULT_255_2_778
10
10.503911
20
146.0345963
11
10.510511
21
145.9625963
0
LINE
8
DEFAULT_255_2_778
10
10.510511
20
145.9625963
11
10.512111
21
145.9265963
0
LINE
8
DEFAULT_255_2_778
10
10.512111
20
145.9265963
11
10.512911
21
145.8906963
0
LINE
8
DEFAULT_255_2_778
10
10.512911
20
145.8906963
11
10.513911
21
145.8183963
0
LINE
8
DEFAULT_255_2_778
10
10.513911
20
145.8183963
11
10.514211
21
145.7461963
0
LINE
8
DEFAULT_255_2_778
10
10.514211
20
145.7461963
11
10.513911
21
145.6739963
0
LINE
8
DEFAULT_255_2_778
10
10.513911
20
145.6739963
11
10.512611
21
145.6016963
0
LINE
8
DEFAULT_255_2_778
10
10.512611
20
145.6016963
11
10.511511
21
145.5657963
0
LINE
8
DEFAULT_255_2_778
10
10.511511
20
145.5657963
11
10.509411
21
145.5297963
0
LINE
8
DEFAULT_255_2_778
10
10.509411
20
145.5297963
11
10.501711
21
145.4577963
0
LINE
8
DEFAULT_255_2_778
10
10.486911
20
145.3868963
11
10.475611
21
145.3524963
0
LINE
8
DEFAULT_255_2_778
10
10.460711
20
145.3193963
11
10.441211
21
145.2886963
0
LINE
8
DEFAULT_255_2_778
10
10.441211
20
145.2886963
11
10.429311
21
145.2744963
0
LINE
8
DEFAULT_255_2_778
10
10.429311
20
145.2744963
11
10.416311
21
145.2611963
0
LINE
8
DEFAULT_255_2_778
10
10.416311
20
145.2611963
11
10.401711
21
145.2492963
0
LINE
8
DEFAULT_255_2_778
10
10.401711
20
145.2492963
11
10.385611
21
145.2392963
0
LINE
8
DEFAULT_255_2_778
10
10.385611
20
145.2392963
11
10.350411
21
145.2246963
0
LINE
8
DEFAULT_255_2_778
10
10.350411
20
145.2246963
11
10.331611
21
145.2198963
0
LINE
8
DEFAULT_255_2_778
10
10.331611
20
145.2198963
11
10.312611
21
145.2167963
0
LINE
8
DEFAULT_255_2_778
10
10.312611
20
145.2167963
11
10.273711
21
145.2151963
0
LINE
8
DEFAULT_255_2_778
10
10.535311
20
145.2712963
11
10.545711
21
145.2902963
0
LINE
8
DEFAULT_255_2_778
10
10.545711
20
145.2902963
11
10.554711
21
145.3098963
0
LINE
8
DEFAULT_255_2_778
10
10.554711
20
145.3098963
11
10.569511
21
145.3500963
0
LINE
8
DEFAULT_255_2_778
10
10.589111
20
145.4328963
11
10.594911
21
145.4752963
0
LINE
8
DEFAULT_255_2_778
10
10.594911
20
145.4752963
11
10.598811
21
145.5175963
0
LINE
8
DEFAULT_255_2_778
10
10.598811
20
145.5175963
11
10.601011
21
145.5601963
0
LINE
8
DEFAULT_255_2_778
10
10.601011
20
145.5601963
11
10.601511
21
145.5813963
0
LINE
8
DEFAULT_255_2_778
10
10.601511
20
145.5813963
11
10.601811
21
145.6024963
0
LINE
8
DEFAULT_255_2_778
10
10.601811
20
145.6024963
11
10.602811
21
145.6874963
0
LINE
8
DEFAULT_255_2_778
10
10.602811
20
145.6874963
11
10.603111
21
145.7723963
0
LINE
8
DEFAULT_255_2_778
10
10.603111
20
145.7723963
11
10.602611
21
145.8572963
0
LINE
8
DEFAULT_255_2_778
10
10.602611
20
145.8572963
11
10.601811
21
145.8998963
0
LINE
8
DEFAULT_255_2_778
10
10.601811
20
145.8998963
11
10.600711
21
145.9424963
0
LINE
8
DEFAULT_255_2_778
10
10.600711
20
145.9424963
11
10.594611
21
146.0271963
0
LINE
8
DEFAULT_255_2_778
10
10.594611
20
146.0271963
11
10.589111
21
146.0692963
0
LINE
8
DEFAULT_255_2_778
10
10.589111
20
146.0692963
11
10.580911
21
146.1110963
0
LINE
8
DEFAULT_255_2_778
10
10.535911
20
146.2303963
11
10.511011
21
146.2657963
0
LINE
8
DEFAULT_255_2_778
10
10.511011
20
146.2657963
11
10.480911
21
146.2975963
0
LINE
8
DEFAULT_255_2_778
10
10.480911
20
146.2975963
11
10.463911
21
146.3118963
0
LINE
8
DEFAULT_255_2_778
10
10.463911
20
146.3118963
11
10.445911
21
146.3242963
0
LINE
8
DEFAULT_255_2_778
10
10.445911
20
146.3242963
11
10.406511
21
146.3446963
0
LINE
8
DEFAULT_255_2_778
10
10.406511
20
146.3446963
11
10.385411
21
146.3523963
0
LINE
8
DEFAULT_255_2_778
10
10.385411
20
146.3523963
11
10.363611
21
146.3583963
0
LINE
8
DEFAULT_255_2_778
10
10.363611
20
146.3583963
11
10.319211
21
146.3660963
0
LINE
8
DEFAULT_255_2_778
10
10.319211
20
146.3660963
11
10.273711
21
146.3684963
0
LINE
8
DEFAULT_255_2_778
10
10.184011
20
146.3583963
11
10.140911
21
146.3443963
0
LINE
8
DEFAULT_255_2_778
10
10.140911
20
146.3443963
11
10.101211
21
146.3240963
0
LINE
8
DEFAULT_255_2_778
10
10.101211
20
146.3240963
11
10.082911
21
146.3113963
0
LINE
8
DEFAULT_255_2_778
10
10.082911
20
146.3113963
11
10.066011
21
146.2970963
0
LINE
8
DEFAULT_255_2_778
10
10.066011
20
146.2970963
11
10.035811
21
146.2652963
0
LINE
8
DEFAULT_255_2_778
10
10.035811
20
146.2652963
11
10.022611
21
146.2478963
0
LINE
8
DEFAULT_255_2_778
10
10.022611
20
146.2478963
11
10.010911
21
146.2295963
0
LINE
8
DEFAULT_255_2_778
10
10.010911
20
146.2295963
11
10.000611
21
146.2107963
0
LINE
8
DEFAULT_255_2_778
10
10.000611
20
146.2107963
11
9.991711
21
146.1911963
0
LINE
8
DEFAULT_255_2_778
10
9.991711
20
146.1911963
11
9.976811
21
146.1509963
0
LINE
8
DEFAULT_255_2_778
10
9.976811
20
146.1509963
11
9.965511
21
146.1096963
0
LINE
8
DEFAULT_255_2_778
10
9.950911
20
146.0263963
11
9.944511
21
145.9419963
0
LINE
8
DEFAULT_255_2_778
10
9.944511
20
145.9419963
11
9.943511
21
145.8993963
0
LINE
8
DEFAULT_255_2_778
10
9.943511
20
145.8993963
11
9.942711
21
145.8567963
0
LINE
8
DEFAULT_255_2_778
10
9.942711
20
145.8567963
11
9.941911
21
145.7715963
0
LINE
8
DEFAULT_255_2_778
10
9.941911
20
145.7715963
11
9.941911
21
145.6863963
0
LINE
8
DEFAULT_255_2_778
10
9.941911
20
145.6863963
11
9.942911
21
145.6011963
0
LINE
8
DEFAULT_255_2_778
10
9.942911
20
145.6011963
11
9.944011
21
145.5585963
0
LINE
8
DEFAULT_255_2_778
10
9.944011
20
145.5585963
11
9.946111
21
145.5162963
0
LINE
8
DEFAULT_255_2_778
10
9.946111
20
145.5162963
11
9.955911
21
145.4318963
0
LINE
8
DEFAULT_255_2_778
10
9.975211
20
145.3487963
11
9.989811
21
145.3087963
0
LINE
8
DEFAULT_255_2_778
10
9.989811
20
145.3087963
11
9.998511
21
145.2892963
0
LINE
8
DEFAULT_255_2_778
10
9.998511
20
145.2892963
11
10.008911
21
145.2701963
0
LINE
8
DEFAULT_255_2_778
10
10.107811
20
145.1685963
11
10.132911
21
145.1553963
0
LINE
8
DEFAULT_255_2_778
10
10.132911
20
145.1553963
11
10.159411
21
145.1447963
0
LINE
8
DEFAULT_255_2_778
10
10.159411
20
145.1447963
11
10.214911
21
145.1317963
0
LINE
8
DEFAULT_255_2_778
10
10.214911
20
145.1317963
11
10.272111
21
145.1278963
0
LINE
8
DEFAULT_255_2_778
10
10.272111
20
145.1278963
11
10.329011
21
145.1315963
0
LINE
8
DEFAULT_255_2_778
10
10.329011
20
145.1315963
11
10.357311
21
145.1368963
0
LINE
8
DEFAULT_255_2_778
10
10.357311
20
145.1368963
11
10.384811
21
145.1444963
0
LINE
8
DEFAULT_255_2_778
10
10.384811
20
145.1444963
11
10.411311
21
145.1548963
0
LINE
8
DEFAULT_255_2_778
10
10.411311
20
145.1548963
11
10.436411
21
145.1680963
0
LINE
8
DEFAULT_255_2_778
10
10.480911
20
145.2024963
11
10.481411
21
145.2032963
0
LINE
8
DEFAULT_255_2_778
10
12.252511
20
146.3652963
11
12.145911
21
146.3652963
0
LINE
8
DEFAULT_255_2_778
10
12.145911
20
146.3652963
11
11.748211
21
145.1817963
0
LINE
8
DEFAULT_255_2_778
10
11.748211
20
145.1817963
11
11.828111
21
145.1550963
0
LINE
8
DEFAULT_255_2_778
10
11.828111
20
145.1550963
11
11.937911
21
145.4797963
0
LINE
8
DEFAULT_255_2_778
10
11.937911
20
145.4797963
11
12.452311
21
145.4797963
0
LINE
8
DEFAULT_255_2_778
10
12.452311
20
145.4797963
11
12.558911
21
145.1550963
0
LINE
8
DEFAULT_255_2_778
10
12.558911
20
145.1550963
11
12.640411
21
145.1817963
0
LINE
8
DEFAULT_255_2_778
10
12.640411
20
145.1817963
11
12.252511
21
146.3652963
0
LINE
8
DEFAULT_255_2_778
10
12.423911
20
145.5646963
11
11.966211
21
145.5646963
0
LINE
8
DEFAULT_255_2_778
10
11.966211
20
145.5646963
11
12.199311
21
146.2586963
0
LINE
8
DEFAULT_255_2_778
10
12.199311
20
146.2586963
11
12.423911
21
145.5646963
0
LINE
8
DEFAULT_255_2_778
10
25.303611
20
146.0816963
11
25.302011
21
146.0356963
0
LINE
8
DEFAULT_255_2_778
10
25.302011
20
146.0356963
11
25.295911
21
145.9900963
0
LINE
8
DEFAULT_255_2_778
10
25.175311
20
145.7390963
11
25.051711
21
145.5805963
0
LINE
8
DEFAULT_255_2_778
10
25.051711
20
145.5805963
11
24.791911
21
145.2730963
0
LINE
8
DEFAULT_255_2_778
10
24.791911
20
145.2730963
11
24.791911
21
145.2325963
0
LINE
8
DEFAULT_255_2_778
10
24.791911
20
145.2325963
11
25.354411
21
145.2325963
0
LINE
8
DEFAULT_255_2_778
10
25.354411
20
145.2325963
11
25.354411
21
145.1484963
0
LINE
8
DEFAULT_255_2_778
10
25.354411
20
145.1484963
11
24.707811
21
145.1484963
0
LINE
8
DEFAULT_255_2_778
10
24.707811
20
145.1484963
11
24.707811
21
145.3032963
0
LINE
8
DEFAULT_255_2_778
10
24.707811
20
145.3032963
11
24.717811
21
145.3151963
0
LINE
8
DEFAULT_255_2_778
10
24.717811
20
145.3151963
11
24.974511
21
145.6151963
0
LINE
8
DEFAULT_255_2_778
10
24.974511
20
145.6151963
11
25.095411
21
145.7710963
0
LINE
8
DEFAULT_255_2_778
10
25.095411
20
145.7710963
11
25.149911
21
145.8527963
0
LINE
8
DEFAULT_255_2_778
10
25.216311
20
146.0438963
11
25.217611
21
146.0829963
0
LINE
8
DEFAULT_255_2_778
10
25.214511
20
146.1221963
11
25.211011
21
146.1417963
0
LINE
8
DEFAULT_255_2_778
10
25.211011
20
146.1417963
11
25.206011
21
146.1607963
0
LINE
8
DEFAULT_255_2_778
10
25.206011
20
146.1607963
11
25.199111
21
146.1792963
0
LINE
8
DEFAULT_255_2_778
10
25.199111
20
146.1792963
11
25.190111
21
146.1970963
0
LINE
8
DEFAULT_255_2_778
10
25.166811
20
146.2287963
11
25.152311
21
146.2422963
0
LINE
8
DEFAULT_255_2_778
10
25.152311
20
146.2422963
11
25.136111
21
146.2538963
0
LINE
8
DEFAULT_255_2_778
10
25.136111
20
146.2538963
11
25.118911
21
146.2634963
0
LINE
8
DEFAULT_255_2_778
10
25.118911
20
146.2634963
11
25.100411
21
146.2710963
0
LINE
8
DEFAULT_255_2_778
10
25.100411
20
146.2710963
11
25.062311
21
146.2806963
0
LINE
8
DEFAULT_255_2_778
10
25.062311
20
146.2806963
11
25.022911
21
146.2843963
0
LINE
8
DEFAULT_255_2_778
10
25.022911
20
146.2843963
11
24.983511
21
146.2832963
0
LINE
8
DEFAULT_255_2_778
10
24.983511
20
146.2832963
11
24.963911
21
146.2803963
0
LINE
8
DEFAULT_255_2_778
10
24.963911
20
146.2803963
11
24.944611
21
146.2755963
0
LINE
8
DEFAULT_255_2_778
10
24.944611
20
146.2755963
11
24.908311
21
146.2602963
0
LINE
8
DEFAULT_255_2_778
10
24.908311
20
146.2602963
11
24.891411
21
146.2496963
0
LINE
8
DEFAULT_255_2_778
10
24.891411
20
146.2496963
11
24.876111
21
146.2372963
0
LINE
8
DEFAULT_255_2_778
10
24.876111
20
146.2372963
11
24.862011
21
146.2231963
0
LINE
8
DEFAULT_255_2_778
10
24.862011
20
146.2231963
11
24.849611
21
146.2078963
0
LINE
8
DEFAULT_255_2_778
10
24.849611
20
146.2078963
11
24.828711
21
146.1739963
0
LINE
8
DEFAULT_255_2_778
10
24.828711
20
146.1739963
11
24.752811
21
146.2126963
0
LINE
8
DEFAULT_255_2_778
10
23.365011
20
146.2763963
11
22.845111
21
146.2763963
0
LINE
8
DEFAULT_255_2_778
10
22.845111
20
146.2763963
11
22.845111
21
145.8318963
0
LINE
8
DEFAULT_255_2_778
10
22.845111
20
145.8318963
11
23.333311
21
145.8318963
0
LINE
8
DEFAULT_255_2_778
10
23.333311
20
145.8318963
11
23.333311
21
145.7477963
0
LINE
8
DEFAULT_255_2_778
10
23.333311
20
145.7477963
11
22.845111
21
145.7477963
0
LINE
8
DEFAULT_255_2_778
10
22.845111
20
145.7477963
11
22.845111
21
145.2360963
0
LINE
8
DEFAULT_255_2_778
10
22.845111
20
145.2360963
11
23.365011
21
145.2360963
0
LINE
8
DEFAULT_255_2_778
10
23.365011
20
145.2360963
11
23.365011
21
145.1518963
0
LINE
8
DEFAULT_255_2_778
10
23.365011
20
145.1518963
11
22.761011
21
145.1518963
0
LINE
8
DEFAULT_255_2_778
10
22.761011
20
145.1518963
11
22.761011
21
146.3621963
0
LINE
8
DEFAULT_255_2_778
10
22.761011
20
146.3621963
11
23.365011
21
146.3621963
0
LINE
8
DEFAULT_255_2_778
10
23.365011
20
146.3621963
11
23.365011
21
146.2761963
0
LINE
8
DEFAULT_255_2_778
10
24.275711
20
146.3605963
11
24.275711
21
146.2745963
0
LINE
8
DEFAULT_255_2_778
10
24.275711
20
146.2745963
11
23.915311
21
146.2745963
0
LINE
8
DEFAULT_255_2_778
10
23.915311
20
146.2745963
11
23.915311
21
145.1487963
0
LINE
8
DEFAULT_255_2_778
10
23.915311
20
145.1487963
11
23.829411
21
145.1487963
0
LINE
8
DEFAULT_255_2_778
10
23.829411
20
145.1487963
11
23.829411
21
146.2745963
0
LINE
8
DEFAULT_255_2_778
10
23.829411
20
146.2745963
11
23.482711
21
146.2745963
0
LINE
8
DEFAULT_255_2_778
10
23.482711
20
146.2745963
11
23.482711
21
146.3605963
0
LINE
8
DEFAULT_255_2_778
10
23.482711
20
146.3605963
11
24.275711
21
146.3605963
0
LINE
8
DEFAULT_255_2_778
10
28.014511
20
145.1487963
11
28.014511
21
146.3605963
0
LINE
8
DEFAULT_255_2_778
10
28.014511
20
146.3605963
11
28.100511
21
146.3605963
0
LINE
8
DEFAULT_255_2_778
10
28.100511
20
146.3605963
11
28.100511
21
145.2347963
0
LINE
8
DEFAULT_255_2_778
10
28.100511
20
145.2347963
11
28.581811
21
145.2347963
0
LINE
8
DEFAULT_255_2_778
10
28.581811
20
145.2347963
11
28.581811
21
145.1487963
0
LINE
8
DEFAULT_255_2_778
10
28.581811
20
145.1487963
11
28.014511
21
145.1487963
0
ARC
8
DEFAULT_255_2_778
10
25.8112198
20
145.3797138
40
0.2365326
50
302.7401748
51
315.7483434
0
ARC
8
DEFAULT_255_2_778
10
25.7488889
20
145.3718331
40
0.224606
50
224.3378642
51
238.1436322
0
ARC
8
DEFAULT_255_2_778
10
25.8755643
20
145.4788782
40
0.3902043
50
185.6561264
51
222.5799827
0
ARC
8
DEFAULT_255_2_778
10
26.2466721
20
145.5592886
40
0.7686589
50
188.7423757
51
188.8961118
0
ARC
8
DEFAULT_255_2_778
10
26.9125848
20
145.6346134
40
1.4385325
50
179.2438504
51
187.6763359
0
ARC
8
DEFAULT_255_2_778
10
40.5976966
20
145.7511499
40
15.1238337
50
180.2754883
51
180.3695739
0
ARC
8
DEFAULT_255_2_778
10
4.1730573
20
145.5729526
40
21.3012416
50
0.2837183
51
0.3308618
0
ARC
8
DEFAULT_255_2_778
10
26.1917831
20
145.9451001
40
0.7157538
50
159.3207462
51
179.6350867
0
ARC
8
DEFAULT_255_2_778
10
25.7745527
20
146.1003981
40
0.2705713
50
114.2686291
51
158.8873468
0
ARC
8
DEFAULT_255_2_778
10
25.7775586
20
146.0645927
40
0.3046836
50
92.1658864
51
112.0158999
0
ARC
8
DEFAULT_255_2_778
10
25.7855851
20
145.9189973
40
0.4504854
50
90.0237376
51
92.486185
0
ARC
8
DEFAULT_255_2_778
10
25.7854694
20
145.9591235
40
0.4103591
50
88.3113763
51
90.0098971
0
ARC
8
DEFAULT_255_2_778
10
25.7902447
20
146.0460123
40
0.3233748
50
75.6221182
51
88.7034394
0
ARC
8
DEFAULT_255_2_778
10
25.8083804
20
146.1160929
40
0.2509858
50
51.5521864
51
75.6599205
0
ARC
8
DEFAULT_255_2_778
10
25.7890377
20
146.096861
40
0.2780933
50
29.135622
51
50.8948746
0
ARC
8
DEFAULT_255_2_778
10
25.6002131
20
146.0085439
40
0.4862506
50
4.8964875
51
27.3923471
0
ARC
8
DEFAULT_255_2_778
10
24.9234445
20
145.9089511
40
1.1697853
50
5.942466
51
6.9277703
0
ARC
8
DEFAULT_255_2_778
10
24.5686823
20
145.8816381
40
1.5254987
50
0.3112582
51
5.5833179
0
ARC
8
DEFAULT_255_2_778
10
19.5747689
20
145.811493
40
6.5198614
50
0.1446527
51
0.6892705
0
ARC
8
DEFAULT_255_2_778
10
108.6613068
20
146.1684381
40
82.5673992
50
180.2362723
51
180.2419589
0
ARC
8
DEFAULT_255_2_778
10
25.0528136
20
145.6017454
40
1.0408566
50
0.000024
51
0.4080815
0
ARC
8
DEFAULT_255_2_778
10
25.067224
20
145.6013292
40
1.0264463
50
348.6918945
51
0.023252
0
ARC
8
DEFAULT_255_2_778
10
25.7086825
20
145.4680146
40
0.3713323
50
317.0194412
51
349.4551216
0
ARC
8
DEFAULT_255_2_778
10
25.7525588
20
146.1303834
40
0.14835
50
120.9140426
51
135.5024505
0
ARC
8
DEFAULT_255_2_778
10
25.7899739
20
146.0906175
40
0.2029197
50
134.897964
51
148.5609331
0
ARC
8
DEFAULT_255_2_778
10
25.8331378
20
146.0616495
40
0.254866
50
148.066027
51
158.9100432
0
ARC
8
DEFAULT_255_2_778
10
26.215622
20
145.9482142
40
0.6533218
50
161.6994104
51
179.3383395
0
ARC
8
DEFAULT_255_2_778
10
26.2511043
20
145.5723801
40
0.6890315
50
181.6068684
51
198.3062003
0
ARC
8
DEFAULT_255_2_778
10
25.8157579
20
145.4344486
40
0.2324657
50
199.7332158
51
221.123805
0
ARC
8
DEFAULT_255_2_778
10
25.7570217
20
145.3856903
40
0.1561641
50
221.8212479
51
253.7581383
0
ARC
8
DEFAULT_255_2_778
10
25.7832366
20
145.4879433
40
0.2616909
50
254.5093206
51
270.0179871
0
ARC
8
DEFAULT_255_2_778
10
25.7833366
20
145.4881566
40
0.2619042
50
269.9960996
51
270.6373031
0
ARC
8
DEFAULT_255_2_778
10
25.7833139
20
145.4898246
40
0.2635722
50
270.6382057
51
273.5520962
0
ARC
8
DEFAULT_255_2_778
10
25.7871646
20
145.4849686
40
0.2585114
50
272.7669185
51
275.5827294
0
ARC
8
DEFAULT_255_2_778
10
25.7958268
20
145.4243403
40
0.1973467
50
274.7921285
51
296.4549795
0
ARC
8
DEFAULT_255_2_778
10
25.7670597
20
145.433368
40
0.2193242
50
302.1417761
51
346.7766319
0
ARC
8
DEFAULT_255_2_778
10
25.5771085
20
145.5081443
40
0.4223646
50
342.7929463
51
343.1987511
0
ARC
8
DEFAULT_255_2_778
10
25.3593995
20
145.5620953
40
0.6464735
50
344.1986444
51
356.5218065
0
ARC
8
DEFAULT_255_2_778
10
24.6616171
20
145.6239836
40
1.3468655
50
355.694767
51
357.173131
0
ARC
8
DEFAULT_255_2_778
10
24.9627531
20
145.9047053
40
1.0458908
50
0.0248385
51
9.5517504
0
ARC
8
DEFAULT_255_2_778
10
25.6919442
20
146.0339687
40
0.3054278
50
8.3378269
51
41.0027955
0
LINE
8
DEFAULT_255_2_778
10
25.9391438
20
145.1807587
11
25.9155438
21
145.1675587
0
LINE
8
DEFAULT_255_2_778
10
25.9155438
20
145.1675587
11
25.8906438
21
145.1572587
0
LINE
8
DEFAULT_255_2_778
10
25.8906438
20
145.1572587
11
25.8385438
21
145.1442587
0
LINE
8
DEFAULT_255_2_778
10
25.8385438
20
145.1442587
11
25.7848438
21
145.1405587
0
LINE
8
DEFAULT_255_2_778
10
25.7848438
20
145.1405587
11
25.7313438
21
145.1445587
0
LINE
8
DEFAULT_255_2_778
10
25.7313438
20
145.1445587
11
25.7049438
21
145.1498587
0
LINE
8
DEFAULT_255_2_778
10
25.7049438
20
145.1498587
11
25.6790438
21
145.1574587
0
LINE
8
DEFAULT_255_2_778
10
25.6790438
20
145.1574587
11
25.6541438
21
145.1677587
0
LINE
8
DEFAULT_255_2_778
10
25.6541438
20
145.1677587
11
25.6303438
21
145.1810587
0
LINE
8
DEFAULT_255_2_778
10
25.4739438
20
145.6959587
11
25.4760438
21
145.9496587
0
LINE
8
DEFAULT_255_2_778
10
26.0946438
20
145.8197587
11
26.0936438
21
145.6091587
0
LINE
8
DEFAULT_255_2_778
10
25.9803438
20
145.2148587
11
25.9806438
21
145.2146587
0
LINE
8
DEFAULT_255_2_778
10
25.9229438
20
146.2343587
11
25.8933438
21
146.2570587
0
LINE
8
DEFAULT_255_2_778
10
25.8933438
20
146.2570587
11
25.8589438
21
146.2724587
0
LINE
8
DEFAULT_255_2_778
10
25.8589438
20
146.2724587
11
25.8221438
21
146.2806587
0
LINE
8
DEFAULT_255_2_778
10
25.8221438
20
146.2806587
11
25.7848438
21
146.2830587
0
LINE
8
DEFAULT_255_2_778
10
25.7848438
20
146.2830587
11
25.7475438
21
146.2806587
0
LINE
8
DEFAULT_255_2_778
10
25.7475438
20
146.2806587
11
25.7107438
21
146.2726587
0
LINE
8
DEFAULT_255_2_778
10
25.7107438
20
146.2726587
11
25.6763438
21
146.2576587
0
LINE
8
DEFAULT_255_2_778
10
25.5623438
20
145.9557587
11
25.5591438
21
145.7543587
0
LINE
8
DEFAULT_255_2_778
10
25.5591438
20
145.7543587
11
25.5623438
21
145.5530587
0
LINE
8
DEFAULT_255_2_778
10
26.0068438
20
145.5575587
11
26.0099438
21
145.7313587
0
LINE
8
DEFAULT_255_2_778
10
26.0099438
20
145.7313587
11
26.0086438
21
145.9051587
0
LINE
8
DEFAULT_255_2_778
10
25.9224438
20
146.2343587
11
25.9229438
21
146.2343587
0
ARC
8
DEFAULT_255_2_778
10
26.565259
20
145.3775885
40
0.2335889
50
302.5807488
51
315.7726984
0
ARC
8
DEFAULT_255_2_778
10
26.5008889
20
145.3718331
40
0.224606
50
224.3378642
51
238.1436322
0
ARC
8
DEFAULT_255_2_778
10
26.6275643
20
145.4788782
40
0.3902043
50
185.6561264
51
222.5799827
0
ARC
8
DEFAULT_255_2_778
10
26.9986721
20
145.5592886
40
0.7686589
50
188.7423757
51
188.8961118
0
ARC
8
DEFAULT_255_2_778
10
27.6645848
20
145.6346134
40
1.4385325
50
179.2438504
51
187.6763359
0
ARC
8
DEFAULT_255_2_778
10
41.3496966
20
145.7511499
40
15.1238337
50
180.2754883
51
180.3695739
0
ARC
8
DEFAULT_255_2_778
10
4.9250573
20
145.5729526
40
21.3012416
50
0.2837183
51
0.3308618
0
ARC
8
DEFAULT_255_2_778
10
26.9437831
20
145.9451001
40
0.7157538
50
159.3207462
51
179.6350867
0
ARC
8
DEFAULT_255_2_778
10
26.5265527
20
146.1003981
40
0.2705713
50
114.2686291
51
158.8873468
0
ARC
8
DEFAULT_255_2_778
10
26.5295586
20
146.0645927
40
0.3046836
50
92.1658864
51
112.0158999
0
ARC
8
DEFAULT_255_2_778
10
26.5375851
20
145.9189973
40
0.4504854
50
90.0237376
51
92.486185
0
ARC
8
DEFAULT_255_2_778
10
26.5374694
20
145.9591235
40
0.4103591
50
88.3113763
51
90.0098971
0
ARC
8
DEFAULT_255_2_778
10
26.5422447
20
146.0460123
40
0.3233748
50
75.6221182
51
88.7034394
0
ARC
8
DEFAULT_255_2_778
10
26.5600427
20
146.1154125
40
0.2517287
50
51.5882917
51
75.6238173
0
ARC
8
DEFAULT_255_2_778
10
26.5410377
20
146.096861
40
0.2780933
50
29.135622
51
50.8948746
0
ARC
8
DEFAULT_255_2_778
10
26.3511565
20
146.0083009
40
0.4873006
50
4.9145866
51
27.360559
0
ARC
8
DEFAULT_255_2_778
10
25.6420413
20
145.9037732
40
1.2035464
50
6.0230086
51
6.9807986
0
ARC
8
DEFAULT_255_2_778
10
25.3206823
20
145.8816381
40
1.5254987
50
0.3112582
51
5.5833179
0
ARC
8
DEFAULT_255_2_778
10
20.3267689
20
145.811493
40
6.5198614
50
0.1446527
51
0.6892705
0
ARC
8
DEFAULT_255_2_778
10
109.4133068
20
146.1684381
40
82.5673992
50
180.2362723
51
180.2419589
0
ARC
8
DEFAULT_255_2_778
10
25.8164436
20
145.6018148
40
1.0292264
50
0.0015907
51
0.4088265
0
ARC
8
DEFAULT_255_2_778
10
25.8113458
20
145.6021054
40
1.034324
50
348.7353049
51
359.985484
0
ARC
8
DEFAULT_255_2_778
10
26.4606825
20
145.4680146
40
0.3713323
50
317.0194412
51
349.4551216
0
ARC
8
DEFAULT_255_2_778
10
26.5028213
20
146.1325912
40
0.1455637
50
120.7737303
51
135.6429466
0
ARC
8
DEFAULT_255_2_778
10
26.5419739
20
146.0906175
40
0.2029197
50
134.897964
51
148.5609331
0
ARC
8
DEFAULT_255_2_778
10
26.5851378
20
146.0616495
40
0.254866
50
148.066027
51
158.9100432
0
ARC
8
DEFAULT_255_2_778
10
26.967622
20
145.9482142
40
0.6533218
50
161.6994104
51
179.3383395
0
ARC
8
DEFAULT_255_2_778
10
27.0031043
20
145.5723801
40
0.6890315
50
181.6068684
51
198.3062003
0
ARC
8
DEFAULT_255_2_778
10
26.5677579
20
145.4344486
40
0.2324657
50
199.7332158
51
221.123805
0
ARC
8
DEFAULT_255_2_778
10
26.5090217
20
145.3856903
40
0.1561641
50
221.8212479
51
253.7581383
0
ARC
8
DEFAULT_255_2_778
10
26.5352366
20
145.4879433
40
0.2616909
50
254.5093206
51
270.0179871
0
ARC
8
DEFAULT_255_2_778
10
26.5353366
20
145.4881566
40
0.2619042
50
269.9960996
51
270.6373031
0
ARC
8
DEFAULT_255_2_778
10
26.5353139
20
145.4898246
40
0.2635722
50
270.6382057
51
273.5520962
0
ARC
8
DEFAULT_255_2_778
10
26.5391646
20
145.4849686
40
0.2585114
50
272.7669185
51
275.5827294
0
ARC
8
DEFAULT_255_2_778
10
26.5478268
20
145.4243403
40
0.1973467
50
274.7921285
51
296.4549795
0
ARC
8
DEFAULT_255_2_778
10
26.5190597
20
145.433368
40
0.2193242
50
302.1417761
51
346.7766319
0
ARC
8
DEFAULT_255_2_778
10
26.3291085
20
145.5081443
40
0.4223646
50
342.7929463
51
343.1987511
0
ARC
8
DEFAULT_255_2_778
10
26.1113995
20
145.5620953
40
0.6464735
50
344.1986444
51
356.5218065
0
ARC
8
DEFAULT_255_2_778
10
25.4136171
20
145.6239836
40
1.3468655
50
355.694767
51
357.173131
0
ARC
8
DEFAULT_255_2_778
10
25.7147531
20
145.9047053
40
1.0458908
50
0.0248385
51
9.5517504
0
ARC
8
DEFAULT_255_2_778
10
26.4439442
20
146.0339687
40
0.3054278
50
8.3378269
51
41.0027955
0
LINE
8
DEFAULT_255_2_778
10
26.6910438
20
145.1807587
11
26.6675438
21
145.1675587
0
LINE
8
DEFAULT_255_2_778
10
26.6675438
20
145.1675587
11
26.6426438
21
145.1572587
0
LINE
8
DEFAULT_255_2_778
10
26.6426438
20
145.1572587
11
26.5905438
21
145.1442587
0
LINE
8
DEFAULT_255_2_778
10
26.5905438
20
145.1442587
11
26.5368438
21
145.1405587
0
LINE
8
DEFAULT_255_2_778
10
26.5368438
20
145.1405587
11
26.4833438
21
145.1445587
0
LINE
8
DEFAULT_255_2_778
10
26.4833438
20
145.1445587
11
26.4569438
21
145.1498587
0
LINE
8
DEFAULT_255_2_778
10
26.4569438
20
145.1498587
11
26.4310438
21
145.1574587
0
LINE
8
DEFAULT_255_2_778
10
26.4310438
20
145.1574587
11
26.4061438
21
145.1677587
0
LINE
8
DEFAULT_255_2_778
10
26.4061438
20
145.1677587
11
26.3823438
21
145.1810587
0
LINE
8
DEFAULT_255_2_778
10
26.2259438
20
145.6959587
11
26.2280438
21
145.9496587
0
LINE
8
DEFAULT_255_2_778
10
26.8466438
20
145.8197587
11
26.8456438
21
145.6091587
0
LINE
8
DEFAULT_255_2_778
10
26.7323438
20
145.2148587
11
26.7326438
21
145.2146587
0
LINE
8
DEFAULT_255_2_778
10
26.6749438
20
146.2343587
11
26.6453438
21
146.2570587
0
LINE
8
DEFAULT_255_2_778
10
26.6453438
20
146.2570587
11
26.6109438
21
146.2724587
0
LINE
8
DEFAULT_255_2_778
10
26.6109438
20
146.2724587
11
26.5741438
21
146.2806587
0
LINE
8
DEFAULT_255_2_778
10
26.5741438
20
146.2806587
11
26.5368438
21
146.2830587
0
LINE
8
DEFAULT_255_2_778
10
26.5368438
20
146.2830587
11
26.4995438
21
146.2806587
0
LINE
8
DEFAULT_255_2_778
10
26.4995438
20
146.2806587
11
26.4627438
21
146.2726587
0
LINE
8
DEFAULT_255_2_778
10
26.4627438
20
146.2726587
11
26.4283438
21
146.2576587
0
LINE
8
DEFAULT_255_2_778
10
26.3143438
20
145.9557587
11
26.3111438
21
145.7543587
0
LINE
8
DEFAULT_255_2_778
10
26.3111438
20
145.7543587
11
26.3143438
21
145.5530587
0
LINE
8
DEFAULT_255_2_778
10
26.7588438
20
145.5575587
11
26.7619438
21
145.7313587
0
LINE
8
DEFAULT_255_2_778
10
26.7619438
20
145.7313587
11
26.7606438
21
145.9051587
0
LINE
8
DEFAULT_255_2_778
10
26.6744438
20
146.2343587
11
26.6749438
21
146.2343587
0
ARC
8
DEFAULT_255_2_778
10
16.3020741
20
140.8409782
40
0.3242869
50
98.9887284
51
129.7281594
0
ARC
8
DEFAULT_255_2_778
10
16.34021
20
140.6414171
40
0.5273954
50
89.9892621
51
99.693602
0
ARC
8
DEFAULT_255_2_778
10
16.340606
20
140.8148703
40
0.3539423
50
89.8555246
51
90.0481152
0
ARC
8
DEFAULT_255_2_778
10
16.3402445
20
140.6354393
40
0.5333734
50
80.8885075
51
89.865295
0
ARC
8
DEFAULT_255_2_778
10
16.3849496
20
140.8813595
40
0.2835245
50
64.321307
51
81.9389887
0
ARC
8
DEFAULT_255_2_778
10
16.4087952
20
140.9388208
40
0.2214315
50
40.9621784
51
63.4392457
0
ARC
8
DEFAULT_255_2_778
10
16.2924893
20
140.8568692
40
0.3632672
50
11.2248224
51
38.6966042
0
ARC
8
DEFAULT_255_2_778
10
16.1694282
20
140.8175119
40
0.4044321
50
12.7374476
51
22.7457547
0
ARC
8
DEFAULT_255_2_778
10
16.3712374
20
140.9044062
40
0.1847327
50
22.0917988
51
33.6547233
0
ARC
8
DEFAULT_255_2_778
10
16.4084042
20
140.9265949
40
0.1415146
50
34.5161607
51
50.5582626
0
ARC
8
DEFAULT_255_2_778
10
16.3484168
20
140.746113
40
0.3339764
50
75.1151997
51
90.0173388
0
ARC
8
DEFAULT_255_2_778
10
16.3482773
20
140.7435643
40
0.336525
50
89.99345
51
91.442197
0
ARC
8
DEFAULT_255_2_778
10
16.3336754
20
140.5929083
40
0.4871129
50
89.2787005
51
90.0017632
0
ARC
8
DEFAULT_255_2_778
10
16.3333879
20
140.6018517
40
0.4781697
50
89.9673517
51
100.651261
0
ARC
8
DEFAULT_255_2_778
10
16.281304
20
140.8525644
40
0.2222027
50
99.4013223
51
124.0443055
0
ARC
8
DEFAULT_255_2_778
10
16.2792587
20
140.8745776
40
0.2030957
50
127.0442434
51
154.0709926
0
ARC
8
DEFAULT_255_2_778
10
16.542551
20
140.7542993
40
0.4925255
50
154.8801879
51
173.9876408
0
ARC
8
DEFAULT_255_2_778
10
17.3088618
20
140.636259
40
1.267529
50
172.3092343
51
173.4892985
0
ARC
8
DEFAULT_255_2_778
10
17.6534751
20
140.606748
40
1.6132955
50
173.8357344
51
178.869775
0
ARC
8
DEFAULT_255_2_778
10
19.1075293
20
140.5638822
40
3.0679451
50
178.6050193
51
179.4864061
0
ARC
8
DEFAULT_255_2_778
10
17.0088063
20
140.4299476
40
0.9659979
50
181.6470376
51
192.8516809
0
ARC
8
DEFAULT_255_2_778
10
16.3901188
20
140.2990478
40
0.3338429
50
194.5669529
51
227.7624184
0
ARC
8
DEFAULT_255_2_778
10
16.3375996
20
140.2517405
40
0.2636097
50
229.3021204
51
269.6794123
0
ARC
8
DEFAULT_255_2_778
10
16.3420684
20
140.2776814
40
0.2896074
50
268.8239897
51
270.0017994
0
ARC
8
DEFAULT_255_2_778
10
16.342051
20
140.284083
40
0.296009
50
270.0051345
51
270.4367729
0
ARC
8
DEFAULT_255_2_778
10
16.1189834
20
140.9670907
40
1.1093996
50
291.1301071
51
299.8405595
0
ARC
8
DEFAULT_255_2_778
10
16.3483229
20
140.3801072
40
0.4792139
50
272.2612111
51
290.8527552
0
ARC
8
DEFAULT_255_2_778
10
16.3420193
20
140.4439924
40
0.5433112
50
271.1061138
51
272.6596328
0
ARC
8
DEFAULT_255_2_778
10
16.3454293
20
140.3074155
40
0.4066945
50
270.0002489
51
270.9972345
0
ARC
8
DEFAULT_255_2_778
10
16.3453846
20
140.30704
40
0.4063189
50
246.798303
51
270.0065527
0
ARC
8
DEFAULT_255_2_778
10
16.324823
20
140.2327149
40
0.3300678
50
215.1088481
51
244.9956321
0
ARC
8
DEFAULT_255_2_778
10
16.4474933
20
140.3257809
40
0.4839768
50
187.1757463
51
215.7696933
0
ARC
8
DEFAULT_255_2_778
10
16.7647315
20
140.3931902
40
0.8076107
50
188.4594857
51
189.1096513
0
ARC
8
DEFAULT_255_2_778
10
17.7696055
20
140.5065675
40
1.8185809
50
180.0138104
51
187.3351851
0
ARC
8
DEFAULT_255_2_778
10
17.7402437
20
140.5061696
40
1.7892191
50
179.4487826
51
180.0012928
0
ARC
8
DEFAULT_255_2_778
10
16.8380933
20
140.6813418
40
0.8815889
50
165.9688399
51
174.0790872
0
ARC
8
DEFAULT_255_2_778
10
16.3919469
20
140.7981753
40
0.4204594
50
149.4354543
51
166.6746997
0
ARC
8
DEFAULT_255_2_778
10
13.6951037
20
140.776825
40
0.7781106
50
272.8584854
51
280.755056
0
ARC
8
DEFAULT_255_2_778
10
13.8300859
20
140.2578159
40
0.2426056
50
297.6329023
51
331.8562893
0
ARC
8
DEFAULT_255_2_778
10
13.588382
20
140.3954155
40
0.5206872
50
331.0504678
51
346.9430969
0
ARC
8
DEFAULT_255_2_778
10
13.1807865
20
140.4985469
40
0.9410815
50
346.4327962
51
358.2200649
0
ARC
8
DEFAULT_255_2_778
10
12.7980164
20
140.5203693
40
1.324382
50
357.790777
51
0.0298474
0
ARC
8
DEFAULT_255_2_778
10
12.5757589
20
140.520534
40
1.5466394
50
0.0194579
51
1.5838372
0
ARC
8
DEFAULT_255_2_778
10
11.9996712
20
140.5079529
40
2.1228575
50
1.4935137
51
3.431248
0
ARC
8
DEFAULT_255_2_778
10
13.3197666
20
140.602427
40
0.7996205
50
2.3351652
51
17.8237329
0
ARC
8
DEFAULT_255_2_778
10
13.691667
20
140.7158653
40
0.4108896
50
18.6382882
51
38.7735816
0
ARC
8
DEFAULT_255_2_778
10
13.8170952
20
140.8067722
40
0.2562873
50
40.4897251
51
72.8641028
0
ARC
8
DEFAULT_255_2_778
10
13.2260518
20
140.4931991
40
0.982179
50
345.5844296
51
356.0582901
0
ARC
8
DEFAULT_255_2_778
10
13.5810924
20
140.3973817
40
0.6144785
50
329.2369284
51
345.9958409
0
ARC
8
DEFAULT_255_2_778
10
13.841251
20
140.2399541
40
0.3104122
50
296.3868703
51
329.6444125
0
ARC
8
DEFAULT_255_2_778
10
13.8051958
20
140.3270587
40
0.4045165
50
283.5989484
51
295.4784725
0
ARC
8
DEFAULT_255_2_778
10
13.7446374
20
140.5386335
40
0.6213449
50
75.8713624
51
88.231998
0
ARC
8
DEFAULT_255_2_778
10
13.8004695
20
140.7782484
40
0.3753746
50
54.8261497
51
75.2078678
0
ARC
8
DEFAULT_255_2_778
10
13.753314
20
140.7453119
40
0.4299072
50
16.5514994
51
52.2168148
0
ARC
8
DEFAULT_255_2_778
10
13.2422653
20
140.5851175
40
0.9654486
50
1.1849391
51
17.0245294
0
LINE
8
DEFAULT_255_2_778
10
27.6462075
20
145.5543826
11
27.5970075
21
145.7070826
0
LINE
8
DEFAULT_255_2_778
10
27.5970075
20
145.7070826
11
27.5470075
21
145.8594826
0
LINE
8
DEFAULT_255_2_778
10
27.5470075
20
145.8594826
11
27.4975075
21
146.0120826
0
LINE
8
DEFAULT_255_2_778
10
27.4975075
20
146.0120826
11
27.4483075
21
146.1647826
0
LINE
8
DEFAULT_255_2_778
10
27.4483075
20
146.1647826
11
27.4369075
21
146.2002826
0
LINE
8
DEFAULT_255_2_778
10
27.4369075
20
146.2002826
11
27.4279075
21
146.2282826
0
LINE
8
DEFAULT_255_2_778
10
27.4279075
20
146.2282826
11
27.4189075
21
146.2563826
0
LINE
8
DEFAULT_255_2_778
10
27.4189075
20
146.2563826
11
27.4115075
21
146.2343826
0
LINE
8
DEFAULT_255_2_778
10
27.4115075
20
146.2343826
11
27.4041075
21
146.2123826
0
LINE
8
DEFAULT_255_2_778
10
27.4041075
20
146.2123826
11
27.3896075
21
146.1684826
0
LINE
8
DEFAULT_255_2_778
10
27.3896075
20
146.1684826
11
27.3605075
21
146.0806826
0
LINE
8
DEFAULT_255_2_778
10
27.3605075
20
146.0806826
11
27.3308075
21
145.9930826
0
LINE
8
DEFAULT_255_2_778
10
27.3308075
20
145.9930826
11
27.3009075
21
145.9054826
0
LINE
8
DEFAULT_255_2_778
10
27.3009075
20
145.9054826
11
27.2419075
21
145.7300826
0
LINE
8
DEFAULT_255_2_778
10
27.2419075
20
145.7300826
11
27.1832075
21
145.5546826
0
LINE
8
DEFAULT_255_2_778
10
27.1832075
20
145.5546826
11
27.6462075
21
145.5543826
0
LINE
8
DEFAULT_255_2_778
10
27.7825075
20
145.1405826
11
27.7555075
21
145.2225826
0
LINE
8
DEFAULT_255_2_778
10
27.7555075
20
145.2225826
11
27.7483075
21
145.2429826
0
LINE
8
DEFAULT_255_2_778
10
27.7483075
20
145.2429826
11
27.7412075
21
145.2633826
0
LINE
8
DEFAULT_255_2_778
10
27.7412075
20
145.2633826
11
27.7274075
21
145.3043826
0
LINE
8
DEFAULT_255_2_778
10
27.7274075
20
145.3043826
11
27.6748075
21
145.4686826
0
LINE
8
DEFAULT_255_2_778
10
27.6748075
20
145.4686826
11
27.1546075
21
145.4686826
0
LINE
8
DEFAULT_255_2_778
10
27.1546075
20
145.4686826
11
27.0438075
21
145.1408826
0
LINE
8
DEFAULT_255_2_778
10
27.0438075
20
145.1408826
11
26.9631075
21
145.1675826
0
LINE
8
DEFAULT_255_2_778
10
26.9631075
20
145.1675826
11
27.3652075
21
146.3642826
0
LINE
8
DEFAULT_255_2_778
10
27.3652075
20
146.3642826
11
27.4732075
21
146.3642826
0
LINE
8
DEFAULT_255_2_778
10
27.4732075
20
146.3642826
11
27.8653075
21
145.1675826
0
LINE
8
DEFAULT_255_2_778
10
27.8653075
20
145.1675826
11
27.7825075
21
145.1405826
0
LINE
8
DEFAULT_255_2_778
10
16.6488075
20
140.9275826
11
16.5639075
21
140.9066826
0
LINE
8
DEFAULT_255_2_778
10
16.4983075
20
141.0358826
11
16.4678075
21
141.0556826
0
LINE
8
DEFAULT_255_2_778
10
16.4678075
20
141.0556826
11
16.4342075
21
141.0688826
0
LINE
8
DEFAULT_255_2_778
10
16.0397075
20
140.5913826
11
16.0432075
21
140.4021826
0
LINE
8
DEFAULT_255_2_778
10
16.3443075
20
139.9880826
11
16.3959075
21
139.9914826
0
LINE
8
DEFAULT_255_2_778
10
16.3959075
20
139.9914826
11
16.4213075
21
139.9959826
0
LINE
8
DEFAULT_255_2_778
10
16.4213075
20
139.9959826
11
16.4464075
21
140.0018826
0
LINE
8
DEFAULT_255_2_778
10
16.4464075
20
140.0018826
11
16.4712075
21
140.0086826
0
LINE
8
DEFAULT_255_2_778
10
16.4712075
20
140.0086826
11
16.4959075
21
140.0166826
0
LINE
8
DEFAULT_255_2_778
10
16.4959075
20
140.0166826
11
16.5440075
21
140.0354826
0
LINE
8
DEFAULT_255_2_778
10
16.5440075
20
140.0354826
11
16.5845075
21
140.0549826
0
LINE
8
DEFAULT_255_2_778
10
16.5845075
20
140.0549826
11
16.5845075
21
140.5225826
0
LINE
8
DEFAULT_255_2_778
10
16.5845075
20
140.5225826
11
16.3644075
21
140.5225826
0
LINE
8
DEFAULT_255_2_778
10
16.3644075
20
140.5225826
11
16.3644075
21
140.6090826
0
LINE
8
DEFAULT_255_2_778
10
16.3644075
20
140.6090826
11
16.6710075
21
140.6090826
0
LINE
8
DEFAULT_255_2_778
10
16.6710075
20
140.6090826
11
16.6710075
21
140.0047826
0
LINE
8
DEFAULT_255_2_778
10
15.9511075
20
140.5233826
11
15.9612075
21
140.7722826
0
LINE
8
DEFAULT_255_2_778
10
16.0299075
20
141.0119826
11
16.0596075
21
141.0532826
0
LINE
8
DEFAULT_255_2_778
10
16.0596075
20
141.0532826
11
16.0948075
21
141.0897826
0
LINE
8
DEFAULT_255_2_778
10
14.5573075
20
141.1543826
11
14.5573075
21
139.9097826
0
LINE
8
DEFAULT_255_2_778
10
14.5573075
20
139.9097826
11
14.4708075
21
139.9097826
0
LINE
8
DEFAULT_255_2_778
10
14.4708075
20
139.9097826
11
14.4708075
21
141.1543826
0
LINE
8
DEFAULT_255_2_778
10
14.4708075
20
141.1543826
11
14.5573075
21
141.1543826
0
LINE
8
DEFAULT_255_2_778
10
13.5844075
20
139.9996826
11
13.6217075
21
139.9981826
0
LINE
8
DEFAULT_255_2_778
10
13.6217075
20
139.9981826
11
13.6590075
21
139.9981826
0
LINE
8
DEFAULT_255_2_778
10
13.6590075
20
139.9981826
11
13.6778075
21
139.9981826
0
LINE
8
DEFAULT_255_2_778
10
13.6778075
20
139.9981826
11
13.6966075
21
139.9983826
0
LINE
8
DEFAULT_255_2_778
10
13.6966075
20
139.9983826
11
13.7339075
21
139.9996826
0
LINE
8
DEFAULT_255_2_778
10
13.8403075
20
140.0123826
11
13.8664075
21
140.0179826
0
LINE
8
DEFAULT_255_2_778
10
13.8664075
20
140.0179826
11
13.8924075
21
140.0245826
0
LINE
8
DEFAULT_255_2_778
10
13.8924075
20
140.0245826
11
13.9426075
21
140.0428826
0
LINE
8
DEFAULT_255_2_778
10
13.8926075
20
141.0516826
11
13.8508075
21
141.0627826
0
LINE
8
DEFAULT_255_2_778
10
13.8508075
20
141.0627826
11
13.8294075
21
141.0662826
0
LINE
8
DEFAULT_255_2_778
10
13.8294075
20
141.0662826
11
13.8077075
21
141.0686826
0
LINE
8
DEFAULT_255_2_778
10
13.8077075
20
141.0686826
11
13.7209075
21
141.0725826
0
LINE
8
DEFAULT_255_2_778
10
13.7209075
20
141.0725826
11
13.5844075
21
141.0725826
0
LINE
8
DEFAULT_255_2_778
10
13.5844075
20
141.0725826
11
13.5844075
21
139.9996826
0
LINE
8
DEFAULT_255_2_778
10
14.2078075
20
140.6053826
11
14.2059075
21
140.4256826
0
LINE
8
DEFAULT_255_2_778
10
13.9003075
20
139.9338826
11
13.8180075
21
139.9176826
0
LINE
8
DEFAULT_255_2_778
10
13.8180075
20
139.9176826
11
13.7355075
21
139.9092826
0
LINE
8
DEFAULT_255_2_778
10
13.7355075
20
139.9092826
11
13.6939075
21
139.9073826
0
LINE
8
DEFAULT_255_2_778
10
13.6939075
20
139.9073826
11
13.6524075
21
139.9068826
0
LINE
8
DEFAULT_255_2_778
10
13.6524075
20
139.9068826
11
13.6109075
21
139.9076826
0
LINE
8
DEFAULT_255_2_778
10
13.6109075
20
139.9076826
11
13.5693075
21
139.9102826
0
LINE
8
DEFAULT_255_2_778
10
13.5693075
20
139.9102826
11
13.5497075
21
139.9118826
0
LINE
8
DEFAULT_255_2_778
10
13.5497075
20
139.9118826
11
13.5302075
21
139.9137826
0
LINE
8
DEFAULT_255_2_778
10
13.5302075
20
139.9137826
11
13.4955075
21
139.9168826
0
LINE
8
DEFAULT_255_2_778
10
13.4955075
20
139.9168826
11
13.4955075
21
141.1601826
0
LINE
8
DEFAULT_255_2_778
10
13.4955075
20
141.1601826
11
13.6296075
21
141.1612826
0
LINE
8
DEFAULT_255_2_778
10
13.6296075
20
141.1612826
11
13.7638075
21
141.1596826
0
LINE
8
DEFAULT_255_2_778
10
14.2075075
20
140.6050826
11
14.2078075
21
140.6053826
0
LINE
8
DEFAULT_255_2_778
10
15.5337531
20
140.3267114
11
15.4832531
21
140.4836114
0
LINE
8
DEFAULT_255_2_778
10
15.4832531
20
140.4836114
11
15.4319531
21
140.6402114
0
LINE
8
DEFAULT_255_2_778
10
15.4319531
20
140.6402114
11
15.3811531
21
140.7971114
0
LINE
8
DEFAULT_255_2_778
10
15.3811531
20
140.7971114
11
15.3305531
21
140.9540114
0
LINE
8
DEFAULT_255_2_778
10
15.3305531
20
140.9540114
11
15.3189531
21
140.9905114
0
LINE
8
DEFAULT_255_2_778
10
15.3189531
20
140.9905114
11
15.3096531
21
141.0194114
0
LINE
8
DEFAULT_255_2_778
10
15.3096531
20
141.0194114
11
15.3004531
21
141.0482114
0
LINE
8
DEFAULT_255_2_778
10
15.3004531
20
141.0482114
11
15.2927531
21
141.0257114
0
LINE
8
DEFAULT_255_2_778
10
15.2927531
20
141.0257114
11
15.2853531
21
141.0032114
0
LINE
8
DEFAULT_255_2_778
10
15.2853531
20
141.0032114
11
15.2702531
21
140.9580114
0
LINE
8
DEFAULT_255_2_778
10
15.2702531
20
140.9580114
11
15.2403531
21
140.8678114
0
LINE
8
DEFAULT_255_2_778
10
15.2403531
20
140.8678114
11
15.2099531
21
140.7775114
0
LINE
8
DEFAULT_255_2_778
10
15.2099531
20
140.7775114
11
15.1792531
21
140.6873114
0
LINE
8
DEFAULT_255_2_778
10
15.1792531
20
140.6873114
11
15.1183531
21
140.5069114
0
LINE
8
DEFAULT_255_2_778
10
15.1183531
20
140.5069114
11
15.0577531
21
140.3264114
0
LINE
8
DEFAULT_255_2_778
10
15.0577531
20
140.3264114
11
15.5337531
21
140.3267114
0
LINE
8
DEFAULT_255_2_778
10
15.6740531
20
139.9010114
11
15.6462531
21
139.9854114
0
LINE
8
DEFAULT_255_2_778
10
15.6462531
20
139.9854114
11
15.6388531
21
140.0063114
0
LINE
8
DEFAULT_255_2_778
10
15.6388531
20
140.0063114
11
15.6316531
21
140.0272114
0
LINE
8
DEFAULT_255_2_778
10
15.6316531
20
140.0272114
11
15.6176531
21
140.0693114
0
LINE
8
DEFAULT_255_2_778
10
15.6176531
20
140.0693114
11
15.5634531
21
140.2383114
0
LINE
8
DEFAULT_255_2_778
10
15.5634531
20
140.2383114
11
15.0281531
21
140.2383114
0
LINE
8
DEFAULT_255_2_778
10
15.0281531
20
140.2383114
11
14.9141531
21
139.9010114
0
LINE
8
DEFAULT_255_2_778
10
14.9141531
20
139.9010114
11
14.8310531
21
139.9285114
0
LINE
8
DEFAULT_255_2_778
10
14.8310531
20
139.9285114
11
15.2448531
21
141.1596114
0
LINE
8
DEFAULT_255_2_778
10
15.2448531
20
141.1596114
11
15.3557531
21
141.1596114
0
LINE
8
DEFAULT_255_2_778
10
15.3557531
20
141.1596114
11
15.7589531
21
139.9285114
0
LINE
8
DEFAULT_255_2_778
10
15.7589531
20
139.9285114
11
15.6740531
21
139.9010114
0
LINE
8
DEFAULT_255_2_778
10
13.6899792
20
131.1070614
11
13.5851792
21
131.1070614
0
LINE
8
DEFAULT_255_2_778
10
13.5851792
20
131.1070614
11
13.3737792
21
130.8924614
0
LINE
8
DEFAULT_255_2_778
10
13.3737792
20
130.8924614
11
13.3838792
21
130.8959614
0
LINE
8
DEFAULT_255_2_778
10
13.3838792
20
130.8959614
11
13.3888792
21
130.8109614
0
LINE
8
DEFAULT_255_2_778
10
13.3888792
20
130.8109614
11
13.5205792
21
130.9128614
0
LINE
8
DEFAULT_255_2_778
10
13.5205792
20
130.9128614
11
13.6068792
21
131.0038614
0
LINE
8
DEFAULT_255_2_778
10
13.6068792
20
131.0038614
11
13.6068792
21
129.9119614
0
LINE
8
DEFAULT_255_2_778
10
13.6068792
20
129.9119614
11
13.6901792
21
129.9119614
0
LINE
8
DEFAULT_255_2_778
10
13.6901792
20
129.9119614
11
13.6901792
21
131.1070614
0
LINE
8
DEFAULT_255_2_778
10
12.3152011
20
129.9352927
11
12.3885011
21
129.8936927
0
LINE
8
DEFAULT_255_2_778
10
12.3885011
20
129.8936927
11
12.7015011
21
130.4445927
0
LINE
8
DEFAULT_255_2_778
10
12.7015011
20
130.4445927
11
13.0211011
21
129.8936927
0
LINE
8
DEFAULT_255_2_778
10
13.0211011
20
129.8936927
11
13.0944011
21
129.9352927
0
LINE
8
DEFAULT_255_2_778
10
13.0944011
20
129.9352927
11
12.7499011
21
130.5276927
0
LINE
8
DEFAULT_255_2_778
10
12.7499011
20
130.5276927
11
13.0695011
21
131.0901927
0
LINE
8
DEFAULT_255_2_778
10
13.0695011
20
131.0901927
11
12.9946011
21
131.1316927
0
LINE
8
DEFAULT_255_2_778
10
12.9946011
20
131.1316927
11
12.7002011
21
130.6122927
0
LINE
8
DEFAULT_255_2_778
10
12.7002011
20
130.6122927
11
12.4007011
21
131.1316927
0
LINE
8
DEFAULT_255_2_778
10
12.4007011
20
131.1316927
11
12.3292011
21
131.0901927
0
LINE
8
DEFAULT_255_2_778
10
12.3292011
20
131.0901927
11
12.6539011
21
130.5291927
0
LINE
8
DEFAULT_255_2_778
10
12.6539011
20
130.5291927
11
12.3160011
21
129.9349927
0
LINE
8
DEFAULT_255_2_778
10
14.0557906
20
130.6593989
11
14.0581906
21
130.7231989
0
LINE
8
DEFAULT_255_2_778
10
14.0581906
20
130.7231989
11
14.0623906
21
130.7760989
0
LINE
8
DEFAULT_255_2_778
10
14.0623906
20
130.7760989
11
14.0695906
21
130.8287989
0
LINE
8
DEFAULT_255_2_778
10
14.0695906
20
130.8287989
11
14.0814906
21
130.8805989
0
LINE
8
DEFAULT_255_2_778
10
14.0814906
20
130.8805989
11
14.1004906
21
130.9303989
0
LINE
8
DEFAULT_255_2_778
10
14.1004906
20
130.9303989
11
14.1838906
21
131.0170989
0
LINE
8
DEFAULT_255_2_778
10
14.1838906
20
131.0170989
11
14.3145906
21
131.0326989
0
LINE
8
DEFAULT_255_2_778
10
14.3145906
20
131.0326989
11
14.4248906
21
130.9744989
0
LINE
8
DEFAULT_255_2_778
10
14.4248906
20
130.9744989
11
14.4624906
21
130.9104989
0
LINE
8
DEFAULT_255_2_778
10
14.4624906
20
130.9104989
11
14.4812906
21
130.8496989
0
LINE
8
DEFAULT_255_2_778
10
14.4812906
20
130.8496989
11
14.4902906
21
130.7972989
0
LINE
8
DEFAULT_255_2_778
10
14.4902906
20
130.7972989
11
14.4960906
21
130.7337989
0
LINE
8
DEFAULT_255_2_778
10
14.4960906
20
130.7337989
11
14.4939906
21
130.2696989
0
LINE
8
DEFAULT_255_2_778
10
14.4939906
20
130.2696989
11
14.4875906
21
130.2169989
0
LINE
8
DEFAULT_255_2_778
10
14.4875906
20
130.2169989
11
14.4743906
21
130.1548989
0
LINE
8
DEFAULT_255_2_778
10
14.4743906
20
130.1548989
11
14.4523906
21
130.0952989
0
LINE
8
DEFAULT_255_2_778
10
14.4523906
20
130.0952989
11
14.3748906
21
130.0106989
0
LINE
8
DEFAULT_255_2_778
10
14.3748906
20
130.0106989
11
14.2399906
21
129.9923989
0
LINE
8
DEFAULT_255_2_778
10
14.2399906
20
129.9923989
11
14.1235906
21
130.0587989
0
LINE
8
DEFAULT_255_2_778
10
14.1235906
20
130.0587989
11
14.0933906
21
130.1145989
0
LINE
8
DEFAULT_255_2_778
10
14.0933906
20
130.1145989
11
14.0732906
21
130.1857989
0
LINE
8
DEFAULT_255_2_778
10
14.0732906
20
130.1857989
11
14.0634906
21
130.2484989
0
LINE
8
DEFAULT_255_2_778
10
14.0634906
20
130.2484989
11
14.0586906
21
130.3011989
0
LINE
8
DEFAULT_255_2_778
10
14.0586906
20
130.3011989
11
14.0563906
21
130.3540989
0
LINE
8
DEFAULT_255_2_778
10
14.0563906
20
130.3540989
11
14.0557906
21
130.6593989
0
LINE
8
DEFAULT_255_2_778
10
14.5825906
20
130.3744989
11
14.5801906
21
130.7268989
0
LINE
8
DEFAULT_255_2_778
10
14.5801906
20
130.7268989
11
14.5775906
21
130.7654989
0
LINE
8
DEFAULT_255_2_778
10
14.5775906
20
130.7654989
11
14.5719906
21
130.8165989
0
LINE
8
DEFAULT_255_2_778
10
14.5719906
20
130.8165989
11
14.5632906
21
130.8673989
0
LINE
8
DEFAULT_255_2_778
10
14.5632906
20
130.8673989
11
14.5457906
21
130.9292989
0
LINE
8
DEFAULT_255_2_778
10
14.5457906
20
130.9292989
11
14.5193906
21
130.9877989
0
LINE
8
DEFAULT_255_2_778
10
14.5193906
20
130.9877989
11
14.4719906
21
131.0485989
0
LINE
8
DEFAULT_255_2_778
10
14.4719906
20
131.0485989
11
14.3970906
21
131.0983989
0
LINE
8
DEFAULT_255_2_778
10
14.3970906
20
131.0983989
11
14.2449906
21
131.1189989
0
LINE
8
DEFAULT_255_2_778
10
14.2449906
20
131.1189989
11
14.1124906
21
131.0734989
0
LINE
8
DEFAULT_255_2_778
10
14.1124906
20
131.0734989
11
14.0491906
21
131.0094989
0
LINE
8
DEFAULT_255_2_778
10
14.0491906
20
131.0094989
11
14.0179906
21
130.9530989
0
LINE
8
DEFAULT_255_2_778
10
14.0179906
20
130.9530989
11
13.9938906
21
130.8797989
0
LINE
8
DEFAULT_255_2_778
10
13.9938906
20
130.8797989
11
13.9814906
21
130.8165989
0
LINE
8
DEFAULT_255_2_778
10
13.9814906
20
130.8165989
11
13.9753906
21
130.7654989
0
LINE
8
DEFAULT_255_2_778
10
13.9753906
20
130.7654989
11
13.9766906
21
130.2463989
0
LINE
8
DEFAULT_255_2_778
10
13.9766906
20
130.2463989
11
13.9835906
21
130.1955989
0
LINE
8
DEFAULT_255_2_778
10
13.9835906
20
130.1955989
11
13.9970906
21
130.1328989
0
LINE
8
DEFAULT_255_2_778
10
13.9970906
20
130.1328989
11
14.0176906
21
130.0722989
0
LINE
8
DEFAULT_255_2_778
10
14.0176906
20
130.0722989
11
14.0491906
21
130.0164989
0
LINE
8
DEFAULT_255_2_778
10
14.0491906
20
130.0164989
11
14.1687906
21
129.9227989
0
LINE
8
DEFAULT_255_2_778
10
14.1687906
20
129.9227989
11
14.3208906
21
129.9079989
0
LINE
8
DEFAULT_255_2_778
10
14.3208906
20
129.9079989
11
14.4399906
21
129.9526989
0
LINE
8
DEFAULT_255_2_778
10
14.4399906
20
129.9526989
11
14.5023906
21
130.0166989
0
LINE
8
DEFAULT_255_2_778
10
14.5023906
20
130.0166989
11
14.5386906
21
130.0844989
0
LINE
8
DEFAULT_255_2_778
10
14.5386906
20
130.0844989
11
14.5582906
21
130.1455989
0
LINE
8
DEFAULT_255_2_778
10
14.5582906
20
130.1455989
11
14.5706906
21
130.2085989
0
LINE
8
DEFAULT_255_2_778
10
14.5706906
20
130.2085989
11
14.5767906
21
130.2593989
0
LINE
8
DEFAULT_255_2_778
10
14.5767906
20
130.2593989
11
14.5796906
21
130.2976989
0
LINE
8
DEFAULT_255_2_778
10
14.5796906
20
130.2976989
11
14.5825906
21
130.3744989
0
LINE
8
DEFAULT_255_2_778
10
17.5562792
20
131.1070614
11
17.4514792
21
131.1070614
0
LINE
8
DEFAULT_255_2_778
10
17.4514792
20
131.1070614
11
17.2400792
21
130.8924614
0
LINE
8
DEFAULT_255_2_778
10
17.2400792
20
130.8924614
11
17.2501792
21
130.8959614
0
LINE
8
DEFAULT_255_2_778
10
17.2501792
20
130.8959614
11
17.2551792
21
130.8109614
0
LINE
8
DEFAULT_255_2_778
10
17.2551792
20
130.8109614
11
17.3869792
21
130.9128614
0
LINE
8
DEFAULT_255_2_778
10
17.3869792
20
130.9128614
11
17.4731792
21
131.0038614
0
LINE
8
DEFAULT_255_2_778
10
17.4731792
20
131.0038614
11
17.4731792
21
129.9119614
0
LINE
8
DEFAULT_255_2_778
10
17.4731792
20
129.9119614
11
17.5564792
21
129.9119614
0
LINE
8
DEFAULT_255_2_778
10
17.5564792
20
129.9119614
11
17.5564792
21
131.1070614
0
LINE
8
DEFAULT_255_2_778
10
16.8122792
20
131.1070614
11
16.7074792
21
131.1070614
0
LINE
8
DEFAULT_255_2_778
10
16.7074792
20
131.1070614
11
16.4960792
21
130.8924614
0
LINE
8
DEFAULT_255_2_778
10
16.4960792
20
130.8924614
11
16.5061792
21
130.8959614
0
LINE
8
DEFAULT_255_2_778
10
16.5061792
20
130.8959614
11
16.5111792
21
130.8109614
0
LINE
8
DEFAULT_255_2_778
10
16.5111792
20
130.8109614
11
16.6428792
21
130.9128614
0
LINE
8
DEFAULT_255_2_778
10
16.6428792
20
130.9128614
11
16.7291792
21
131.0038614
0
LINE
8
DEFAULT_255_2_778
10
16.7291792
20
131.0038614
11
16.7291792
21
129.9119614
0
LINE
8
DEFAULT_255_2_778
10
16.7291792
20
129.9119614
11
16.8124792
21
129.9119614
0
LINE
8
DEFAULT_255_2_778
10
16.8124792
20
129.9119614
11
16.8124792
21
131.1070614
0
LINE
8
DEFAULT_255_2_778
10
15.4375011
20
129.9352927
11
15.5108011
21
129.8936927
0
LINE
8
DEFAULT_255_2_778
10
15.5108011
20
129.8936927
11
15.8238011
21
130.4445927
0
LINE
8
DEFAULT_255_2_778
10
15.8238011
20
130.4445927
11
16.1434011
21
129.8936927
0
LINE
8
DEFAULT_255_2_778
10
16.1434011
20
129.8936927
11
16.2167011
21
129.9352927
0
LINE
8
DEFAULT_255_2_778
10
16.2167011
20
129.9352927
11
15.8722011
21
130.5276927
0
LINE
8
DEFAULT_255_2_778
10
15.8722011
20
130.5276927
11
16.1918011
21
131.0901927
0
LINE
8
DEFAULT_255_2_778
10
16.1918011
20
131.0901927
11
16.1169011
21
131.1316927
0
LINE
8
DEFAULT_255_2_778
10
16.1169011
20
131.1316927
11
15.8225011
21
130.6122927
0
LINE
8
DEFAULT_255_2_778
10
15.8225011
20
130.6122927
11
15.5230011
21
131.1316927
0
LINE
8
DEFAULT_255_2_778
10
15.5230011
20
131.1316927
11
15.4515011
21
131.0901927
0
LINE
8
DEFAULT_255_2_778
10
15.4515011
20
131.0901927
11
15.7762011
21
130.5291927
0
LINE
8
DEFAULT_255_2_778
10
15.7762011
20
130.5291927
11
15.4383011
21
129.9349927
0
ARC
8
DEFAULT_255_2_778
10
14.2262914
20
107.8495377
40
0.275035
50
119.5243645
51
154.4965503
0
ARC
8
DEFAULT_255_2_778
10
14.2214066
20
107.8320651
40
0.2881187
50
91.4295287
51
116.9659803
0
ARC
8
DEFAULT_255_2_778
10
14.2304789
20
107.7382084
40
0.3822317
50
89.9889455
51
92.438093
0
ARC
8
DEFAULT_255_2_778
10
14.2304211
20
107.7137941
40
0.4066459
50
86.6821206
51
89.9814602
0
ARC
8
DEFAULT_255_2_778
10
14.2338425
20
107.7582557
40
0.3620617
50
83.7046278
51
86.8154353
0
ARC
8
DEFAULT_255_2_778
10
14.2465677
20
107.8275099
40
0.2918735
50
55.3642991
51
84.6968827
0
ARC
8
DEFAULT_255_2_778
10
14.2676601
20
107.8733361
40
0.2423364
50
13.341975
51
53.3090085
0
ARC
8
DEFAULT_255_2_778
10
14.1116512
20
107.8338347
40
0.4032575
50
0.9269351
51
13.687846
0
ARC
8
DEFAULT_255_2_778
10
14.0996585
20
107.827108
40
0.4147914
50
349.4634814
51
355.6516361
0
ARC
8
DEFAULT_255_2_778
10
14.1054482
20
107.8195646
40
0.4077695
50
339.3645639
51
350.3568004
0
ARC
8
DEFAULT_255_2_778
10
13.8150508
20
107.9492011
40
0.7254703
50
322.3899699
51
337.86562
0
ARC
8
DEFAULT_255_2_778
10
13.9841309
20
107.8634425
40
0.453331
50
327.1231126
51
339.3211916
0
ARC
8
DEFAULT_255_2_778
10
14.004015
20
107.8411773
40
0.4270888
50
341.1740739
51
349.8016215
0
ARC
8
DEFAULT_255_2_778
10
14.1073882
20
107.8290704
40
0.3232682
50
348.6694686
51
355.491333
0
ARC
8
DEFAULT_255_2_778
10
14.1275393
20
107.8365745
40
0.3034609
50
0.97879
51
4.5804097
0
ARC
8
DEFAULT_255_2_778
10
14.0215406
20
107.8280857
40
0.4097988
50
4.5799756
51
7.2579595
0
ARC
8
DEFAULT_255_2_778
10
14.2618066
20
107.8726153
40
0.1636101
50
29.2498756
51
42.6948985
0
ARC
8
DEFAULT_255_2_778
10
16.7906955
20
105.8166152
40
1.8881917
50
62.6715942
51
62.7770748
0
ARC
8
DEFAULT_255_2_778
10
17.4869625
20
107.1181339
40
0.4128232
50
43.4915183
51
65.5933019
0
ARC
8
DEFAULT_255_2_778
10
17.5811522
20
107.2352775
40
0.264636
50
3.9610974
51
39.1226839
0
ARC
8
DEFAULT_255_2_778
10
17.2683608
20
107.2108321
40
0.5783754
50
2.0925923
51
4.2364578
0
ARC
8
DEFAULT_255_2_778
10
17.2701624
20
107.2109006
40
0.5765726
50
359.9929057
51
2.0923242
0
ARC
8
DEFAULT_255_2_778
10
17.2749849
20
107.210788
40
0.5717499
50
348.0557029
51
0.0041324
0
ARC
8
DEFAULT_255_2_778
10
17.4599121
20
107.162461
40
0.3809311
50
325.0533181
51
349.410726
0
ARC
8
DEFAULT_255_2_778
10
17.5415012
20
107.1131921
40
0.2859025
50
291.3215712
51
323.7805821
0
ARC
8
DEFAULT_255_2_778
10
17.5030394
20
107.2364343
40
0.4147915
50
269.9774218
51
290.0807967
0
ARC
8
DEFAULT_255_2_778
10
17.5028755
20
107.2388489
40
0.4172058
50
267.771972
51
270.0000607
0
ARC
8
DEFAULT_255_2_778
10
17.4949506
20
107.2316895
40
0.4098151
50
265.8114972
51
268.8402494
0
ARC
8
DEFAULT_255_2_778
10
17.4822031
20
107.1325681
40
0.3100758
50
240.8902005
51
266.8230114
0
ARC
8
DEFAULT_255_2_778
10
17.4421979
20
107.0527254
40
0.2208904
50
218.8853358
51
239.8810844
0
ARC
8
DEFAULT_255_2_778
10
17.5129662
20
107.103095
40
0.3076412
50
202.8446255
51
217.913502
0
ARC
8
DEFAULT_255_2_778
10
17.485346
20
107.0934325
40
0.1884581
50
202.5179126
51
229.0199765
0
ARC
8
DEFAULT_255_2_778
10
17.4655265
20
107.0842734
40
0.1687838
50
232.0616071
51
261.6980671
0
ARC
8
DEFAULT_255_2_778
10
17.4981574
20
107.2658094
40
0.3531813
50
260.7121671
51
270.01616
0
ARC
8
DEFAULT_255_2_778
10
17.4982488
20
107.2711921
40
0.3585641
50
270.0013115
51
271.965697
0
ARC
8
DEFAULT_255_2_778
10
17.498143
20
107.2739605
40
0.3613344
50
271.9673935
51
274.732727
0
ARC
8
DEFAULT_255_2_778
10
17.5114943
20
107.1966583
40
0.2832787
50
273.3313857
51
290.9228006
0
ARC
8
DEFAULT_255_2_778
10
17.5421048
20
107.1121855
40
0.1934509
50
291.3889715
51
317.2045564
0
ARC
8
DEFAULT_255_2_778
10
17.5081261
20
107.1357135
40
0.2344406
50
318.6271085
51
339.877262
0
ARC
8
DEFAULT_255_2_778
10
17.2891213
20
107.2109
40
0.4659677
50
340.4610553
51
359.476605
0
ARC
8
DEFAULT_255_2_778
10
16.9187288
20
107.2329999
40
0.8367561
50
358.1949826
51
359.5246796
0
ARC
8
DEFAULT_255_2_778
10
17.5621703
20
107.2298199
40
0.1933223
50
358.885082
51
359.996554
0
ARC
8
DEFAULT_255_2_778
10
17.5624704
20
107.2297274
40
0.1930221
50
0.0240299
51
26.2034955
0
ARC
8
DEFAULT_255_2_778
10
17.5558141
20
107.2203804
40
0.2031946
50
27.7396528
51
53.6132115
0
ARC
8
DEFAULT_255_2_778
10
17.4606214
20
107.0692152
40
0.3815817
50
55.5720724
51
83.1313812
0
ARC
8
DEFAULT_255_2_778
10
17.5599863
20
107.7563768
40
0.1870523
50
304.2483881
51
333.6859928
0
ARC
8
DEFAULT_255_2_778
10
17.5450002
20
107.7532996
40
0.1993433
50
336.3892082
51
0.9427003
0
ARC
8
DEFAULT_255_2_778
10
17.3573729
20
107.7632911
40
0.3870018
50
359.0062591
51
0.0116129
0
ARC
8
DEFAULT_255_2_778
10
17.3122574
20
107.7633272
40
0.4321172
50
0.0056137
51
0.5344997
0
ARC
8
DEFAULT_255_2_778
10
17.0919835
20
107.7597278
40
0.652417
50
0.670136
51
2.7937467
0
ARC
8
DEFAULT_255_2_778
10
17.4385356
20
107.7903677
40
0.3050917
50
0.2177324
51
31.8266881
0
ARC
8
DEFAULT_255_2_778
10
17.549524
20
107.8503845
40
0.1792993
50
34.2358167
51
64.9799805
0
ARC
8
DEFAULT_255_2_778
10
17.5240435
20
107.7852755
40
0.2491147
50
66.0029427
51
86.7981578
0
ARC
8
DEFAULT_255_2_778
10
17.5160167
20
107.7156083
40
0.3191483
50
86.0579301
51
87.137292
0
ARC
8
DEFAULT_255_2_778
10
17.5124778
20
107.6706662
40
0.3642133
50
86.9343684
51
89.9821388
0
ARC
8
DEFAULT_255_2_778
10
17.5125125
20
107.693221
40
0.3416585
50
89.986773
51
92.5200119
0
ARC
8
DEFAULT_255_2_778
10
17.4979458
20
107.8116139
40
0.2229355
50
90.1170381
51
130.8065369
0
ARC
8
DEFAULT_255_2_778
10
17.4826462
20
107.840365
40
0.2825136
50
126.5365205
51
154.1245924
0
ARC
8
DEFAULT_255_2_778
10
17.4860702
20
107.8215356
40
0.2998004
50
98.9835804
51
124.919739
0
ARC
8
DEFAULT_255_2_778
10
17.5118947
20
107.6894058
40
0.4343692
50
90.0664416
51
99.6267041
0
LINE
8
DEFAULT_255_2_778
10
17.511391
20
108.1237748
11
17.5119216
21
108.1237751
0
ARC
8
DEFAULT_255_2_778
10
17.5118797
20
107.6866625
40
0.4371126
50
81.7561214
51
89.9945062
0
ARC
8
DEFAULT_255_2_778
10
17.5361022
20
107.8164505
40
0.3052397
50
57.1770045
51
82.7627119
0
ARC
8
DEFAULT_255_2_778
10
17.5482161
20
107.8475328
40
0.2726348
50
27.0830239
51
55.7755305
0
ARC
8
DEFAULT_255_2_778
10
17.4376962
20
107.7960016
40
0.3945222
50
6.6601625
51
26.4386456
0
ARC
8
DEFAULT_255_2_778
10
17.2086508
20
107.758625
40
0.6264458
50
0.8332592
51
7.6260058
0
ARC
8
DEFAULT_255_2_778
10
17.3281735
20
107.7626807
40
0.506882
50
0.0045785
51
0.5713502
0
ARC
8
DEFAULT_255_2_778
10
17.4055881
20
107.7614602
40
0.4294692
50
352.5746875
51
0.1682256
0
ARC
8
DEFAULT_255_2_778
10
17.5984803
20
107.7371471
40
0.235054
50
319.1034422
51
352.3750694
0
LINE
8
DEFAULT_255_2_778
10
13.5888559
20
108.0057583
11
13.5086559
21
107.9210583
0
LINE
8
DEFAULT_255_2_778
10
13.5086559
20
107.9210583
11
13.4676559
21
107.8798583
0
LINE
8
DEFAULT_255_2_778
10
13.4676559
20
107.8798583
11
13.4464559
21
107.8596583
0
LINE
8
DEFAULT_255_2_778
10
13.4464559
20
107.8596583
11
13.4245559
21
107.8403583
0
LINE
8
DEFAULT_255_2_778
10
13.4245559
20
107.8403583
11
13.4083559
21
107.8282583
0
LINE
8
DEFAULT_255_2_778
10
13.4083559
20
107.8282583
11
13.3999559
21
107.8226583
0
LINE
8
DEFAULT_255_2_778
10
13.3999559
20
107.8226583
11
13.3909559
21
107.8184583
0
LINE
8
DEFAULT_255_2_778
10
13.3909559
20
107.8184583
11
13.3824559
21
107.8160583
0
LINE
8
DEFAULT_255_2_778
10
13.3824559
20
107.8160583
11
13.3737559
21
107.8149583
0
LINE
8
DEFAULT_255_2_778
10
13.3737559
20
107.8149583
11
13.3686559
21
107.8985583
0
LINE
8
DEFAULT_255_2_778
10
13.3686559
20
107.8985583
11
13.3588559
21
107.8954583
0
LINE
8
DEFAULT_255_2_778
10
13.3588559
20
107.8954583
11
13.3660559
21
107.9004583
0
LINE
8
DEFAULT_255_2_778
10
13.3660559
20
107.9004583
11
13.3729559
21
107.9059583
0
LINE
8
DEFAULT_255_2_778
10
13.3729559
20
107.9059583
11
13.3861559
21
107.9173583
0
LINE
8
DEFAULT_255_2_778
10
13.3861559
20
107.9173583
11
13.4118559
21
107.9409583
0
LINE
8
DEFAULT_255_2_778
10
13.4118559
20
107.9409583
11
13.4366559
21
107.9657583
0
LINE
8
DEFAULT_255_2_778
10
13.4366559
20
107.9657583
11
13.4610559
21
107.9911583
0
LINE
8
DEFAULT_255_2_778
10
13.4610559
20
107.9911583
11
13.4851559
21
108.0165583
0
LINE
8
DEFAULT_255_2_778
10
13.4851559
20
108.0165583
11
13.5089559
21
108.0422583
0
LINE
8
DEFAULT_255_2_778
10
13.5089559
20
108.0422583
11
13.5562559
21
108.0941583
0
LINE
8
DEFAULT_255_2_778
10
13.5562559
20
108.0941583
11
13.5676559
21
108.1073583
0
LINE
8
DEFAULT_255_2_778
10
13.5676559
20
108.1073583
11
13.6711559
21
108.1073583
0
LINE
8
DEFAULT_255_2_778
10
13.6711559
20
108.1073583
11
13.6711559
21
106.9286583
0
LINE
8
DEFAULT_255_2_778
10
13.6711559
20
106.9286583
11
13.5890559
21
106.9286583
0
LINE
8
DEFAULT_255_2_778
10
13.5890559
20
106.9286583
11
13.5890559
21
108.0052583
0
LINE
8
DEFAULT_255_2_778
10
14.5148559
20
107.8403583
11
14.5132559
21
107.7956583
0
LINE
8
DEFAULT_255_2_778
10
14.3897559
20
107.5064583
11
14.2690559
21
107.3519583
0
LINE
8
DEFAULT_255_2_778
10
14.2690559
20
107.3519583
11
14.0158559
21
107.0521583
0
LINE
8
DEFAULT_255_2_778
10
14.0158559
20
107.0521583
11
14.0158559
21
107.0127583
0
LINE
8
DEFAULT_255_2_778
10
14.0158559
20
107.0127583
11
14.5643559
21
107.0127583
0
LINE
8
DEFAULT_255_2_778
10
14.5643559
20
107.0127583
11
14.5643559
21
106.9307583
0
LINE
8
DEFAULT_255_2_778
10
14.5643559
20
106.9307583
11
13.9338559
21
106.9307583
0
LINE
8
DEFAULT_255_2_778
10
13.9338559
20
106.9307583
11
13.9338559
21
107.0815583
0
LINE
8
DEFAULT_255_2_778
10
13.9338559
20
107.0815583
11
13.9436559
21
107.0931583
0
LINE
8
DEFAULT_255_2_778
10
13.9436559
20
107.0931583
11
14.1939559
21
107.3858583
0
LINE
8
DEFAULT_255_2_778
10
14.1939559
20
107.3858583
11
14.3116559
21
107.5376583
0
LINE
8
DEFAULT_255_2_778
10
14.3116559
20
107.5376583
11
14.3648559
21
107.6173583
0
LINE
8
DEFAULT_255_2_778
10
14.4296559
20
107.8036583
11
14.4309559
21
107.8417583
0
LINE
8
DEFAULT_255_2_778
10
14.4280559
20
107.8798583
11
14.4246559
21
107.8988583
0
LINE
8
DEFAULT_255_2_778
10
14.4246559
20
107.8988583
11
14.4198559
21
107.9173583
0
LINE
8
DEFAULT_255_2_778
10
14.4198559
20
107.9173583
11
14.4132559
21
107.9353583
0
LINE
8
DEFAULT_255_2_778
10
14.4132559
20
107.9353583
11
14.4045559
21
107.9525583
0
LINE
8
DEFAULT_255_2_778
10
14.3820559
20
107.9835583
11
14.3680559
21
107.9967583
0
LINE
8
DEFAULT_255_2_778
10
14.3680559
20
107.9967583
11
14.3524559
21
108.0081583
0
LINE
8
DEFAULT_255_2_778
10
14.3524559
20
108.0081583
11
14.3354559
21
108.0173583
0
LINE
8
DEFAULT_255_2_778
10
14.3354559
20
108.0173583
11
14.3174559
21
108.0247583
0
LINE
8
DEFAULT_255_2_778
10
14.3174559
20
108.0247583
11
14.2801559
21
108.0340583
0
LINE
8
DEFAULT_255_2_778
10
14.2801559
20
108.0340583
11
14.2418559
21
108.0377583
0
LINE
8
DEFAULT_255_2_778
10
14.2418559
20
108.0377583
11
14.2034559
21
108.0367583
0
LINE
8
DEFAULT_255_2_778
10
14.2034559
20
108.0367583
11
14.1843559
21
108.0337583
0
LINE
8
DEFAULT_255_2_778
10
14.1843559
20
108.0337583
11
14.1656559
21
108.0290583
0
LINE
8
DEFAULT_255_2_778
10
14.1656559
20
108.0290583
11
14.1301559
21
108.0139583
0
LINE
8
DEFAULT_255_2_778
10
14.1301559
20
108.0139583
11
14.1137559
21
108.0036583
0
LINE
8
DEFAULT_255_2_778
10
14.1137559
20
108.0036583
11
14.0986559
21
107.9914583
0
LINE
8
DEFAULT_255_2_778
10
14.0986559
20
107.9914583
11
14.0851559
21
107.9776583
0
LINE
8
DEFAULT_255_2_778
10
14.0851559
20
107.9776583
11
14.0730559
21
107.9626583
0
LINE
8
DEFAULT_255_2_778
10
14.0730559
20
107.9626583
11
14.0526559
21
107.9295583
0
LINE
8
DEFAULT_255_2_778
10
14.0526559
20
107.9295583
11
13.9788559
21
107.9671583
0
LINE
8
DEFAULT_255_2_778
10
12.3987559
20
108.1319583
11
12.6942559
21
107.6199583
0
LINE
8
DEFAULT_255_2_778
10
12.6942559
20
107.6199583
11
12.9850559
21
108.1319583
0
LINE
8
DEFAULT_255_2_778
10
12.9850559
20
108.1319583
11
13.0588559
21
108.0909583
0
LINE
8
DEFAULT_255_2_778
10
13.0588559
20
108.0909583
11
12.7434559
21
107.5361583
0
LINE
8
DEFAULT_255_2_778
10
12.7434559
20
107.5361583
11
13.0834559
21
106.9516583
0
LINE
8
DEFAULT_255_2_778
10
13.0834559
20
106.9516583
11
13.0109559
21
106.9103583
0
LINE
8
DEFAULT_255_2_778
10
13.0109559
20
106.9103583
11
12.6958559
21
107.4538583
0
LINE
8
DEFAULT_255_2_778
10
12.6958559
20
107.4538583
11
12.3870559
21
106.9103583
0
LINE
8
DEFAULT_255_2_778
10
12.3870559
20
106.9103583
11
12.3148559
21
106.9516583
0
LINE
8
DEFAULT_255_2_778
10
12.3148559
20
106.9516583
11
12.6479559
21
107.5376583
0
LINE
8
DEFAULT_255_2_778
10
12.6479559
20
107.5376583
11
12.3280559
21
108.0906583
0
LINE
8
DEFAULT_255_2_778
10
12.3280559
20
108.0906583
11
12.3984559
21
108.1316583
0
LINE
8
DEFAULT_255_2_778
10
17.7771559
20
107.5826583
11
17.7504559
21
107.5559583
0
LINE
8
DEFAULT_255_2_778
10
17.7504559
20
107.5559583
11
17.7202559
21
107.5329583
0
LINE
8
DEFAULT_255_2_778
10
17.7202559
20
107.5329583
11
17.7041559
21
107.5228583
0
LINE
8
DEFAULT_255_2_778
10
17.7041559
20
107.5228583
11
17.6877559
21
107.5133583
0
LINE
8
DEFAULT_255_2_778
10
17.6877559
20
107.5133583
11
17.6544559
21
107.4956583
0
LINE
8
DEFAULT_255_2_778
10
17.2294559
20
106.9836583
11
17.3112559
21
107.0212583
0
LINE
8
DEFAULT_255_2_778
10
17.5062559
20
107.4480583
11
17.5009559
21
107.5369583
0
LINE
8
DEFAULT_255_2_778
10
17.5009559
20
107.5369583
11
17.5858559
21
107.5630583
0
LINE
8
DEFAULT_255_2_778
10
17.5858559
20
107.5630583
11
17.6268559
21
107.5795583
0
LINE
8
DEFAULT_255_2_778
10
17.6268559
20
107.5795583
11
17.6652559
21
107.6017583
0
LINE
8
DEFAULT_255_2_778
10
17.3522559
20
107.9803583
11
17.3287559
21
107.9533583
0
LINE
8
DEFAULT_255_2_778
10
17.3287559
20
107.9533583
11
17.3104559
21
107.9226583
0
LINE
8
DEFAULT_255_2_778
10
17.3104559
20
107.9226583
11
17.2284559
21
107.9636583
0
LINE
8
DEFAULT_255_2_778
10
16.8172559
20
107.9951583
11
16.7304559
21
107.9036583
0
LINE
8
DEFAULT_255_2_778
10
16.7304559
20
107.9036583
11
16.6860559
21
107.8589583
0
LINE
8
DEFAULT_255_2_778
10
16.6860559
20
107.8589583
11
16.6632559
21
107.8372583
0
LINE
8
DEFAULT_255_2_778
10
16.6632559
20
107.8372583
11
16.6397559
21
107.8163583
0
LINE
8
DEFAULT_255_2_778
10
16.6397559
20
107.8163583
11
16.6222559
21
107.8030583
0
LINE
8
DEFAULT_255_2_778
10
16.6222559
20
107.8030583
11
16.6130559
21
107.7972583
0
LINE
8
DEFAULT_255_2_778
10
16.6130559
20
107.7972583
11
16.6032559
21
107.7927583
0
LINE
8
DEFAULT_255_2_778
10
16.6032559
20
107.7927583
11
16.5939559
21
107.7903583
0
LINE
8
DEFAULT_255_2_778
10
16.5939559
20
107.7903583
11
16.5844559
21
107.7893583
0
LINE
8
DEFAULT_255_2_778
10
16.5844559
20
107.7893583
11
16.5788559
21
107.8798583
0
LINE
8
DEFAULT_255_2_778
10
16.5788559
20
107.8798583
11
16.5680559
21
107.8760583
0
LINE
8
DEFAULT_255_2_778
10
16.5680559
20
107.8760583
11
16.5759559
21
107.8816583
0
LINE
8
DEFAULT_255_2_778
10
16.5759559
20
107.8816583
11
16.5833559
21
107.8877583
0
LINE
8
DEFAULT_255_2_778
10
16.5833559
20
107.8877583
11
16.5976559
21
107.9001583
0
LINE
8
DEFAULT_255_2_778
10
16.5976559
20
107.9001583
11
16.6257559
21
107.9258583
0
LINE
8
DEFAULT_255_2_778
10
16.6257559
20
107.9258583
11
16.6524559
21
107.9525583
0
LINE
8
DEFAULT_255_2_778
10
16.6524559
20
107.9525583
11
16.6786559
21
107.9798583
0
LINE
8
DEFAULT_255_2_778
10
16.6786559
20
107.9798583
11
16.7045559
21
108.0073583
0
LINE
8
DEFAULT_255_2_778
10
16.7045559
20
108.0073583
11
16.7302559
21
108.0351583
0
LINE
8
DEFAULT_255_2_778
10
16.7302559
20
108.0351583
11
16.7812559
21
108.0912583
0
LINE
8
DEFAULT_255_2_778
10
16.7812559
20
108.0912583
11
16.7937559
21
108.1054583
0
LINE
8
DEFAULT_255_2_778
10
16.7937559
20
108.1054583
11
16.9056559
21
108.1054583
0
LINE
8
DEFAULT_255_2_778
10
16.9056559
20
108.1054583
11
16.9056559
21
106.8288583
0
LINE
8
DEFAULT_255_2_778
10
16.9056559
20
106.8288583
11
16.8167559
21
106.8288583
0
LINE
8
DEFAULT_255_2_778
10
16.8167559
20
106.8288583
11
16.8167559
21
107.9951583
0
LINE
8
DEFAULT_255_2_778
10
15.5279559
20
108.1319583
11
15.8480559
21
107.5773583
0
LINE
8
DEFAULT_255_2_778
10
15.8480559
20
107.5773583
11
16.1629559
21
108.1319583
0
LINE
8
DEFAULT_255_2_778
10
16.1629559
20
108.1319583
11
16.2431559
21
108.0877583
0
LINE
8
DEFAULT_255_2_778
10
16.2431559
20
108.0877583
11
15.9015559
21
107.4866583
0
LINE
8
DEFAULT_255_2_778
10
15.9015559
20
107.4866583
11
16.2698559
21
106.8537583
0
LINE
8
DEFAULT_255_2_778
10
16.2698559
20
106.8537583
11
16.1912559
21
106.8090583
0
LINE
8
DEFAULT_255_2_778
10
16.1912559
20
106.8090583
11
15.8499559
21
107.3977583
0
LINE
8
DEFAULT_255_2_778
10
15.8499559
20
107.3977583
11
15.5155559
21
106.8090583
0
LINE
8
DEFAULT_255_2_778
10
15.5155559
20
106.8090583
11
15.4374559
21
106.8537583
0
LINE
8
DEFAULT_255_2_778
10
15.4374559
20
106.8537583
11
15.7983559
21
107.4887583
0
LINE
8
DEFAULT_255_2_778
10
15.7983559
20
107.4887583
11
15.4520559
21
108.0877583
0
LINE
8
DEFAULT_255_2_778
10
15.4520559
20
108.0877583
11
15.5282559
21
108.1319583
0
LINE
8
DEFAULT_255_2_778
10
12.2985011
20
83.9353927
11
12.3718011
21
83.8937927
0
LINE
8
DEFAULT_255_2_778
10
12.3718011
20
83.8937927
11
12.6848011
21
84.4446927
0
LINE
8
DEFAULT_255_2_778
10
12.6848011
20
84.4446927
11
13.0044011
21
83.8937927
0
LINE
8
DEFAULT_255_2_778
10
13.0044011
20
83.8937927
11
13.0777011
21
83.9353927
0
LINE
8
DEFAULT_255_2_778
10
13.0777011
20
83.9353927
11
12.7332011
21
84.5277927
0
LINE
8
DEFAULT_255_2_778
10
12.7332011
20
84.5277927
11
13.0528011
21
85.0902927
0
LINE
8
DEFAULT_255_2_778
10
13.0528011
20
85.0902927
11
12.9779011
21
85.1317927
0
LINE
8
DEFAULT_255_2_778
10
12.9779011
20
85.1317927
11
12.6835011
21
84.6123927
0
LINE
8
DEFAULT_255_2_778
10
12.6835011
20
84.6123927
11
12.3840011
21
85.1317927
0
LINE
8
DEFAULT_255_2_778
10
12.3840011
20
85.1317927
11
12.3125011
21
85.0902927
0
LINE
8
DEFAULT_255_2_778
10
12.3125011
20
85.0902927
11
12.6372011
21
84.5292927
0
LINE
8
DEFAULT_255_2_778
10
12.6372011
20
84.5292927
11
12.2993011
21
83.9350927
0
LINE
8
DEFAULT_255_2_778
10
13.6732792
20
85.1071614
11
13.5684792
21
85.1071614
0
LINE
8
DEFAULT_255_2_778
10
13.5684792
20
85.1071614
11
13.3570792
21
84.8925614
0
LINE
8
DEFAULT_255_2_778
10
13.3570792
20
84.8925614
11
13.3671792
21
84.8960614
0
LINE
8
DEFAULT_255_2_778
10
13.3671792
20
84.8960614
11
13.3721792
21
84.8110614
0
LINE
8
DEFAULT_255_2_778
10
13.3721792
20
84.8110614
11
13.5038792
21
84.9129614
0
LINE
8
DEFAULT_255_2_778
10
13.5038792
20
84.9129614
11
13.5901792
21
85.0039614
0
LINE
8
DEFAULT_255_2_778
10
13.5901792
20
85.0039614
11
13.5901792
21
83.9120614
0
LINE
8
DEFAULT_255_2_778
10
13.5901792
20
83.9120614
11
13.6734792
21
83.9120614
0
LINE
8
DEFAULT_255_2_778
10
13.6734792
20
83.9120614
11
13.6734792
21
85.1071614
0
LINE
8
DEFAULT_255_2_778
10
14.3122646
20
85.0307104
11
14.3704646
21
85.0307104
0
LINE
8
DEFAULT_255_2_778
10
14.3704646
20
85.0307104
11
14.3704646
21
84.3150104
0
LINE
8
DEFAULT_255_2_778
10
14.3704646
20
84.3150104
11
14.0042646
21
84.3150104
0
LINE
8
DEFAULT_255_2_778
10
14.0042646
20
84.3150104
11
14.0042646
21
84.3367104
0
LINE
8
DEFAULT_255_2_778
10
14.0042646
20
84.3367104
11
14.3122646
21
85.0307104
0
LINE
8
DEFAULT_255_2_778
10
14.4554646
20
85.1138104
11
14.2572646
21
85.1138104
0
LINE
8
DEFAULT_255_2_778
10
14.2572646
20
85.1138104
11
13.9209646
21
84.3550104
0
LINE
8
DEFAULT_255_2_778
10
13.9209646
20
84.3550104
11
13.9209646
21
84.2319104
0
LINE
8
DEFAULT_255_2_778
10
13.9209646
20
84.2319104
11
14.3702646
21
84.2319104
0
LINE
8
DEFAULT_255_2_778
10
14.3702646
20
84.2319104
11
14.3702646
21
83.9142104
0
LINE
8
DEFAULT_255_2_778
10
14.3702646
20
83.9142104
11
14.4551646
21
83.9142104
0
LINE
8
DEFAULT_255_2_778
10
14.4551646
20
83.9142104
11
14.4551646
21
84.2319104
0
LINE
8
DEFAULT_255_2_778
10
14.4551646
20
84.2319104
11
14.6316646
21
84.2319104
0
LINE
8
DEFAULT_255_2_778
10
14.6316646
20
84.2319104
11
14.6316646
21
84.3153104
0
LINE
8
DEFAULT_255_2_778
10
14.6316646
20
84.3153104
11
14.4551646
21
84.3153104
0
LINE
8
DEFAULT_255_2_778
10
14.4551646
20
84.3153104
11
14.4554646
21
85.1138104
0
LINE
8
DEFAULT_255_2_778
10
15.4542011
20
83.9353927
11
15.5275011
21
83.8937927
0
LINE
8
DEFAULT_255_2_778
10
15.5275011
20
83.8937927
11
15.8405011
21
84.4446927
0
LINE
8
DEFAULT_255_2_778
10
15.8405011
20
84.4446927
11
16.1601011
21
83.8937927
0
LINE
8
DEFAULT_255_2_778
10
16.1601011
20
83.8937927
11
16.2334011
21
83.9353927
0
LINE
8
DEFAULT_255_2_778
10
16.2334011
20
83.9353927
11
15.8889011
21
84.5277927
0
LINE
8
DEFAULT_255_2_778
10
15.8889011
20
84.5277927
11
16.2085011
21
85.0902927
0
LINE
8
DEFAULT_255_2_778
10
16.2085011
20
85.0902927
11
16.1337011
21
85.1317927
0
LINE
8
DEFAULT_255_2_778
10
16.1337011
20
85.1317927
11
15.8392011
21
84.6123927
0
LINE
8
DEFAULT_255_2_778
10
15.8392011
20
84.6123927
11
15.5397011
21
85.1317927
0
LINE
8
DEFAULT_255_2_778
10
15.5397011
20
85.1317927
11
15.4682011
21
85.0902927
0
LINE
8
DEFAULT_255_2_778
10
15.4682011
20
85.0902927
11
15.7929011
21
84.5292927
0
LINE
8
DEFAULT_255_2_778
10
15.7929011
20
84.5292927
11
15.4550011
21
83.9350927
0
LINE
8
DEFAULT_255_2_778
10
17.6846052
20
85.1137271
11
17.1303052
21
85.1137271
0
LINE
8
DEFAULT_255_2_778
10
17.1303052
20
85.1137271
11
17.1303052
21
84.4546271
0
LINE
8
DEFAULT_255_2_778
10
17.1303052
20
84.4546271
11
17.2568052
21
84.4546271
0
LINE
8
DEFAULT_255_2_778
10
17.2568052
20
84.4546271
11
17.2647052
21
84.4980271
0
LINE
8
DEFAULT_255_2_778
10
17.2647052
20
84.4980271
11
17.2801052
21
84.5353271
0
LINE
8
DEFAULT_255_2_778
10
17.2801052
20
84.5353271
11
17.3700052
21
84.6036271
0
LINE
8
DEFAULT_255_2_778
10
17.3700052
20
84.6036271
11
17.5031052
21
84.6041271
0
LINE
8
DEFAULT_255_2_778
10
17.5031052
20
84.6041271
11
17.5751052
21
84.5258271
0
LINE
8
DEFAULT_255_2_778
10
17.5751052
20
84.5258271
11
17.6063052
21
84.4295271
0
LINE
8
DEFAULT_255_2_778
10
17.6063052
20
84.4295271
11
17.6153052
21
84.3557271
0
LINE
8
DEFAULT_255_2_778
10
17.6153052
20
84.3557271
11
17.6134052
21
84.2273271
0
LINE
8
DEFAULT_255_2_778
10
17.6134052
20
84.2273271
11
17.5970052
21
84.1549271
0
LINE
8
DEFAULT_255_2_778
10
17.5970052
20
84.1549271
11
17.5510052
21
84.0649271
0
LINE
8
DEFAULT_255_2_778
10
17.5510052
20
84.0649271
11
17.4526052
21
83.9966271
0
LINE
8
DEFAULT_255_2_778
10
17.4526052
20
83.9966271
11
17.2814052
21
84.0159271
0
LINE
8
DEFAULT_255_2_778
10
17.2814052
20
84.0159271
11
17.2134052
21
84.0892271
0
LINE
8
DEFAULT_255_2_778
10
17.2134052
20
84.0892271
11
17.2105052
21
84.0953271
0
LINE
8
DEFAULT_255_2_778
10
17.2105052
20
84.0953271
11
17.1340052
21
84.0604271
0
LINE
8
DEFAULT_255_2_778
10
17.1340052
20
84.0604271
11
17.1766052
21
83.9919271
0
LINE
8
DEFAULT_255_2_778
10
17.1766052
20
83.9919271
11
17.2663052
21
83.9278271
0
LINE
8
DEFAULT_255_2_778
10
17.2663052
20
83.9278271
11
17.4552052
21
83.9098271
0
LINE
8
DEFAULT_255_2_778
10
17.4552052
20
83.9098271
11
17.5735052
21
83.9638271
0
LINE
8
DEFAULT_255_2_778
10
17.5735052
20
83.9638271
11
17.6439052
21
84.0490271
0
LINE
8
DEFAULT_255_2_778
10
17.6439052
20
84.0490271
11
17.6796052
21
84.1324271
0
LINE
8
DEFAULT_255_2_778
10
17.6796052
20
84.1324271
11
17.6936052
21
84.1914271
0
LINE
8
DEFAULT_255_2_778
10
17.6936052
20
84.1914271
11
17.6989052
21
84.2313271
0
LINE
8
DEFAULT_255_2_778
10
17.6989052
20
84.2313271
11
17.6968052
21
84.3927271
0
LINE
8
DEFAULT_255_2_778
10
17.6968052
20
84.3927271
11
17.6878052
21
84.4528271
0
LINE
8
DEFAULT_255_2_778
10
17.6878052
20
84.4528271
11
17.6698052
21
84.5210271
0
LINE
8
DEFAULT_255_2_778
10
17.6698052
20
84.5210271
11
17.6354052
21
84.5941271
0
LINE
8
DEFAULT_255_2_778
10
17.6354052
20
84.5941271
11
17.5825052
21
84.6549271
0
LINE
8
DEFAULT_255_2_778
10
17.5825052
20
84.6549271
11
17.4909052
21
84.6957271
0
LINE
8
DEFAULT_255_2_778
10
17.4909052
20
84.6957271
11
17.3224052
21
84.6756271
0
LINE
8
DEFAULT_255_2_778
10
17.3224052
20
84.6756271
11
17.2330052
21
84.6113271
0
LINE
8
DEFAULT_255_2_778
10
17.2330052
20
84.6113271
11
17.2142052
21
84.5874271
0
LINE
8
DEFAULT_255_2_778
10
17.2142052
20
84.5874271
11
17.2142052
21
85.0301271
0
LINE
8
DEFAULT_255_2_778
10
17.2142052
20
85.0301271
11
17.6851052
21
85.0301271
0
LINE
8
DEFAULT_255_2_778
10
17.6851052
20
85.0301271
11
17.6851052
21
85.1134271
0
LINE
8
DEFAULT_255_2_778
10
16.8289792
20
85.1071614
11
16.7241792
21
85.1071614
0
LINE
8
DEFAULT_255_2_778
10
16.7241792
20
85.1071614
11
16.5127792
21
84.8925614
0
LINE
8
DEFAULT_255_2_778
10
16.5127792
20
84.8925614
11
16.5228792
21
84.8960614
0
LINE
8
DEFAULT_255_2_778
10
16.5228792
20
84.8960614
11
16.5278792
21
84.8110614
0
LINE
8
DEFAULT_255_2_778
10
16.5278792
20
84.8110614
11
16.6595792
21
84.9129614
0
LINE
8
DEFAULT_255_2_778
10
16.6595792
20
84.9129614
11
16.7458792
21
85.0039614
0
LINE
8
DEFAULT_255_2_778
10
16.7458792
20
85.0039614
11
16.7458792
21
83.9120614
0
LINE
8
DEFAULT_255_2_778
10
16.7458792
20
83.9120614
11
16.8291792
21
83.9120614
0
LINE
8
DEFAULT_255_2_778
10
16.8291792
20
83.9120614
11
16.8291792
21
85.1071614
0
LINE
8
DEFAULT_255_2_778
10
13.6899792
20
62.1068614
11
13.5851792
21
62.1068614
0
LINE
8
DEFAULT_255_2_778
10
13.5851792
20
62.1068614
11
13.3737792
21
61.8922614
0
LINE
8
DEFAULT_255_2_778
10
13.3737792
20
61.8922614
11
13.3838792
21
61.8957614
0
LINE
8
DEFAULT_255_2_778
10
13.3838792
20
61.8957614
11
13.3888792
21
61.8107614
0
LINE
8
DEFAULT_255_2_778
10
13.3888792
20
61.8107614
11
13.5205792
21
61.9126614
0
LINE
8
DEFAULT_255_2_778
10
13.5205792
20
61.9126614
11
13.6068792
21
62.0036614
0
LINE
8
DEFAULT_255_2_778
10
13.6068792
20
62.0036614
11
13.6068792
21
60.9117614
0
LINE
8
DEFAULT_255_2_778
10
13.6068792
20
60.9117614
11
13.6901792
21
60.9117614
0
LINE
8
DEFAULT_255_2_778
10
13.6901792
20
60.9117614
11
13.6901792
21
62.1068614
0
LINE
8
DEFAULT_255_2_778
10
12.6996011
20
61.612325
11
12.4001011
21
62.131725
0
LINE
8
DEFAULT_255_2_778
10
12.4001011
20
62.131725
11
12.3286011
21
62.090225
0
LINE
8
DEFAULT_255_2_778
10
12.3286011
20
62.090225
11
12.6533011
21
61.529225
0
LINE
8
DEFAULT_255_2_778
10
12.6533011
20
61.529225
11
12.3154011
21
60.935025
0
LINE
8
DEFAULT_255_2_778
10
12.3154011
20
60.935025
11
12.3887011
21
60.893525
0
LINE
8
DEFAULT_255_2_778
10
12.3887011
20
60.893525
11
12.7017011
21
61.444325
0
LINE
8
DEFAULT_255_2_778
10
12.7017011
20
61.444325
11
13.0213011
21
60.893525
0
LINE
8
DEFAULT_255_2_778
10
13.0213011
20
60.893525
11
13.0946011
21
60.935025
0
LINE
8
DEFAULT_255_2_778
10
13.0946011
20
60.935025
11
12.7501011
21
61.527425
0
LINE
8
DEFAULT_255_2_778
10
12.7501011
20
61.527425
11
13.0697011
21
62.089925
0
LINE
8
DEFAULT_255_2_778
10
13.0697011
20
62.089925
11
12.9948011
21
62.131425
0
LINE
8
DEFAULT_255_2_778
10
12.9948011
20
62.131425
11
12.7004011
21
61.612125
0
LINE
8
DEFAULT_255_2_778
10
14.3207386
20
61.5925666
11
14.4466386
21
61.5430666
0
LINE
8
DEFAULT_255_2_778
10
14.4466386
20
61.5430666
11
14.4805386
21
61.4874666
0
LINE
8
DEFAULT_255_2_778
10
14.4805386
20
61.4874666
11
14.4966386
21
61.4343666
0
LINE
8
DEFAULT_255_2_778
10
14.4966386
20
61.4343666
11
14.5054386
21
61.3792666
0
LINE
8
DEFAULT_255_2_778
10
14.5054386
20
61.3792666
11
14.5030386
21
61.2125666
0
LINE
8
DEFAULT_255_2_778
10
14.5030386
20
61.2125666
11
14.4948386
21
61.1670666
0
LINE
8
DEFAULT_255_2_778
10
14.4948386
20
61.1670666
11
14.4733386
21
61.1059666
0
LINE
8
DEFAULT_255_2_778
10
14.4733386
20
61.1059666
11
14.4255386
21
61.0382666
0
LINE
8
DEFAULT_255_2_778
10
14.4255386
20
61.0382666
11
14.3540386
21
60.9966666
0
LINE
8
DEFAULT_255_2_778
10
14.3540386
20
60.9966666
11
14.2347386
21
60.9969666
0
LINE
8
DEFAULT_255_2_778
10
14.2347386
20
60.9969666
11
14.1368386
21
61.0649666
0
LINE
8
DEFAULT_255_2_778
10
14.1368386
20
61.0649666
11
14.0878386
21
61.1432666
0
LINE
8
DEFAULT_255_2_778
10
14.0878386
20
61.1432666
11
14.0709386
21
61.1961666
0
LINE
8
DEFAULT_255_2_778
10
14.0709386
20
61.1961666
11
14.0659386
21
61.2234666
0
LINE
8
DEFAULT_255_2_778
10
14.0659386
20
61.2234666
11
14.0675386
21
61.3345666
0
LINE
8
DEFAULT_255_2_778
10
14.0675386
20
61.3345666
11
14.0757386
21
61.3803666
0
LINE
8
DEFAULT_255_2_778
10
14.0757386
20
61.3803666
11
14.0976386
21
61.4411666
0
LINE
8
DEFAULT_255_2_778
10
14.0976386
20
61.4411666
11
14.1691386
21
61.5377666
0
LINE
8
DEFAULT_255_2_778
10
14.1691386
20
61.5377666
11
14.2580386
21
61.5859666
0
LINE
8
DEFAULT_255_2_778
10
14.2580386
20
61.5859666
11
14.3207386
21
61.5925666
0
LINE
8
DEFAULT_255_2_778
10
14.3172386
20
61.6774666
11
14.1217386
21
61.6086666
0
LINE
8
DEFAULT_255_2_778
10
14.1217386
20
61.6086666
11
14.0426386
21
61.5094666
0
LINE
8
DEFAULT_255_2_778
10
14.0426386
20
61.5094666
11
14.0450386
21
61.6592666
0
LINE
8
DEFAULT_255_2_778
10
14.0450386
20
61.6592666
11
14.0471386
21
61.7092666
0
LINE
8
DEFAULT_255_2_778
10
14.0471386
20
61.7092666
11
14.0503386
21
61.7589666
0
LINE
8
DEFAULT_255_2_778
10
14.0503386
20
61.7589666
11
14.0542386
21
61.7962666
0
LINE
8
DEFAULT_255_2_778
10
14.0542386
20
61.7962666
11
14.0627386
21
61.8454666
0
LINE
8
DEFAULT_255_2_778
10
14.0627386
20
61.8454666
11
14.0754386
21
61.8938666
0
LINE
8
DEFAULT_255_2_778
10
14.0754386
20
61.8938666
11
14.1183386
21
61.9767666
0
LINE
8
DEFAULT_255_2_778
10
14.1183386
20
61.9767666
11
14.2432386
21
62.0391666
0
LINE
8
DEFAULT_255_2_778
10
14.2432386
20
62.0391666
11
14.4138386
21
61.9939666
0
LINE
8
DEFAULT_255_2_778
10
14.4138386
20
61.9939666
11
14.4638386
21
61.9306666
0
LINE
8
DEFAULT_255_2_778
10
14.4638386
20
61.9306666
11
14.5403386
21
61.9706666
0
LINE
8
DEFAULT_255_2_778
10
14.5403386
20
61.9706666
11
14.5009386
21
62.0280666
0
LINE
8
DEFAULT_255_2_778
10
14.5009386
20
62.0280666
11
14.4366386
21
62.0812666
0
LINE
8
DEFAULT_255_2_778
10
14.4366386
20
62.0812666
11
14.3323386
21
62.1190666
0
LINE
8
DEFAULT_255_2_778
10
14.3323386
20
62.1190666
11
14.1937386
21
62.1161666
0
LINE
8
DEFAULT_255_2_778
10
14.1937386
20
62.1161666
11
14.1043386
21
62.0788666
0
LINE
8
DEFAULT_255_2_778
10
14.1043386
20
62.0788666
11
14.0527386
21
62.0325666
0
LINE
8
DEFAULT_255_2_778
10
14.0527386
20
62.0325666
11
14.0151386
21
61.9740666
0
LINE
8
DEFAULT_255_2_778
10
14.0151386
20
61.9740666
11
13.9907386
21
61.9089666
0
LINE
8
DEFAULT_255_2_778
10
13.9907386
20
61.9089666
11
13.9751386
21
61.8409666
0
LINE
8
DEFAULT_255_2_778
10
13.9751386
20
61.8409666
11
13.9675386
21
61.7856666
0
LINE
8
DEFAULT_255_2_778
10
13.9675386
20
61.7856666
11
13.9627386
21
61.7301666
0
LINE
8
DEFAULT_255_2_778
10
13.9627386
20
61.7301666
11
13.9643386
21
61.2985666
0
LINE
8
DEFAULT_255_2_778
10
13.9643386
20
61.2985666
11
13.9706386
21
61.2432666
0
LINE
8
DEFAULT_255_2_778
10
13.9706386
20
61.2432666
11
13.9802386
21
61.1885666
0
LINE
8
DEFAULT_255_2_778
10
13.9802386
20
61.1885666
11
13.9979386
21
61.1213666
0
LINE
8
DEFAULT_255_2_778
10
13.9979386
20
61.1213666
11
14.0183386
21
61.0694666
0
LINE
8
DEFAULT_255_2_778
10
14.0183386
20
61.0694666
11
14.0545386
21
61.0099666
0
LINE
8
DEFAULT_255_2_778
10
14.0545386
20
61.0099666
11
14.1148386
21
60.9525666
0
LINE
8
DEFAULT_255_2_778
10
14.1148386
20
60.9525666
11
14.2035386
21
60.9130666
0
LINE
8
DEFAULT_255_2_778
10
14.2035386
20
60.9130666
11
14.3559386
21
60.9096666
0
LINE
8
DEFAULT_255_2_778
10
14.3559386
20
60.9096666
11
14.4472386
21
60.9429666
0
LINE
8
DEFAULT_255_2_778
10
14.4472386
20
60.9429666
11
14.5109386
21
60.9969666
0
LINE
8
DEFAULT_255_2_778
10
14.5109386
20
60.9969666
11
14.5488386
21
61.0554666
0
LINE
8
DEFAULT_255_2_778
10
14.5488386
20
61.0554666
11
14.5691386
21
61.1072666
0
LINE
8
DEFAULT_255_2_778
10
14.5691386
20
61.1072666
11
14.5821386
21
61.1615666
0
LINE
8
DEFAULT_255_2_778
10
14.5821386
20
61.1615666
11
14.5882386
21
61.2027666
0
LINE
8
DEFAULT_255_2_778
10
14.5882386
20
61.2027666
11
14.5861386
21
61.4112666
0
LINE
8
DEFAULT_255_2_778
10
14.5861386
20
61.4112666
11
14.5784386
21
61.4525666
0
LINE
8
DEFAULT_255_2_778
10
14.5784386
20
61.4525666
11
14.5628386
21
61.5062666
0
LINE
8
DEFAULT_255_2_778
10
14.5628386
20
61.5062666
11
14.5390386
21
61.5568666
0
LINE
8
DEFAULT_255_2_778
10
14.5390386
20
61.5568666
11
14.4961386
21
61.6118666
0
LINE
8
DEFAULT_255_2_778
10
14.4961386
20
61.6118666
11
14.4392386
21
61.6517666
0
LINE
8
DEFAULT_255_2_778
10
14.4392386
20
61.6517666
11
14.3313386
21
61.6774666
0
LINE
8
DEFAULT_255_2_778
10
14.3313386
20
61.6774666
11
14.3172386
21
61.6774666
0
LINE
8
DEFAULT_255_2_778
10
17.2766386
20
60.9350666
11
17.3565386
21
60.9083666
0
LINE
8
DEFAULT_255_2_778
10
17.3565386
20
60.9083666
11
17.6978386
21
61.9933666
0
LINE
8
DEFAULT_255_2_778
10
17.6978386
20
61.9933666
11
17.6978386
21
62.1148666
0
LINE
8
DEFAULT_255_2_778
10
17.6978386
20
62.1148666
11
17.0985386
21
62.1148666
0
LINE
8
DEFAULT_255_2_778
10
17.0985386
20
62.1148666
11
17.0985386
21
62.0298666
0
LINE
8
DEFAULT_255_2_778
10
17.0985386
20
62.0298666
11
17.6145386
21
62.0298666
0
LINE
8
DEFAULT_255_2_778
10
17.6145386
20
62.0298666
11
17.6145386
21
62.0066666
0
LINE
8
DEFAULT_255_2_778
10
17.6145386
20
62.0066666
11
17.5735386
21
61.8798666
0
LINE
8
DEFAULT_255_2_778
10
17.5735386
20
61.8798666
11
17.2769386
21
60.9347666
0
LINE
8
DEFAULT_255_2_778
10
16.8122792
20
62.1068614
11
16.7074792
21
62.1068614
0
LINE
8
DEFAULT_255_2_778
10
16.7074792
20
62.1068614
11
16.4960792
21
61.8922614
0
LINE
8
DEFAULT_255_2_778
10
16.4960792
20
61.8922614
11
16.5061792
21
61.8957614
0
LINE
8
DEFAULT_255_2_778
10
16.5061792
20
61.8957614
11
16.5111792
21
61.8107614
0
LINE
8
DEFAULT_255_2_778
10
16.5111792
20
61.8107614
11
16.6428792
21
61.9126614
0
LINE
8
DEFAULT_255_2_778
10
16.6428792
20
61.9126614
11
16.7291792
21
62.0036614
0
LINE
8
DEFAULT_255_2_778
10
16.7291792
20
62.0036614
11
16.7291792
21
60.9117614
0
LINE
8
DEFAULT_255_2_778
10
16.7291792
20
60.9117614
11
16.8124792
21
60.9117614
0
LINE
8
DEFAULT_255_2_778
10
16.8124792
20
60.9117614
11
16.8124792
21
62.1068614
0
LINE
8
DEFAULT_255_2_778
10
15.8220143
20
61.612325
11
15.5224143
21
62.131725
0
LINE
8
DEFAULT_255_2_778
10
15.5224143
20
62.131725
11
15.4510143
21
62.090225
0
LINE
8
DEFAULT_255_2_778
10
15.4510143
20
62.090225
11
15.7757143
21
61.529225
0
LINE
8
DEFAULT_255_2_778
10
15.7757143
20
61.529225
11
15.4378143
21
60.935025
0
LINE
8
DEFAULT_255_2_778
10
15.4378143
20
60.935025
11
15.5111143
21
60.893525
0
LINE
8
DEFAULT_255_2_778
10
15.5111143
20
60.893525
11
15.8241143
21
61.444325
0
LINE
8
DEFAULT_255_2_778
10
15.8241143
20
61.444325
11
16.1437143
21
60.893525
0
LINE
8
DEFAULT_255_2_778
10
16.1437143
20
60.893525
11
16.2170143
21
60.935025
0
LINE
8
DEFAULT_255_2_778
10
16.2170143
20
60.935025
11
15.8725143
21
61.527425
0
LINE
8
DEFAULT_255_2_778
10
15.8725143
20
61.527425
11
16.1921143
21
62.089925
0
LINE
8
DEFAULT_255_2_778
10
16.1921143
20
62.089925
11
16.1172143
21
62.131425
0
LINE
8
DEFAULT_255_2_778
10
16.1172143
20
62.131425
11
15.8228143
21
61.612125
0
LINE
8
DEFAULT_255_2_778
10
15.7314824
20
51.770182
11
15.8126824
21
51.748782
0
LINE
8
DEFAULT_255_2_778
10
15.8126824
20
51.748782
11
15.5080824
21
50.570282
0
LINE
8
DEFAULT_255_2_778
10
15.5080824
20
50.570282
11
15.3937824
21
50.570282
0
LINE
8
DEFAULT_255_2_778
10
15.3937824
20
50.570282
11
15.2773824
21
51.034682
0
LINE
8
DEFAULT_255_2_778
10
15.2773824
20
51.034682
11
15.1273824
21
51.647682
0
LINE
8
DEFAULT_255_2_778
10
15.1273824
20
51.647682
11
14.8574824
21
50.570282
0
LINE
8
DEFAULT_255_2_778
10
14.8574824
20
50.570282
11
14.7450824
21
50.570282
0
LINE
8
DEFAULT_255_2_778
10
14.7450824
20
50.570282
11
14.4487824
21
51.748782
0
LINE
8
DEFAULT_255_2_778
10
14.4487824
20
51.748782
11
14.5296824
21
51.768582
0
LINE
8
DEFAULT_255_2_778
10
14.5296824
20
51.768582
11
14.8011824
21
50.689582
0
LINE
8
DEFAULT_255_2_778
10
14.8011824
20
50.689582
11
15.0691824
21
51.763582
0
LINE
8
DEFAULT_255_2_778
10
15.0691824
20
51.763582
11
15.1834824
21
51.763582
0
LINE
8
DEFAULT_255_2_778
10
15.1834824
20
51.763582
11
15.2998824
21
51.298982
0
LINE
8
DEFAULT_255_2_778
10
15.2998824
20
51.298982
11
15.4517824
21
50.686182
0
LINE
8
DEFAULT_255_2_778
10
15.4517824
20
50.686182
11
15.7314824
21
51.770182
0
LINE
8
DEFAULT_255_2_778
10
13.7147824
20
51.748782
11
14.0454824
21
51.744282
0
LINE
8
DEFAULT_255_2_778
10
14.0454824
20
51.744282
11
14.1343824
21
51.717482
0
LINE
8
DEFAULT_255_2_778
10
14.1343824
20
51.717482
11
14.2055824
21
51.672582
0
LINE
8
DEFAULT_255_2_778
10
14.2055824
20
51.672582
11
14.2526824
21
51.621782
0
LINE
8
DEFAULT_255_2_778
10
14.2526824
20
51.621782
11
14.2777824
21
51.580482
0
LINE
8
DEFAULT_255_2_778
10
14.2777824
20
51.580482
11
14.2928824
21
51.544782
0
LINE
8
DEFAULT_255_2_778
10
14.2928824
20
51.544782
11
14.3010824
21
51.516982
0
LINE
8
DEFAULT_255_2_778
10
14.3010824
20
51.516982
11
14.3066824
21
51.489182
0
LINE
8
DEFAULT_255_2_778
10
14.3066824
20
51.489182
11
14.3066824
21
51.395282
0
LINE
8
DEFAULT_255_2_778
10
14.3066824
20
51.395282
11
14.3010824
21
51.367982
0
LINE
8
DEFAULT_255_2_778
10
14.3010824
20
51.367982
11
14.2894824
21
51.332582
0
LINE
8
DEFAULT_255_2_778
10
14.2894824
20
51.332582
11
14.2682824
21
51.290982
0
LINE
8
DEFAULT_255_2_778
10
14.2682824
20
51.290982
11
14.2267824
21
51.239682
0
LINE
8
DEFAULT_255_2_778
10
14.2267824
20
51.239682
11
14.1587824
21
51.189982
0
LINE
8
DEFAULT_255_2_778
10
14.1587824
20
51.189982
11
14.0772824
21
51.160082
0
LINE
8
DEFAULT_255_2_778
10
14.0772824
20
51.160082
11
13.9819824
21
51.149982
0
LINE
8
DEFAULT_255_2_778
10
13.9819824
20
51.149982
11
13.7967824
21
51.149982
0
LINE
8
DEFAULT_255_2_778
10
13.7967824
20
51.149982
11
13.7967824
21
50.572682
0
LINE
8
DEFAULT_255_2_778
10
13.7967824
20
50.572682
11
13.7147824
21
50.572682
0
LINE
8
DEFAULT_255_2_778
10
13.7147824
20
50.572682
11
13.7147824
21
51.748782
0
LINE
8
DEFAULT_255_2_778
10
13.9819824
20
51.233582
11
14.0841824
21
51.248682
0
LINE
8
DEFAULT_255_2_778
10
14.0841824
20
51.248682
11
14.1579824
21
51.289482
0
LINE
8
DEFAULT_255_2_778
10
14.1579824
20
51.289482
11
14.1989824
21
51.335982
0
LINE
8
DEFAULT_255_2_778
10
14.1989824
20
51.335982
11
14.2161824
21
51.371982
0
LINE
8
DEFAULT_255_2_778
10
14.2161824
20
51.371982
11
14.2246824
21
51.403782
0
LINE
8
DEFAULT_255_2_778
10
14.2246824
20
51.403782
11
14.2272824
21
51.423082
0
LINE
8
DEFAULT_255_2_778
10
14.2272824
20
51.423082
11
14.2264824
21
51.469582
0
LINE
8
DEFAULT_255_2_778
10
14.2264824
20
51.469582
11
14.2230824
21
51.489982
0
LINE
8
DEFAULT_255_2_778
10
14.2230824
20
51.489982
11
14.2129824
21
51.523282
0
LINE
8
DEFAULT_255_2_778
10
14.2129824
20
51.523282
11
14.1936824
21
51.561382
0
LINE
8
DEFAULT_255_2_778
10
14.1936824
20
51.561382
11
14.1497824
21
51.610382
0
LINE
8
DEFAULT_255_2_778
10
14.1497824
20
51.610382
11
14.0811824
21
51.649782
0
LINE
8
DEFAULT_255_2_778
10
14.0811824
20
51.649782
11
13.9819824
21
51.666182
0
LINE
8
DEFAULT_255_2_778
10
13.9819824
20
51.666182
11
13.7967824
21
51.666182
0
LINE
8
DEFAULT_255_2_778
10
13.7967824
20
51.666182
11
13.7967824
21
51.234182
0
LINE
8
DEFAULT_255_2_778
10
13.7967824
20
51.234182
11
13.9819824
21
51.233582
0
LINE
8
DEFAULT_255_2_778
10
16.3584824
20
51.668882
11
16.2211824
21
51.682082
0
LINE
8
DEFAULT_255_2_778
10
16.2211824
20
51.682082
11
16.0830824
21
51.681582
0
LINE
8
DEFAULT_255_2_778
10
16.0830824
20
51.681582
11
16.0830824
21
51.248382
0
LINE
8
DEFAULT_255_2_778
10
16.0830824
20
51.248382
11
16.2211824
21
51.248382
0
LINE
8
DEFAULT_255_2_778
10
16.2211824
20
51.248382
11
16.3589824
21
51.257182
0
LINE
8
DEFAULT_255_2_778
10
16.3589824
20
51.257182
11
16.4754824
21
51.329882
0
LINE
8
DEFAULT_255_2_778
10
16.4754824
20
51.329882
11
16.5182824
21
51.461182
0
LINE
8
DEFAULT_255_2_778
10
16.5182824
20
51.461182
11
16.4730824
21
51.591582
0
LINE
8
DEFAULT_255_2_778
10
16.4730824
20
51.591582
11
16.3584824
21
51.668882
0
LINE
8
DEFAULT_255_2_778
10
16.6251824
20
50.603882
11
16.6251824
21
50.594382
0
LINE
8
DEFAULT_255_2_778
10
16.6251824
20
50.594382
11
16.5489824
21
50.564782
0
LINE
8
DEFAULT_255_2_778
10
16.5489824
20
50.564782
11
16.5489824
21
50.574282
0
LINE
8
DEFAULT_255_2_778
10
16.5489824
20
50.574282
11
16.6251824
21
50.603882
0
LINE
8
DEFAULT_255_2_778
10
16.6251824
20
50.603882
11
16.5984824
21
50.888282
0
LINE
8
DEFAULT_255_2_778
10
16.5984824
20
50.888282
11
16.5645824
21
51.067482
0
LINE
8
DEFAULT_255_2_778
10
16.5645824
20
51.067482
11
16.4497824
21
51.205782
0
LINE
8
DEFAULT_255_2_778
10
16.4497824
20
51.205782
11
16.5508824
21
51.293682
0
LINE
8
DEFAULT_255_2_778
10
16.5508824
20
51.293682
11
16.5976824
21
51.420682
0
LINE
8
DEFAULT_255_2_778
10
16.5976824
20
51.420682
11
16.5563824
21
51.618082
0
LINE
8
DEFAULT_255_2_778
10
16.5563824
20
51.618082
11
16.4010824
21
51.743982
0
LINE
8
DEFAULT_255_2_778
10
16.4010824
20
51.743982
11
16.2015824
21
51.765382
0
LINE
8
DEFAULT_255_2_778
10
16.2015824
20
51.765382
11
16.0002824
21
51.765382
0
LINE
8
DEFAULT_255_2_778
10
16.0002824
20
51.765382
11
16.0002824
21
50.573182
0
LINE
8
DEFAULT_255_2_778
10
16.0002824
20
50.573182
11
16.0830824
21
50.573182
0
LINE
8
DEFAULT_255_2_778
10
16.0830824
20
50.573182
11
16.0830824
21
51.165082
0
LINE
8
DEFAULT_255_2_778
10
16.0830824
20
51.165082
11
16.3132824
21
51.163182
0
LINE
8
DEFAULT_255_2_778
10
16.3132824
20
51.163182
11
16.4211824
21
51.124582
0
LINE
8
DEFAULT_255_2_778
10
16.4211824
20
51.124582
11
16.4920824
21
51.033082
0
LINE
8
DEFAULT_255_2_778
10
16.4920824
20
51.033082
11
16.5185824
21
50.803082
0
LINE
8
DEFAULT_255_2_778
10
16.5185824
20
50.803082
11
16.5489824
21
50.574282
0
LINE
8
DEFAULT_255_2_778
10
23.0884824
20
34.943782
11
23.1008824
21
34.947982
0
LINE
8
DEFAULT_255_2_778
10
23.1008824
20
34.947982
11
23.1071824
21
34.841382
0
LINE
8
DEFAULT_255_2_778
10
23.1071824
20
34.841382
11
23.2278824
21
34.924682
0
LINE
8
DEFAULT_255_2_778
10
23.2278824
20
34.924682
11
23.3807824
21
35.083682
0
LINE
8
DEFAULT_255_2_778
10
23.3807824
20
35.083682
11
23.3807824
21
33.713182
0
LINE
8
DEFAULT_255_2_778
10
23.3807824
20
33.713182
11
23.4852824
21
33.713182
0
LINE
8
DEFAULT_255_2_778
10
23.4852824
20
33.713182
11
23.4852824
21
35.213082
0
LINE
8
DEFAULT_255_2_778
10
23.4852824
20
35.213082
11
23.3537824
21
35.213082
0
LINE
8
DEFAULT_255_2_778
10
23.3537824
20
35.213082
11
23.0884824
21
34.943482
0
LINE
8
DEFAULT_255_2_778
10
14.0814824
20
34.899782
11
14.1838824
21
34.924982
0
LINE
8
DEFAULT_255_2_778
10
14.1838824
20
34.924982
11
14.1775824
21
34.957482
0
LINE
8
DEFAULT_255_2_778
10
14.1775824
20
34.957482
11
14.1579824
21
35.009582
0
LINE
8
DEFAULT_255_2_778
10
14.1579824
20
35.009582
11
14.1148824
21
35.074982
0
LINE
8
DEFAULT_255_2_778
10
14.1148824
20
35.074982
11
14.0206824
21
35.149582
0
LINE
8
DEFAULT_255_2_778
10
14.0206824
20
35.149582
11
13.8615824
21
35.192482
0
LINE
8
DEFAULT_255_2_778
10
13.8615824
20
35.192482
11
13.6165824
21
35.169982
0
LINE
8
DEFAULT_255_2_778
10
13.6165824
20
35.169982
11
13.4956824
21
35.110182
0
LINE
8
DEFAULT_255_2_778
10
13.4956824
20
35.110182
11
13.4313824
21
35.046182
0
LINE
8
DEFAULT_255_2_778
10
13.4313824
20
35.046182
11
13.3901824
21
34.976582
0
LINE
8
DEFAULT_255_2_778
10
13.3901824
20
34.976582
11
13.3681824
21
34.919382
0
LINE
8
DEFAULT_255_2_778
10
13.3681824
20
34.919382
11
13.3522824
21
34.857782
0
LINE
8
DEFAULT_255_2_778
10
13.3522824
20
34.857782
11
13.3432824
21
34.804882
0
LINE
8
DEFAULT_255_2_778
10
13.3432824
20
34.804882
11
13.3382824
21
34.761682
0
LINE
8
DEFAULT_255_2_778
10
13.3382824
20
34.761682
11
13.3403824
21
34.108982
0
LINE
8
DEFAULT_255_2_778
10
13.3403824
20
34.108982
11
13.3435824
21
34.081682
0
LINE
8
DEFAULT_255_2_778
10
13.3435824
20
34.081682
11
13.3509824
21
34.033582
0
LINE
8
DEFAULT_255_2_778
10
13.3509824
20
34.033582
11
13.3604824
21
33.988582
0
LINE
8
DEFAULT_255_2_778
10
13.3604824
20
33.988582
11
13.3779824
21
33.927982
0
LINE
8
DEFAULT_255_2_778
10
13.3779824
20
33.927982
11
13.3988824
21
33.875082
0
LINE
8
DEFAULT_255_2_778
10
13.3988824
20
33.875082
11
13.4319824
21
33.816382
0
LINE
8
DEFAULT_255_2_778
10
13.4319824
20
33.816382
11
13.4795824
21
33.760482
0
LINE
8
DEFAULT_255_2_778
10
13.4795824
20
33.760482
11
13.5999824
21
33.692282
0
LINE
8
DEFAULT_255_2_778
10
13.5999824
20
33.692282
11
13.7023824
21
33.672382
0
LINE
8
DEFAULT_255_2_778
10
13.7023824
20
33.672382
11
13.9295824
21
33.683782
0
LINE
8
DEFAULT_255_2_778
10
13.9295824
20
33.683782
11
14.0613824
21
33.745682
0
LINE
8
DEFAULT_255_2_778
10
14.0613824
20
33.745682
11
14.1372824
21
33.824282
0
LINE
8
DEFAULT_255_2_778
10
14.1372824
20
33.824282
11
14.1706824
21
33.885182
0
LINE
8
DEFAULT_255_2_778
10
14.1706824
20
33.885182
11
14.1817824
21
33.917682
0
LINE
8
DEFAULT_255_2_778
10
14.1817824
20
33.917682
11
14.0835824
21
33.953182
0
LINE
8
DEFAULT_255_2_778
10
14.0835824
20
33.953182
11
14.0502824
21
33.883582
0
LINE
8
DEFAULT_255_2_778
10
14.0502824
20
33.883582
11
13.9743824
21
33.812082
0
LINE
8
DEFAULT_255_2_778
10
13.9743824
20
33.812082
11
13.8769824
21
33.778782
0
LINE
8
DEFAULT_255_2_778
10
13.8769824
20
33.778782
11
13.7568824
21
33.774282
0
LINE
8
DEFAULT_255_2_778
10
13.7568824
20
33.774282
11
13.6006824
21
33.803682
0
LINE
8
DEFAULT_255_2_778
10
13.6006824
20
33.803682
11
13.5245824
21
33.870582
0
LINE
8
DEFAULT_255_2_778
10
13.5245824
20
33.870582
11
13.4858824
21
33.941982
0
LINE
8
DEFAULT_255_2_778
10
13.4858824
20
33.941982
11
13.4681824
21
33.992782
0
LINE
8
DEFAULT_255_2_778
10
13.4681824
20
33.992782
11
13.4573824
21
34.037582
0
LINE
8
DEFAULT_255_2_778
10
13.4573824
20
34.037582
11
13.4514824
21
34.071182
0
LINE
8
DEFAULT_255_2_778
10
13.4514824
20
34.071182
11
13.4469824
21
34.108182
0
LINE
8
DEFAULT_255_2_778
10
13.4469824
20
34.108182
11
13.4488824
21
34.798482
0
LINE
8
DEFAULT_255_2_778
10
13.4488824
20
34.798482
11
13.4565824
21
34.842982
0
LINE
8
DEFAULT_255_2_778
10
13.4565824
20
34.842982
11
13.4731824
21
34.902182
0
LINE
8
DEFAULT_255_2_778
10
13.4731824
20
34.902182
11
13.5052824
21
34.968882
0
LINE
8
DEFAULT_255_2_778
10
13.5052824
20
34.968882
11
13.5819824
21
35.043982
0
LINE
8
DEFAULT_255_2_778
10
13.5819824
20
35.043982
11
13.7015824
21
35.081082
0
LINE
8
DEFAULT_255_2_778
10
13.7015824
20
35.081082
11
13.9322824
21
35.070982
0
LINE
8
DEFAULT_255_2_778
10
13.9322824
20
35.070982
11
14.0319824
21
35.006682
0
LINE
8
DEFAULT_255_2_778
10
14.0319824
20
35.006682
11
14.0658824
21
34.949282
0
LINE
8
DEFAULT_255_2_778
10
14.0658824
20
34.949282
11
14.0817824
21
34.899282
0
LINE
8
DEFAULT_255_2_778
10
10.5983167
20
34.3010333
11
11.1021167
21
34.3010333
0
LINE
8
DEFAULT_255_2_778
10
11.1021167
20
34.3010333
11
11.1021167
21
34.1909333
0
LINE
8
DEFAULT_255_2_778
10
11.1021167
20
34.1909333
11
10.5983167
21
34.1909333
0
LINE
8
DEFAULT_255_2_778
10
10.5983167
20
34.1909333
11
10.5983167
21
34.3010333
0
LINE
8
DEFAULT_255_2_778
10
19.1401167
20
34.3010333
11
19.6439167
21
34.3010333
0
LINE
8
DEFAULT_255_2_778
10
19.6439167
20
34.3010333
11
19.6439167
21
34.1909333
0
LINE
8
DEFAULT_255_2_778
10
19.6439167
20
34.1909333
11
19.1401167
21
34.1909333
0
LINE
8
DEFAULT_255_2_778
10
19.1401167
20
34.1909333
11
19.1401167
21
34.3010333
0
LINE
8
DEFAULT_255_2_778
10
16.7410511
20
35.1670281
11
16.8434511
21
35.1964281
0
LINE
8
DEFAULT_255_2_778
10
16.8434511
20
35.1964281
11
17.2488511
21
33.8050281
0
LINE
8
DEFAULT_255_2_778
10
17.2488511
20
33.8050281
11
17.5835511
21
34.9628281
0
LINE
8
DEFAULT_255_2_778
10
17.5835511
20
34.9628281
11
17.6520511
21
35.1964281
0
LINE
8
DEFAULT_255_2_778
10
17.6520511
20
35.1964281
11
17.7544511
21
35.1670281
0
LINE
8
DEFAULT_255_2_778
10
17.7544511
20
35.1670281
11
17.3221511
21
33.6795281
0
LINE
8
DEFAULT_255_2_778
10
17.3221511
20
33.6795281
11
17.1758511
21
33.6795281
0
LINE
8
DEFAULT_255_2_778
10
17.1758511
20
33.6795281
11
16.7413511
21
35.1670281
0
LINE
8
DEFAULT_255_2_778
10
15.6568511
20
33.7841281
11
14.9591511
21
33.7841281
0
LINE
8
DEFAULT_255_2_778
10
14.9591511
20
33.7841281
11
14.9591511
21
33.8343281
0
LINE
8
DEFAULT_255_2_778
10
14.9591511
20
33.8343281
11
15.3372511
21
34.2846281
0
LINE
8
DEFAULT_255_2_778
10
15.3372511
20
34.2846281
11
15.4761511
21
34.4728281
0
LINE
8
DEFAULT_255_2_778
10
15.4761511
20
34.4728281
11
15.5250511
21
34.5543281
0
LINE
8
DEFAULT_255_2_778
10
15.5250511
20
34.5543281
11
15.5488511
21
34.6043281
0
LINE
8
DEFAULT_255_2_778
10
15.5488511
20
34.6043281
11
15.5687511
21
34.6585281
0
LINE
8
DEFAULT_255_2_778
10
15.5687511
20
34.6585281
11
15.5774511
21
34.6905281
0
LINE
8
DEFAULT_255_2_778
10
15.5774511
20
34.6905281
11
15.5845511
21
34.7244281
0
LINE
8
DEFAULT_255_2_778
10
15.5845511
20
34.7244281
11
15.5898511
21
34.7593281
0
LINE
8
DEFAULT_255_2_778
10
15.5898511
20
34.7593281
11
15.5875511
21
34.9112281
0
LINE
8
DEFAULT_255_2_778
10
15.5875511
20
34.9112281
11
15.5793511
21
34.9509281
0
LINE
8
DEFAULT_255_2_778
10
15.5793511
20
34.9509281
11
15.5671511
21
34.9895281
0
LINE
8
DEFAULT_255_2_778
10
15.5671511
20
34.9895281
11
15.5367511
21
35.0493281
0
LINE
8
DEFAULT_255_2_778
10
15.5367511
20
35.0493281
11
15.5031511
21
35.0916281
0
LINE
8
DEFAULT_255_2_778
10
15.5031511
20
35.0916281
11
15.4488511
21
35.1371281
0
LINE
8
DEFAULT_255_2_778
10
15.4488511
20
35.1371281
11
15.3718511
21
35.1726281
0
LINE
8
DEFAULT_255_2_778
10
15.3718511
20
35.1726281
11
15.2504511
21
35.1938281
0
LINE
8
DEFAULT_255_2_778
10
15.2504511
20
35.1938281
11
15.1125511
21
35.1779281
0
LINE
8
DEFAULT_255_2_778
10
15.1125511
20
35.1779281
11
15.0112511
21
35.1255281
0
LINE
8
DEFAULT_255_2_778
10
15.0112511
20
35.1255281
11
14.9107511
21
34.9998281
0
LINE
8
DEFAULT_255_2_778
10
14.9107511
20
34.9998281
11
15.0046511
21
34.9517281
0
LINE
8
DEFAULT_255_2_778
10
15.0046511
20
34.9517281
11
15.0673511
21
35.0337281
0
LINE
8
DEFAULT_255_2_778
10
15.0673511
20
35.0337281
11
15.1731511
21
35.0842281
0
LINE
8
DEFAULT_255_2_778
10
15.1731511
20
35.0842281
11
15.3589511
21
35.0657281
0
LINE
8
DEFAULT_255_2_778
10
15.3589511
20
35.0657281
11
15.4411511
21
34.9996281
0
LINE
8
DEFAULT_255_2_778
10
15.4411511
20
34.9996281
11
15.4681511
21
34.9490281
0
LINE
8
DEFAULT_255_2_778
10
15.4681511
20
34.9490281
11
15.4808511
21
34.9022281
0
LINE
8
DEFAULT_255_2_778
10
15.4808511
20
34.9022281
11
15.4787511
21
34.7429281
0
LINE
8
DEFAULT_255_2_778
10
15.4787511
20
34.7429281
11
15.4658511
21
34.6881281
0
LINE
8
DEFAULT_255_2_778
10
15.4658511
20
34.6881281
11
15.4441511
21
34.6297281
0
LINE
8
DEFAULT_255_2_778
10
15.4441511
20
34.6297281
11
15.3877511
21
34.5299281
0
LINE
8
DEFAULT_255_2_778
10
15.3877511
20
34.5299281
11
15.3096511
21
34.4169281
0
LINE
8
DEFAULT_255_2_778
10
15.3096511
20
34.4169281
11
14.8543511
21
33.8716281
0
LINE
8
DEFAULT_255_2_778
10
14.8543511
20
33.8716281
11
14.8543511
21
33.6795281
0
LINE
8
DEFAULT_255_2_778
10
14.8543511
20
33.6795281
11
15.6565511
21
33.6795281
0
LINE
8
DEFAULT_255_2_778
10
15.6565511
20
33.6795281
11
15.6565511
21
33.7841281
0
LINE
8
DEFAULT_255_2_778
10
21.7117823
20
33.6900812
11
21.8035823
21
33.7422812
0
LINE
8
DEFAULT_255_2_778
10
21.8035823
20
33.7422812
11
21.3712823
21
34.4859812
0
LINE
8
DEFAULT_255_2_778
10
21.3712823
20
34.4859812
11
21.7723823
21
35.1921812
0
LINE
8
DEFAULT_255_2_778
10
21.7723823
20
35.1921812
11
21.6784823
21
35.2442812
0
LINE
8
DEFAULT_255_2_778
10
21.6784823
20
35.2442812
11
21.3085823
21
34.5923812
0
LINE
8
DEFAULT_255_2_778
10
21.3085823
20
34.5923812
11
20.9325823
21
35.2442812
0
LINE
8
DEFAULT_255_2_778
10
20.9325823
20
35.2442812
11
20.8426823
21
35.1921812
0
LINE
8
DEFAULT_255_2_778
10
20.8426823
20
35.1921812
11
21.2500823
21
34.4880812
0
LINE
8
DEFAULT_255_2_778
10
21.2500823
20
34.4880812
11
20.8259823
21
33.7422812
0
LINE
8
DEFAULT_255_2_778
10
20.8259823
20
33.7422812
11
20.9177823
21
33.6900812
0
LINE
8
DEFAULT_255_2_778
10
20.9177823
20
33.6900812
11
21.3104823
21
34.3817812
0
LINE
8
DEFAULT_255_2_778
10
21.3104823
20
34.3817812
11
21.7115823
21
33.6900812
0
LINE
8
DEFAULT_255_2_778
10
7.5946823
20
33.6900812
11
7.6864823
21
33.7422812
0
LINE
8
DEFAULT_255_2_778
10
7.6864823
20
33.7422812
11
7.2541823
21
34.4859812
0
LINE
8
DEFAULT_255_2_778
10
7.2541823
20
34.4859812
11
7.6552823
21
35.1921812
0
LINE
8
DEFAULT_255_2_778
10
7.6552823
20
35.1921812
11
7.5613823
21
35.2442812
0
LINE
8
DEFAULT_255_2_778
10
7.5613823
20
35.2442812
11
7.1914823
21
34.5923812
0
LINE
8
DEFAULT_255_2_778
10
7.1914823
20
34.5923812
11
6.8154823
21
35.2442812
0
LINE
8
DEFAULT_255_2_778
10
6.8154823
20
35.2442812
11
6.7255823
21
35.1921812
0
LINE
8
DEFAULT_255_2_778
10
6.7255823
20
35.1921812
11
7.1329823
21
34.4880812
0
LINE
8
DEFAULT_255_2_778
10
7.1329823
20
34.4880812
11
6.7088823
21
33.7422812
0
LINE
8
DEFAULT_255_2_778
10
6.7088823
20
33.7422812
11
6.8006823
21
33.6900812
0
LINE
8
DEFAULT_255_2_778
10
6.8006823
20
33.6900812
11
7.1933823
21
34.3817812
0
LINE
8
DEFAULT_255_2_778
10
7.1933823
20
34.3817812
11
7.5944823
21
33.6900812
0
ARC
8
DEFAULT_255_2_778
10
9.384786
20
34.1226395
40
0.3415167
50
269.9969979
51
270.6354034
0
ARC
8
DEFAULT_255_2_778
10
9.3852831
20
34.13835
40
0.3572276
50
257.5342425
51
269.9174041
0
ARC
8
DEFAULT_255_2_778
10
9.405636
20
34.0407897
40
0.2808429
50
199.8463419
51
215.8414226
0
ARC
8
DEFAULT_255_2_778
10
9.6525417
20
34.1405905
40
0.5470586
50
193.3533819
51
200.8988863
0
ARC
8
DEFAULT_255_2_778
10
10.4337989
20
34.2743036
40
1.3402983
50
182.0677589
51
188.1608922
0
ARC
8
DEFAULT_255_2_778
10
9.6696411
20
34.7557884
40
0.5676182
50
161.3991066
51
168.6245485
0
ARC
8
DEFAULT_255_2_778
10
9.397125
20
34.860535
40
0.2750126
50
133.9455583
51
149.0080391
0
ARC
8
DEFAULT_255_2_778
10
9.3466652
20
34.9139132
40
0.2015636
50
120.2991536
51
134.147971
0
ARC
8
DEFAULT_255_2_778
10
9.4303406
20
34.9116112
40
0.2027669
50
46.4387334
51
60.2446467
0
ARC
8
DEFAULT_255_2_778
10
9.3557912
20
34.8473004
40
0.3008997
50
27.0508486
51
44.5908529
0
ARC
8
DEFAULT_255_2_778
10
9.3280537
20
34.8303085
40
0.3333397
50
19.6029154
51
27.4837595
0
ARC
8
DEFAULT_255_2_778
10
8.9863145
20
34.179613
40
0.6901449
50
344.6605355
51
352.1995221
0
ARC
8
DEFAULT_255_2_778
10
9.3013331
20
34.0791583
40
0.359184
50
332.2728604
51
339.5467267
0
ARC
8
DEFAULT_255_2_778
10
9.3862468
20
34.0380351
40
0.3759431
50
313.656588
51
330.2601692
0
ARC
8
DEFAULT_255_2_778
10
9.0451217
20
34.1697537
40
0.7430532
50
342.8336573
51
351.0725453
0
ARC
8
DEFAULT_255_2_778
10
9.1699943
20
34.7752713
40
0.6132715
50
12.3504096
51
22.3063526
0
ARC
8
DEFAULT_255_2_778
10
9.3617911
20
34.8499502
40
0.4074992
50
22.8276661
51
30.3976092
0
ARC
8
DEFAULT_255_2_778
10
9.3843068
20
34.7568845
40
0.4728743
50
89.5436242
51
89.9969099
0
ARC
8
DEFAULT_255_2_778
10
9.3843517
20
34.7628493
40
0.4669095
50
90.0023782
51
103.2957061
0
ARC
8
DEFAULT_255_2_778
10
9.9319015
20
34.6928625
40
0.9499284
50
167.0932122
51
173.5032556
0
ARC
8
DEFAULT_255_2_778
10
9.7599624
20
34.1755463
40
0.7748587
50
189.0140662
51
196.9270007
0
ARC
8
DEFAULT_255_2_778
10
9.3753933
20
34.033711
40
0.3641358
50
210.0725664
51
227.1976312
0
ARC
8
DEFAULT_255_2_778
10
9.3398724
20
33.9813717
40
0.3017486
50
225.3932323
51
238.6255478
0
ARC
8
DEFAULT_255_2_778
10
9.428541
20
33.9868152
40
0.309165
50
301.4769774
51
314.4313831
0
ARC
8
DEFAULT_255_2_778
10
8.2935764
20
34.0356151
40
0.2274295
50
210.922591
51
217.2213865
0
ARC
8
DEFAULT_255_2_778
10
8.3240979
20
34.0481687
40
0.2601101
50
199.0096386
51
209.8398523
0
ARC
8
DEFAULT_255_2_778
10
8.3363139
20
34.0545571
40
0.2737484
50
190.1720607
51
199.4409858
0
ARC
8
DEFAULT_255_2_778
10
8.5436133
20
34.0970349
40
0.485319
50
190.2058096
51
190.7859734
0
ARC
8
DEFAULT_255_2_778
10
8.4038039
20
34.0723438
40
0.3433471
50
184.4098217
51
190.2845183
0
ARC
8
DEFAULT_255_2_778
10
8.3503498
20
34.1273179
40
0.2879456
50
161.3195611
51
168.3133591
0
ARC
8
DEFAULT_255_2_778
10
8.3386893
20
34.1312505
40
0.2756397
50
153.9396671
51
161.3176355
0
ARC
8
DEFAULT_255_2_778
10
8.289565
20
34.1553448
40
0.2209248
50
144.7838641
51
153.9561389
0
ARC
8
DEFAULT_255_2_778
10
8.294681
20
34.1526924
40
0.2266354
50
136.0290745
51
144.9818812
0
ARC
8
DEFAULT_255_2_778
10
8.3771841
20
34.0698837
40
0.3435135
50
129.6318246
51
135.6428701
0
ARC
8
DEFAULT_255_2_778
10
8.3843196
20
34.047407
40
0.3654826
50
117.0036337
51
128.2456501
0
ARC
8
DEFAULT_255_2_778
10
8.3629502
20
34.1123845
40
0.2841853
50
43.6221697
51
55.9492213
0
ARC
8
DEFAULT_255_2_778
10
8.4021551
20
34.1468763
40
0.2320181
50
36.5792735
51
44.1355034
0
ARC
8
DEFAULT_255_2_778
10
8.4005078
20
34.1457868
40
0.2339902
50
29.1446511
51
36.5531302
0
ARC
8
DEFAULT_255_2_778
10
8.3888984
20
34.1362227
40
0.2488024
50
22.8515508
51
29.7662539
0
ARC
8
DEFAULT_255_2_778
10
8.3694408
20
34.1298268
40
0.2692218
50
16.04637
51
22.4977652
0
ARC
8
DEFAULT_255_2_778
10
8.3142852
20
34.1112227
40
0.3273816
50
6.000079
51
16.507257
0
ARC
8
DEFAULT_255_2_778
10
8.2002124
20
34.0674834
40
0.4402822
50
346.6929542
51
354.5078009
0
ARC
8
DEFAULT_255_2_778
10
8.4017436
20
34.0028275
40
0.2282659
50
328.0233228
51
335.6314076
0
ARC
8
DEFAULT_255_2_778
10
8.4584785
20
33.9655085
40
0.1603847
50
317.7368178
51
328.5988765
0
ARC
8
DEFAULT_255_2_778
10
8.4045194
20
34.0169276
40
0.2349057
50
309.796344
51
317.3065726
0
ARC
8
DEFAULT_255_2_778
10
8.4410976
20
33.9743981
40
0.1788192
50
299.6182234
51
309.5135983
0
ARC
8
DEFAULT_255_2_778
10
8.4226488
20
34.000656
40
0.2107861
50
292.0183669
51
300.4503197
0
ARC
8
DEFAULT_255_2_778
10
8.4011313
20
34.0430428
40
0.2581802
50
286.0641533
51
292.9187566
0
ARC
8
DEFAULT_255_2_778
10
8.3743887
20
34.1257325
40
0.3450526
50
276.2700058
51
286.5319238
0
ARC
8
DEFAULT_255_2_778
10
8.3491129
20
34.1642174
40
0.3849743
50
262.6065098
51
270.1131675
0
ARC
8
DEFAULT_255_2_778
10
8.3410653
20
34.0862173
40
0.3065941
50
252.7941956
51
262.2221786
0
ARC
8
DEFAULT_255_2_778
10
8.3190371
20
34.0178245
40
0.2347569
50
240.6782124
51
246.8044685
0
ARC
8
DEFAULT_255_2_778
10
8.31326
20
34.0080042
40
0.2233658
50
234.286239
51
240.7366486
0
ARC
8
DEFAULT_255_2_778
10
8.2714003
20
33.9558028
40
0.1565856
50
226.3279239
51
235.5728089
0
ARC
8
DEFAULT_255_2_778
10
8.4435309
20
33.9820472
40
0.2912168
50
316.2437015
51
322.9889877
0
ARC
8
DEFAULT_255_2_778
10
8.4298507
20
33.9902348
40
0.3070741
50
323.3056428
51
329.7726646
0
ARC
8
DEFAULT_255_2_778
10
8.397126
20
34.0087889
40
0.3446903
50
329.8463574
51
341.2240253
0
ARC
8
DEFAULT_255_2_778
10
8.1216157
20
34.080923
40
0.6305415
50
349.2899536
51
355.453747
0
ARC
8
DEFAULT_255_2_778
10
8.27555
20
34.1025802
40
0.4772421
50
359.4914002
51
0.0052798
0
ARC
8
DEFAULT_255_2_778
10
8.2228701
20
34.1017104
40
0.5299229
50
0.0987925
51
6.972996
0
ARC
8
DEFAULT_255_2_778
10
8.4300782
20
34.1628429
40
0.3083816
50
31.9745113
51
38.3645542
0
ARC
8
DEFAULT_255_2_778
10
8.374081
20
34.123036
40
0.3770111
50
37.8259938
51
48.2810442
0
ARC
8
DEFAULT_255_2_778
10
8.2619008
20
33.9690672
40
0.5672744
50
57.2269975
51
64.2810795
0
ARC
8
DEFAULT_255_2_778
10
8.2734935
20
34.9287323
40
0.5062206
50
297.6063672
51
308.4060737
0
ARC
8
DEFAULT_255_2_778
10
8.3056166
20
34.8891104
40
0.4552163
50
308.335812
51
314.2871078
0
ARC
8
DEFAULT_255_2_778
10
8.3448183
20
34.8531725
40
0.4017378
50
320.6491768
51
327.4026829
0
ARC
8
DEFAULT_255_2_778
10
8.3576078
20
34.8426307
40
0.3852888
50
327.6987784
51
334.7113898
0
ARC
8
DEFAULT_255_2_778
10
8.3902209
20
34.8275788
40
0.3495637
50
342.4279569
51
350.0942138
0
ARC
8
DEFAULT_255_2_778
10
8.3952175
20
34.8252818
40
0.3442493
50
350.3277662
51
358.0793068
0
ARC
8
DEFAULT_255_2_778
10
8.2130288
20
34.8360642
40
0.5261284
50
2.6995241
51
12.9023994
0
ARC
8
DEFAULT_255_2_778
10
8.3437677
20
34.8631363
40
0.3926553
50
13.3115859
51
20.1571463
0
ARC
8
DEFAULT_255_2_778
10
8.3946254
20
34.8810706
40
0.3387333
50
20.2737817
51
28.3353169
0
ARC
8
DEFAULT_255_2_778
10
8.4464142
20
34.9101608
40
0.2793443
50
28.125253
51
37.9223665
0
ARC
8
DEFAULT_255_2_778
10
8.4373798
20
34.9056556
40
0.2892467
50
37.5264613
51
47.1007492
0
ARC
8
DEFAULT_255_2_778
10
8.4052069
20
34.868499
40
0.3383707
50
47.392774
51
61.92116
0
ARC
8
DEFAULT_255_2_778
10
8.3763375
20
34.7920179
40
0.4201928
50
69.2842263
51
75.1859907
0
ARC
8
DEFAULT_255_2_778
10
8.3472511
20
34.6887593
40
0.5256355
50
89.2018359
51
90.0050824
0
ARC
8
DEFAULT_255_2_778
10
8.3482896
20
34.5695944
40
0.6448013
50
90.0964208
51
93.2732046
0
ARC
8
DEFAULT_255_2_778
10
8.3174819
20
34.8187543
40
0.3927468
50
103.5035445
51
116.1688737
0
ARC
8
DEFAULT_255_2_778
10
8.2970857
20
34.8634483
40
0.3436678
50
123.6459618
51
130.7896066
0
ARC
8
DEFAULT_255_2_778
10
8.2568726
20
34.9072932
40
0.2842074
50
130.4261727
51
139.0016372
0
ARC
8
DEFAULT_255_2_778
10
8.2585072
20
34.9075785
40
0.2852567
50
139.2602733
51
147.8572191
0
ARC
8
DEFAULT_255_2_778
10
8.2990075
20
34.8853553
40
0.331384
50
148.3293169
51
163.0178443
0
ARC
8
DEFAULT_255_2_778
10
8.40603
20
34.8536057
40
0.4430139
50
163.1333779
51
174.0870432
0
ARC
8
DEFAULT_255_2_778
10
8.3399748
20
34.8253947
40
0.3776489
50
181.6009446
51
194.3895576
0
ARC
8
DEFAULT_255_2_778
10
8.3452217
20
34.8317776
40
0.3845276
50
201.4686048
51
207.7991919
0
ARC
8
DEFAULT_255_2_778
10
8.2860233
20
34.8030064
40
0.3187506
50
208.1870783
51
215.8236881
0
ARC
8
DEFAULT_255_2_778
10
8.4014621
20
34.0094545
40
0.5161321
50
113.7037192
51
119.6190905
0
ARC
8
DEFAULT_255_2_778
10
8.3005814
20
34.1535789
40
0.3402591
50
125.7731985
51
137.4110365
0
ARC
8
DEFAULT_255_2_778
10
8.3554074
20
34.1185093
40
0.4054576
50
148.750985
51
158.4188899
0
ARC
8
DEFAULT_255_2_778
10
8.4242106
20
34.1093087
40
0.4748406
50
168.7009895
51
176.881109
0
ARC
8
DEFAULT_255_2_778
10
8.4710229
20
34.0630662
40
0.5195597
50
187.0337714
51
194.5267709
0
ARC
8
DEFAULT_255_2_778
10
8.2433839
20
33.9716196
40
0.2728169
50
209.3876982
51
216.6040772
0
ARC
8
DEFAULT_255_2_778
10
8.2412416
20
33.9688084
40
0.2694226
50
216.3958091
51
223.7662834
0
ARC
8
DEFAULT_255_2_778
10
8.2717841
20
33.9918516
40
0.3067164
50
235.8427648
51
242.397827
0
ARC
8
DEFAULT_255_2_778
10
8.3025268
20
34.0506498
40
0.3730665
50
242.397704
51
253.1798816
0
ARC
8
DEFAULT_255_2_778
10
8.3291994
20
34.1400257
40
0.466337
50
253.2205486
51
261.8108045
0
ARC
8
DEFAULT_255_2_778
10
8.3438463
20
34.2308187
40
0.5582928
50
261.650222
51
268.8224852
0
ARC
8
DEFAULT_255_2_778
10
8.3621197
20
34.2075901
40
0.5345715
50
274.3292471
51
281.8148735
0
ARC
8
DEFAULT_255_2_778
10
8.4133631
20
34.0229032
40
0.3422632
50
291.4946682
51
303.1798995
0
ARC
8
DEFAULT_255_2_778
10
8.5559346
20
34.8326871
40
0.4828743
50
179.9968357
51
180.420436
0
ARC
8
DEFAULT_255_2_778
10
8.5500432
20
34.8329892
40
0.476983
50
170.5938046
51
180.0330838
0
ARC
8
DEFAULT_255_2_778
10
8.529956
20
34.8307644
40
0.4575625
50
168.1959086
51
169.9078513
0
ARC
8
DEFAULT_255_2_778
10
8.3561531
20
34.8679833
40
0.2798228
50
162.7110768
51
168.3756228
0
ARC
8
DEFAULT_255_2_778
10
8.3184691
20
34.8799948
40
0.2402717
50
152.9014611
51
162.7753294
0
ARC
8
DEFAULT_255_2_778
10
8.2697097
20
34.9056518
40
0.185049
50
140.1837146
51
146.627382
0
ARC
8
DEFAULT_255_2_778
10
8.2826959
20
34.8915599
40
0.2040626
50
133.6376267
51
139.4793424
0
ARC
8
DEFAULT_255_2_778
10
8.2779803
20
34.8887444
40
0.2029168
50
126.2221195
51
132.1251964
0
ARC
8
DEFAULT_255_2_778
10
8.3134236
20
34.8331855
40
0.2693891
50
107.3313553
51
116.3217692
0
ARC
8
DEFAULT_255_2_778
10
8.3388514
20
34.7393666
40
0.366673
50
93.5302592
51
100.1120455
0
ARC
8
DEFAULT_255_2_778
10
8.3630147
20
34.7414904
40
0.3642263
50
77.399176
51
84.0337529
0
ARC
8
DEFAULT_255_2_778
10
8.3956987
20
34.8506901
40
0.249796
50
59.8736774
51
69.5503763
0
ARC
8
DEFAULT_255_2_778
10
8.4383902
20
34.9082813
40
0.1780675
50
35.6021077
51
48.8889369
0
ARC
8
DEFAULT_255_2_778
10
8.4177989
20
34.8929022
40
0.2037636
50
24.0503291
51
35.7474988
0
ARC
8
DEFAULT_255_2_778
10
8.3427263
20
34.8615257
40
0.2851128
50
15.4218218
51
23.6599934
0
ARC
8
DEFAULT_255_2_778
10
8.3388391
20
34.8595513
40
0.2893863
50
7.4640685
51
15.5940069
0
ARC
8
DEFAULT_255_2_778
10
8.3964856
20
34.8243504
40
0.2341251
50
337.6824732
51
347.7423883
0
ARC
8
DEFAULT_255_2_778
10
8.3482044
20
34.8518498
40
0.2898975
50
319.9061704
51
328.1202543
0
ARC
8
DEFAULT_255_2_778
10
8.2937849
20
34.8970924
40
0.3606662
50
313.3080245
51
319.9757888
0
ARC
8
DEFAULT_255_2_778
10
8.2631409
20
34.9334965
40
0.4081849
50
307.1021132
51
312.9330476
0
ARC
8
DEFAULT_255_2_778
10
8.3057143
20
34.8789958
40
0.3390371
50
299.8518958
51
306.9199288
0
ARC
8
DEFAULT_255_2_778
10
8.229312
20
35.0178955
40
0.4980053
50
284.9485574
51
294.6697705
0
ARC
8
DEFAULT_255_2_778
10
8.3586396
20
34.8590037
40
0.3001299
50
224.4186644
51
235.9456957
0
ARC
8
DEFAULT_255_2_778
10
8.323682
20
34.8226808
40
0.2497439
50
212.5951691
51
224.0798776
0
ARC
8
DEFAULT_255_2_778
10
8.2977923
20
34.8052554
40
0.218546
50
205.8854882
51
212.4027032
0
ARC
8
DEFAULT_255_2_778
10
8.40977
20
34.8368129
40
0.335996
50
181.3931681
51
189.7964268
0
ARC
8
DEFAULT_255_2_778
10
22.4018942
20
33.9866641
40
0.21477
50
209.8262201
51
216.6894635
0
ARC
8
DEFAULT_255_2_778
10
22.447445
20
34.0096491
40
0.2657327
50
198.3834065
51
209.2407571
0
ARC
8
DEFAULT_255_2_778
10
22.4893224
20
34.0248711
40
0.3102761
50
189.2411485
51
198.6120426
0
ARC
8
DEFAULT_255_2_778
10
22.5558342
20
34.0434417
40
0.3789841
50
188.5615572
51
190.3975367
0
ARC
8
DEFAULT_255_2_778
10
22.5381796
20
34.0408198
40
0.361136
50
184.7294533
51
188.5672024
0
ARC
8
DEFAULT_255_2_778
10
22.5003815
20
34.0899241
40
0.3218444
50
161.8943273
51
168.3447564
0
ARC
8
DEFAULT_255_2_778
10
22.4383257
20
34.1114795
40
0.2561653
50
154.0574983
51
162.1633882
0
ARC
8
DEFAULT_255_2_778
10
22.4264673
20
34.1182819
40
0.2425278
50
145.7596829
51
154.2770383
0
ARC
8
DEFAULT_255_2_778
10
22.4445541
20
34.1047472
40
0.2650972
50
137.7342297
51
145.5409251
0
ARC
8
DEFAULT_255_2_778
10
22.4388943
20
34.106832
40
0.2595166
50
129.1996724
51
137.2344128
0
ARC
8
DEFAULT_255_2_778
10
22.5061118
20
34.0239932
40
0.3661956
50
117.8264915
51
129.1580471
0
ARC
8
DEFAULT_255_2_778
10
22.6549318
20
33.689094
40
0.7335897
50
104.52278
51
110.2042712
0
ARC
8
DEFAULT_255_2_778
10
22.4602346
20
34.0697814
40
0.3090849
50
43.2201668
51
54.6700839
0
ARC
8
DEFAULT_255_2_778
10
22.508814
20
34.1153064
40
0.2425081
50
35.852592
51
43.241915
0
ARC
8
DEFAULT_255_2_778
10
22.5067859
20
34.114804
40
0.2444475
50
28.4199292
51
35.6696199
0
ARC
8
DEFAULT_255_2_778
10
22.4751214
20
34.096611
40
0.2809559
50
22.3490164
51
28.6096392
0
ARC
8
DEFAULT_255_2_778
10
22.4799402
20
34.0993947
40
0.2754417
50
15.7247465
51
22.194616
0
ARC
8
DEFAULT_255_2_778
10
22.4189347
20
34.0802039
40
0.3393705
50
5.6209051
51
16.0521317
0
ARC
8
DEFAULT_255_2_778
10
22.2515131
20
34.0392435
40
0.5062663
50
347.3929191
51
354.4117446
0
ARC
8
DEFAULT_255_2_778
10
22.5236515
20
33.9556161
40
0.2203296
50
328.8803455
51
337.0049146
0
ARC
8
DEFAULT_255_2_778
10
22.5734683
20
33.9237232
40
0.1612063
50
318.3760825
51
329.4335595
0
ARC
8
DEFAULT_255_2_778
10
22.556137
20
33.9354509
40
0.1819724
50
309.4541276
51
319.2405231
0
ARC
8
DEFAULT_255_2_778
10
22.5498858
20
33.9391183
40
0.1887931
50
300.7354844
51
310.2117405
0
ARC
8
DEFAULT_255_2_778
10
22.5003899
20
34.0283297
40
0.2907856
50
293.9806332
51
300.1344551
0
ARC
8
DEFAULT_255_2_778
10
22.5265511
20
33.9718035
40
0.2285079
50
285.905307
51
293.7476443
0
ARC
8
DEFAULT_255_2_778
10
22.4867738
20
34.0953347
40
0.3582377
50
276.7005809
51
286.6091999
0
ARC
8
DEFAULT_255_2_778
10
22.465822
20
34.1047064
40
0.3685627
50
262.2111469
51
270.0546165
0
ARC
8
DEFAULT_255_2_778
10
22.4540851
20
34.0187321
40
0.2817911
50
251.9928259
51
262.2065013
0
ARC
8
DEFAULT_255_2_778
10
22.4338514
20
33.9665178
40
0.2258746
50
239.929445
51
246.3309403
0
ARC
8
DEFAULT_255_2_778
10
22.4333591
20
33.9673394
40
0.2263405
50
233.7348005
51
240.1415217
0
ARC
8
DEFAULT_255_2_778
10
22.4372442
20
33.9725454
40
0.2328362
50
227.4769459
51
233.7217323
0
ARC
8
DEFAULT_255_2_778
10
22.5587718
20
33.9345473
40
0.2896192
50
317.1125138
51
324.0318818
0
ARC
8
DEFAULT_255_2_778
10
22.5524717
20
33.9407237
40
0.2983486
50
323.7825
51
330.551615
0
ARC
8
DEFAULT_255_2_778
10
22.4843789
20
33.9771057
40
0.3755348
50
330.8255891
51
341.5317046
0
ARC
8
DEFAULT_255_2_778
10
22.1957915
20
34.047415
40
0.6734901
50
349.6265297
51
355.5742648
0
ARC
8
DEFAULT_255_2_778
10
22.371111
20
34.0693746
40
0.4987811
50
359.5025099
51
0.0052982
0
ARC
8
DEFAULT_255_2_778
10
22.3439836
20
34.0693303
40
0.5259085
50
0.009857
51
2.0634303
0
ARC
8
DEFAULT_255_2_778
10
22.2916468
20
34.0670107
40
0.578295
50
2.1063896
51
6.7162602
0
ARC
8
DEFAULT_255_2_778
10
22.510799
20
34.1160927
40
0.3500235
50
31.6468552
51
37.3701908
0
ARC
8
DEFAULT_255_2_778
10
22.4767479
20
34.0940502
40
0.3904766
50
36.9080032
51
47.176104
0
ARC
8
DEFAULT_255_2_778
10
22.4789016
20
34.0888194
40
0.3928827
50
47.9250126
51
53.0859544
0
ARC
8
DEFAULT_255_2_778
10
22.3772822
20
33.9576602
40
0.5585104
50
56.4349553
51
63.6506462
0
ARC
8
DEFAULT_255_2_778
10
22.3880392
20
34.9008901
40
0.5022517
50
298.1734262
51
309.1405905
0
ARC
8
DEFAULT_255_2_778
10
22.4055555
20
34.8761938
40
0.4720449
50
309.3837421
51
315.2118084
0
ARC
8
DEFAULT_255_2_778
10
22.4433271
20
34.8406403
40
0.4199591
50
321.6278992
51
328.2326559
0
ARC
8
DEFAULT_255_2_778
10
22.4587075
20
34.8297414
40
0.4011465
50
328.3995978
51
335.2730134
0
ARC
8
DEFAULT_255_2_778
10
22.4809898
20
34.8170114
40
0.3759936
50
343.0099359
51
350.3592666
0
ARC
8
DEFAULT_255_2_778
10
22.4739307
20
34.8160876
40
0.382804
50
350.6725177
51
357.882563
0
ARC
8
DEFAULT_255_2_778
10
22.3007778
20
34.8250928
40
0.5554789
50
2.6261084
51
12.5553034
0
ARC
8
DEFAULT_255_2_778
10
22.4381115
20
34.8529135
40
0.4153904
50
12.9275162
51
19.5834602
0
ARC
8
DEFAULT_255_2_778
10
22.5017564
20
34.8750943
40
0.3479928
50
19.6550271
51
27.6977419
0
ARC
8
DEFAULT_255_2_778
10
22.5482783
20
34.9002726
40
0.2950994
50
27.5677699
51
36.9941565
0
ARC
8
DEFAULT_255_2_778
10
22.5389842
20
34.8936558
40
0.3065043
50
36.9366342
51
46.1367031
0
ARC
8
DEFAULT_255_2_778
10
22.519246
20
34.8690501
40
0.337934
50
46.6146869
51
61.2916093
0
ARC
8
DEFAULT_255_2_778
10
22.4841511
20
34.7808675
40
0.4329088
50
68.6051412
51
74.3581614
0
ARC
8
DEFAULT_255_2_778
10
22.492744
20
34.8017111
40
0.4105288
50
74.7286689
51
80.7867805
0
ARC
8
DEFAULT_255_2_778
10
22.4335122
20
34.8292404
40
0.3817206
50
103.7359824
51
116.8049803
0
ARC
8
DEFAULT_255_2_778
10
22.4043383
20
34.8817084
40
0.3212772
50
124.1957725
51
131.9253162
0
ARC
8
DEFAULT_255_2_778
10
22.4004349
20
34.8852124
40
0.3160626
50
131.8232663
51
139.6749512
0
ARC
8
DEFAULT_255_2_778
10
22.3779769
20
34.9061515
40
0.2853944
50
139.9621558
51
148.7177302
0
ARC
8
DEFAULT_255_2_778
10
22.4263484
20
34.8788677
40
0.3409056
50
149.02023
51
163.6833076
0
ARC
8
DEFAULT_255_2_778
10
22.53725
20
34.84454
40
0.4569882
50
163.4591675
51
174.3609877
0
ARC
8
DEFAULT_255_2_778
10
22.4858998
20
34.8144685
40
0.4064985
50
181.666913
51
193.8814555
0
ARC
8
DEFAULT_255_2_778
10
22.464802
20
34.8122993
40
0.3854428
50
200.797147
51
207.2619109
0
ARC
8
DEFAULT_255_2_778
10
22.4077243
20
34.7835489
40
0.3215365
50
207.3666941
51
215.1043321
0
ARC
8
DEFAULT_255_2_778
10
22.4767708
20
34.8396286
40
0.4107993
50
222.038733
51
228.1463917
0
ARC
8
DEFAULT_255_2_778
10
22.5057408
20
34.0258986
40
0.4759427
50
114.1033798
51
120.55707
0
ARC
8
DEFAULT_255_2_778
10
22.4239742
20
34.1300516
40
0.3439793
50
126.5609651
51
138.2181225
0
ARC
8
DEFAULT_255_2_778
10
22.4878239
20
34.0892985
40
0.4198897
50
149.4627483
51
159.0189565
0
ARC
8
DEFAULT_255_2_778
10
22.5714408
20
34.0765255
40
0.5044702
50
169.0392297
51
176.9753828
0
ARC
8
DEFAULT_255_2_778
10
22.6031758
20
34.0264625
40
0.5340977
50
186.7437522
51
194.2332543
0
ARC
8
DEFAULT_255_2_778
10
22.3915334
20
33.9450431
40
0.3066404
50
208.8584698
51
215.4615303
0
ARC
8
DEFAULT_255_2_778
10
22.3683453
20
33.9287128
40
0.2782793
50
215.4927436
51
222.7423523
0
ARC
8
DEFAULT_255_2_778
10
22.3872775
20
33.946201
40
0.3040527
50
222.7412692
51
229.341757
0
ARC
8
DEFAULT_255_2_778
10
22.3906259
20
33.9473037
40
0.3070762
50
229.0018493
51
235.5627441
0
ARC
8
DEFAULT_255_2_778
10
22.4197811
20
33.9962059
40
0.3642144
50
241.6932056
51
252.765964
0
ARC
8
DEFAULT_255_2_778
10
22.4480307
20
34.0842556
40
0.4566813
50
252.6537662
51
261.4548925
0
ARC
8
DEFAULT_255_2_778
10
22.4648113
20
34.2277998
40
0.601144
50
261.9061554
51
268.5665604
0
ARC
8
DEFAULT_255_2_778
10
22.4777795
20
34.1600211
40
0.5329422
50
274.5301551
51
282.0097681
0
ARC
8
DEFAULT_255_2_778
10
22.510769
20
34.0082922
40
0.3776386
50
292.596648
51
303.2405001
0
ARC
8
DEFAULT_255_2_778
10
22.7015811
20
34.8216905
40
0.5114208
50
179.9969079
51
180.4085419
0
ARC
8
DEFAULT_255_2_778
10
22.6931657
20
34.8220767
40
0.5030056
50
170.8408421
51
180.0408477
0
ARC
8
DEFAULT_255_2_778
10
22.6966838
20
34.8155858
40
0.5075459
50
168.8188294
51
170.1806512
0
ARC
8
DEFAULT_255_2_778
10
22.4814694
20
34.8595116
40
0.2879021
50
163.0503883
51
169.0893546
0
ARC
8
DEFAULT_255_2_778
10
22.4476012
20
34.8706018
40
0.2522731
50
153.5815939
51
163.2172877
0
ARC
8
DEFAULT_255_2_778
10
22.3510731
20
34.9409683
40
0.1311524
50
127.7947703
51
134.729456
0
ARC
8
DEFAULT_255_2_778
10
20.1166542
20
37.7433776
40
3.4530092
50
308.5953739
51
308.6840643
0
ARC
8
DEFAULT_255_2_778
10
22.4312813
20
34.8338529
40
0.2657356
50
107.8167374
51
116.9435331
0
ARC
8
DEFAULT_255_2_778
10
22.4556202
20
34.7571247
40
0.3460543
50
93.735697
51
100.7161964
0
ARC
8
DEFAULT_255_2_778
10
22.4791214
20
34.7401232
40
0.3627856
50
77.236064
51
83.8839822
0
ARC
8
DEFAULT_255_2_778
10
22.506718
20
34.8414201
40
0.2575242
50
59.3832734
51
68.817133
0
ARC
8
DEFAULT_255_2_778
10
22.5541666
20
34.9053927
40
0.177312
50
34.6257741
51
48.233609
0
ARC
8
DEFAULT_255_2_778
10
22.5285754
20
34.8864267
40
0.20915
50
23.2966665
51
34.9176583
0
ARC
8
DEFAULT_255_2_778
10
22.4617036
20
34.8574188
40
0.2820422
50
14.7324819
51
23.3364059
0
ARC
8
DEFAULT_255_2_778
10
22.3836157
20
34.8382576
40
0.3624381
50
7.8315481
51
14.5226902
0
ARC
8
DEFAULT_255_2_778
10
22.4820617
20
34.8181318
40
0.2662812
50
338.593503
51
347.6423077
0
ARC
8
DEFAULT_255_2_778
10
22.4505827
20
34.8413417
40
0.3049028
50
320.8023413
51
328.7230778
0
ARC
8
DEFAULT_255_2_778
10
22.4018147
20
34.8837038
40
0.3694748
50
313.8922836
51
320.4909344
0
ARC
8
DEFAULT_255_2_778
10
22.3860614
20
34.9025353
40
0.3940445
50
301.3848199
51
307.506005
0
ARC
8
DEFAULT_255_2_778
10
22.3682753
20
34.935306
40
0.4312874
50
295.5035435
51
301.1347211
0
ARC
8
DEFAULT_255_2_778
10
22.3353315
20
35.0107692
40
0.5135892
50
285.7422255
51
295.1958216
0
ARC
8
DEFAULT_255_2_778
10
22.4849625
20
34.8451825
40
0.3085567
50
223.5620193
51
234.9300749
0
ARC
8
DEFAULT_255_2_778
10
22.4489535
20
34.809248
40
0.2577027
50
211.9849366
51
223.2898959
0
ARC
8
DEFAULT_255_2_778
10
22.5628243
20
34.82761
40
0.3719819
50
181.5198437
51
189.3394034
0
LINE
8
DEFAULT_255_2_778
10
9.3081733
20
33.7895439
11
9.2695733
21
33.8017439
0
LINE
8
DEFAULT_255_2_778
10
9.2695733
20
33.8017439
11
9.2340733
21
33.8205439
0
LINE
8
DEFAULT_255_2_778
10
9.2340733
20
33.8205439
11
9.2179733
21
33.8327439
0
LINE
8
DEFAULT_255_2_778
10
9.2179733
20
33.8327439
11
9.2033733
21
33.8462439
0
LINE
8
DEFAULT_255_2_778
10
9.2033733
20
33.8462439
11
9.1779733
21
33.8763439
0
LINE
8
DEFAULT_255_2_778
10
9.1202733
20
34.0142439
11
9.1070733
21
34.0840439
0
LINE
8
DEFAULT_255_2_778
10
9.0943733
20
34.2259439
11
9.0933733
21
34.2616439
0
LINE
8
DEFAULT_255_2_778
10
9.0933733
20
34.2616439
11
9.0925733
21
34.2973439
0
LINE
8
DEFAULT_255_2_778
10
9.0925733
20
34.2973439
11
9.0914733
21
34.3687439
0
LINE
8
DEFAULT_255_2_778
10
9.0914733
20
34.3687439
11
9.0911733
21
34.4402439
0
LINE
8
DEFAULT_255_2_778
10
9.0911733
20
34.4402439
11
9.0911733
21
34.5116439
0
LINE
8
DEFAULT_255_2_778
10
9.0911733
20
34.5116439
11
9.0933733
21
34.6545439
0
LINE
8
DEFAULT_255_2_778
10
9.0933733
20
34.6545439
11
9.1025733
21
34.7971439
0
LINE
8
DEFAULT_255_2_778
10
9.1025733
20
34.7971439
11
9.1070733
21
34.8326439
0
LINE
8
DEFAULT_255_2_778
10
9.1070733
20
34.8326439
11
9.1131733
21
34.8677439
0
LINE
8
DEFAULT_255_2_778
10
9.1316733
20
34.9368439
11
9.1446733
21
34.9701439
0
LINE
8
DEFAULT_255_2_778
10
9.1446733
20
34.9701439
11
9.1613733
21
35.0021439
0
LINE
8
DEFAULT_255_2_778
10
9.2449733
20
35.0879439
11
9.2668733
21
35.0987439
0
LINE
8
DEFAULT_255_2_778
10
9.2668733
20
35.0987439
11
9.2901733
21
35.1072439
0
LINE
8
DEFAULT_255_2_778
10
9.2901733
20
35.1072439
11
9.3142733
21
35.1133439
0
LINE
8
DEFAULT_255_2_778
10
9.3142733
20
35.1133439
11
9.3388733
21
35.1172439
0
LINE
8
DEFAULT_255_2_778
10
9.3388733
20
35.1172439
11
9.3880733
21
35.1202439
0
LINE
8
DEFAULT_255_2_778
10
9.3880733
20
35.1202439
11
9.4372733
21
35.1172439
0
LINE
8
DEFAULT_255_2_778
10
9.4372733
20
35.1172439
11
9.4856733
21
35.1069439
0
LINE
8
DEFAULT_255_2_778
10
9.4856733
20
35.1069439
11
9.5087733
21
35.0985439
0
LINE
8
DEFAULT_255_2_778
10
9.5087733
20
35.0985439
11
9.5309733
21
35.0876439
0
LINE
8
DEFAULT_255_2_778
10
9.6420733
20
34.9421439
11
9.6555733
21
34.8987439
0
LINE
8
DEFAULT_255_2_778
10
9.6555733
20
34.8987439
11
9.6653733
21
34.8545439
0
LINE
8
DEFAULT_255_2_778
10
9.6653733
20
34.8545439
11
9.6722733
21
34.8098439
0
LINE
8
DEFAULT_255_2_778
10
9.6722733
20
34.8098439
11
9.6804733
21
34.7193439
0
LINE
8
DEFAULT_255_2_778
10
9.6804733
20
34.7193439
11
9.6825733
21
34.6741439
0
LINE
8
DEFAULT_255_2_778
10
9.6825733
20
34.6741439
11
9.6835733
21
34.6288439
0
LINE
8
DEFAULT_255_2_778
10
9.6835733
20
34.6288439
11
9.6849733
21
34.5383439
0
LINE
8
DEFAULT_255_2_778
10
9.6849733
20
34.5383439
11
9.6854733
21
34.4476439
0
LINE
8
DEFAULT_255_2_778
10
9.6854733
20
34.4476439
11
9.6851733
21
34.3571439
0
LINE
8
DEFAULT_255_2_778
10
9.6851733
20
34.3571439
11
9.6835733
21
34.2666439
0
LINE
8
DEFAULT_255_2_778
10
9.6835733
20
34.2666439
11
9.6822733
21
34.2214439
0
LINE
8
DEFAULT_255_2_778
10
9.6822733
20
34.2214439
11
9.6796733
21
34.1761439
0
LINE
8
DEFAULT_255_2_778
10
9.6796733
20
34.1761439
11
9.6700733
21
34.0859439
0
LINE
8
DEFAULT_255_2_778
10
9.6518733
20
33.9970439
11
9.6378733
21
33.9536439
0
LINE
8
DEFAULT_255_2_778
10
9.6192733
20
33.9120439
11
9.5949733
21
33.8734439
0
LINE
8
DEFAULT_255_2_778
10
9.5949733
20
33.8734439
11
9.5801733
21
33.8554439
0
LINE
8
DEFAULT_255_2_778
10
9.5801733
20
33.8554439
11
9.5640733
21
33.8388439
0
LINE
8
DEFAULT_255_2_778
10
9.5640733
20
33.8388439
11
9.5460733
21
33.8239439
0
LINE
8
DEFAULT_255_2_778
10
9.5460733
20
33.8239439
11
9.5259733
21
33.8112439
0
LINE
8
DEFAULT_255_2_778
10
9.5259733
20
33.8112439
11
9.4822733
21
33.7930439
0
LINE
8
DEFAULT_255_2_778
10
9.4822733
20
33.7930439
11
9.4589733
21
33.7872439
0
LINE
8
DEFAULT_255_2_778
10
9.4589733
20
33.7872439
11
9.4354733
21
33.7832439
0
LINE
8
DEFAULT_255_2_778
10
9.4354733
20
33.7832439
11
9.3885733
21
33.7811439
0
LINE
8
DEFAULT_255_2_778
10
9.7126733
20
33.8515439
11
9.7253733
21
33.8753439
0
LINE
8
DEFAULT_255_2_778
10
9.7253733
20
33.8753439
11
9.7365733
21
33.8999439
0
LINE
8
DEFAULT_255_2_778
10
9.7365733
20
33.8999439
11
9.7550733
21
33.9504439
0
LINE
8
DEFAULT_255_2_778
10
9.7791733
20
34.0544439
11
9.7862733
21
34.1076439
0
LINE
8
DEFAULT_255_2_778
10
9.7862733
20
34.1076439
11
9.7910733
21
34.1608439
0
LINE
8
DEFAULT_255_2_778
10
9.7910733
20
34.1608439
11
9.7936733
21
34.2142439
0
LINE
8
DEFAULT_255_2_778
10
9.7936733
20
34.2142439
11
9.7941733
21
34.2409439
0
LINE
8
DEFAULT_255_2_778
10
9.7941733
20
34.2409439
11
9.7947733
21
34.2676439
0
LINE
8
DEFAULT_255_2_778
10
9.7947733
20
34.2676439
11
9.7960733
21
34.3743439
0
LINE
8
DEFAULT_255_2_778
10
9.7960733
20
34.3743439
11
9.7963733
21
34.4809439
0
LINE
8
DEFAULT_255_2_778
10
9.7963733
20
34.4809439
11
9.7955733
21
34.5876439
0
LINE
8
DEFAULT_255_2_778
10
9.7955733
20
34.5876439
11
9.7947733
21
34.6410439
0
LINE
8
DEFAULT_255_2_778
10
9.7947733
20
34.6410439
11
9.7933733
21
34.6944439
0
LINE
8
DEFAULT_255_2_778
10
9.7933733
20
34.6944439
11
9.7859733
21
34.8008439
0
LINE
8
DEFAULT_255_2_778
10
9.7859733
20
34.8008439
11
9.7791733
21
34.8537439
0
LINE
8
DEFAULT_255_2_778
10
9.7791733
20
34.8537439
11
9.7690733
21
34.9064439
0
LINE
8
DEFAULT_255_2_778
10
9.7132733
20
35.0561439
11
9.6822733
21
35.1006439
0
LINE
8
DEFAULT_255_2_778
10
9.6822733
20
35.1006439
11
9.6449733
21
35.1405439
0
LINE
8
DEFAULT_255_2_778
10
9.6449733
20
35.1405439
11
9.6237733
21
35.1582439
0
LINE
8
DEFAULT_255_2_778
10
9.6237733
20
35.1582439
11
9.6013733
21
35.1741439
0
LINE
8
DEFAULT_255_2_778
10
9.6013733
20
35.1741439
11
9.5526733
21
35.1998439
0
LINE
8
DEFAULT_255_2_778
10
9.5526733
20
35.1998439
11
9.5264733
21
35.2096439
0
LINE
8
DEFAULT_255_2_778
10
9.5264733
20
35.2096439
11
9.4994733
21
35.2172439
0
LINE
8
DEFAULT_255_2_778
10
9.4994733
20
35.2172439
11
9.4444733
21
35.2268439
0
LINE
8
DEFAULT_255_2_778
10
9.4444733
20
35.2268439
11
9.3880733
21
35.2297439
0
LINE
8
DEFAULT_255_2_778
10
9.2769733
20
35.2172439
11
9.2234733
21
35.1998439
0
LINE
8
DEFAULT_255_2_778
10
9.2234733
20
35.1998439
11
9.1742733
21
35.1741439
0
LINE
8
DEFAULT_255_2_778
10
9.1742733
20
35.1741439
11
9.1515733
21
35.1582439
0
LINE
8
DEFAULT_255_2_778
10
9.1515733
20
35.1582439
11
9.1303733
21
35.1405439
0
LINE
8
DEFAULT_255_2_778
10
9.1303733
20
35.1405439
11
9.0930733
21
35.1006439
0
LINE
8
DEFAULT_255_2_778
10
9.0930733
20
35.1006439
11
9.0766733
21
35.0786439
0
LINE
8
DEFAULT_255_2_778
10
9.0766733
20
35.0786439
11
9.0620733
21
35.0556439
0
LINE
8
DEFAULT_255_2_778
10
9.0620733
20
35.0556439
11
9.0493733
21
35.0318439
0
LINE
8
DEFAULT_255_2_778
10
9.0493733
20
35.0318439
11
9.0385733
21
35.0072439
0
LINE
8
DEFAULT_255_2_778
10
9.0385733
20
35.0072439
11
9.0202733
21
34.9566439
0
LINE
8
DEFAULT_255_2_778
10
9.0202733
20
34.9566439
11
9.0059733
21
34.9050439
0
LINE
8
DEFAULT_255_2_778
10
8.9880733
20
34.8003439
11
8.9800733
21
34.6942439
0
LINE
8
DEFAULT_255_2_778
10
8.9800733
20
34.6942439
11
8.9787733
21
34.6407439
0
LINE
8
DEFAULT_255_2_778
10
8.9787733
20
34.6407439
11
8.9779733
21
34.5873439
0
LINE
8
DEFAULT_255_2_778
10
8.9779733
20
34.5873439
11
8.9771733
21
34.4804439
0
LINE
8
DEFAULT_255_2_778
10
8.9771733
20
34.4804439
11
8.9774733
21
34.3735439
0
LINE
8
DEFAULT_255_2_778
10
8.9774733
20
34.3735439
11
8.9787733
21
34.2666439
0
LINE
8
DEFAULT_255_2_778
10
8.9787733
20
34.2666439
11
8.9800733
21
34.2131439
0
LINE
8
DEFAULT_255_2_778
10
8.9800733
20
34.2131439
11
8.9827733
21
34.1600439
0
LINE
8
DEFAULT_255_2_778
10
8.9827733
20
34.1600439
11
8.9946733
21
34.0541439
0
LINE
8
DEFAULT_255_2_778
10
9.0186733
20
33.9499439
11
9.0366733
21
33.8996439
0
LINE
8
DEFAULT_255_2_778
10
9.0366733
20
33.8996439
11
9.0475733
21
33.8750439
0
LINE
8
DEFAULT_255_2_778
10
9.0475733
20
33.8750439
11
9.0602733
21
33.8512439
0
LINE
8
DEFAULT_255_2_778
10
9.1827733
20
33.7237439
11
9.2136733
21
33.7070439
0
LINE
8
DEFAULT_255_2_778
10
9.2136733
20
33.7070439
11
9.2465733
21
33.6938439
0
LINE
8
DEFAULT_255_2_778
10
9.2465733
20
33.6938439
11
9.3152733
21
33.6774439
0
LINE
8
DEFAULT_255_2_778
10
9.3152733
20
33.6774439
11
9.3859733
21
33.6723439
0
LINE
8
DEFAULT_255_2_778
10
9.3859733
20
33.6723439
11
9.4565733
21
33.6771439
0
LINE
8
DEFAULT_255_2_778
10
9.4565733
20
33.6771439
11
9.4917733
21
33.6837439
0
LINE
8
DEFAULT_255_2_778
10
9.4917733
20
33.6837439
11
9.5259733
21
33.6935439
0
LINE
8
DEFAULT_255_2_778
10
9.5259733
20
33.6935439
11
9.5587733
21
33.7065439
0
LINE
8
DEFAULT_255_2_778
10
9.5587733
20
33.7065439
11
9.5899733
21
33.7231439
0
LINE
8
DEFAULT_255_2_778
10
9.6449733
20
33.7660439
11
9.6457733
21
33.7660439
0
LINE
8
DEFAULT_255_2_778
10
8.1635733
20
33.8430439
11
8.1455733
21
33.8605439
0
LINE
8
DEFAULT_255_2_778
10
8.1455733
20
33.8605439
11
8.1286733
21
33.8787439
0
LINE
8
DEFAULT_255_2_778
10
8.1286733
20
33.8787439
11
8.1204733
21
33.8883439
0
LINE
8
DEFAULT_255_2_778
10
8.1204733
20
33.8883439
11
8.1124733
21
33.8980439
0
LINE
8
DEFAULT_255_2_778
10
8.0614733
20
34.0459439
11
8.0595733
21
34.0809439
0
LINE
8
DEFAULT_255_2_778
10
8.0595733
20
34.0809439
11
8.0598733
21
34.1158439
0
LINE
8
DEFAULT_255_2_778
10
8.0598733
20
34.1158439
11
8.0624733
21
34.1507439
0
LINE
8
DEFAULT_255_2_778
10
8.0624733
20
34.1507439
11
8.0683733
21
34.1856439
0
LINE
8
DEFAULT_255_2_778
10
8.2183733
20
34.3730439
11
8.2511733
21
34.3883439
0
LINE
8
DEFAULT_255_2_778
10
8.2511733
20
34.3883439
11
8.2847733
21
34.4016439
0
LINE
8
DEFAULT_255_2_778
10
8.2847733
20
34.4016439
11
8.3540733
21
34.4227439
0
LINE
8
DEFAULT_255_2_778
10
8.3540733
20
34.4227439
11
8.4125733
21
34.4031439
0
LINE
8
DEFAULT_255_2_778
10
8.4125733
20
34.4031439
11
8.4688733
21
34.3788439
0
LINE
8
DEFAULT_255_2_778
10
8.4688733
20
34.3788439
11
8.4958733
21
34.3642439
0
LINE
8
DEFAULT_255_2_778
10
8.4958733
20
34.3642439
11
8.5220733
21
34.3478439
0
LINE
8
DEFAULT_255_2_778
10
8.6398733
20
34.1454439
11
8.6419733
21
34.1155439
0
LINE
8
DEFAULT_255_2_778
10
8.6419733
20
34.1155439
11
8.6419733
21
34.0854439
0
LINE
8
DEFAULT_255_2_778
10
8.6419733
20
34.0854439
11
8.6384733
21
34.0253439
0
LINE
8
DEFAULT_255_2_778
10
8.6286733
20
33.9661439
11
8.6204733
21
33.9369439
0
LINE
8
DEFAULT_255_2_778
10
8.6204733
20
33.9369439
11
8.6096733
21
33.9086439
0
LINE
8
DEFAULT_255_2_778
10
8.4120733
20
33.7827439
11
8.3810733
21
33.7800439
0
LINE
8
DEFAULT_255_2_778
10
8.3810733
20
33.7800439
11
8.3498733
21
33.7792439
0
LINE
8
DEFAULT_255_2_778
10
8.2503733
20
33.7933439
11
8.2265733
21
33.8020439
0
LINE
8
DEFAULT_255_2_778
10
8.1632733
20
33.8425439
11
8.1635733
21
33.8430439
0
LINE
8
DEFAULT_255_2_778
10
8.6146733
20
33.7464439
11
8.6538733
21
33.7806439
0
LINE
8
DEFAULT_255_2_778
10
8.7234733
20
33.8978439
11
8.7334733
21
33.9303439
0
LINE
8
DEFAULT_255_2_778
10
8.7334733
20
33.9303439
11
8.7411733
21
33.9637439
0
LINE
8
DEFAULT_255_2_778
10
8.7501733
20
34.0309439
11
8.7527733
21
34.0983439
0
LINE
8
DEFAULT_255_2_778
10
8.7488733
20
34.1660439
11
8.7432733
21
34.1999439
0
LINE
8
DEFAULT_255_2_778
10
8.7432733
20
34.1999439
11
8.7347733
21
34.2330439
0
LINE
8
DEFAULT_255_2_778
10
8.7347733
20
34.2330439
11
8.7231733
21
34.2650439
0
LINE
8
DEFAULT_255_2_778
10
8.7231733
20
34.2650439
11
8.7088733
21
34.2962439
0
LINE
8
DEFAULT_255_2_778
10
8.7088733
20
34.2962439
11
8.6916733
21
34.3261439
0
LINE
8
DEFAULT_255_2_778
10
8.6249733
20
34.4044439
11
8.5977733
21
34.4264439
0
LINE
8
DEFAULT_255_2_778
10
8.5977733
20
34.4264439
11
8.5834733
21
34.4365439
0
LINE
8
DEFAULT_255_2_778
10
8.5834733
20
34.4365439
11
8.5689733
21
34.4460439
0
LINE
8
DEFAULT_255_2_778
10
8.6234733
20
34.5632439
11
8.6398733
21
34.5804439
0
LINE
8
DEFAULT_255_2_778
10
8.6398733
20
34.5804439
11
8.6554733
21
34.5984439
0
LINE
8
DEFAULT_255_2_778
10
8.7059733
20
34.6780439
11
8.7154733
21
34.6997439
0
LINE
8
DEFAULT_255_2_778
10
8.7154733
20
34.6997439
11
8.7234733
21
34.7220439
0
LINE
8
DEFAULT_255_2_778
10
8.7392733
20
34.8137439
11
8.7392733
21
34.8373439
0
LINE
8
DEFAULT_255_2_778
10
8.7392733
20
34.8373439
11
8.7385733
21
34.8608439
0
LINE
8
DEFAULT_255_2_778
10
8.5644733
20
35.1670439
11
8.5450733
21
35.1765439
0
LINE
8
DEFAULT_255_2_778
10
8.5450733
20
35.1765439
11
8.5249733
21
35.1850439
0
LINE
8
DEFAULT_255_2_778
10
8.4837733
20
35.1982439
11
8.4413733
21
35.2072439
0
LINE
8
DEFAULT_255_2_778
10
8.4413733
20
35.2072439
11
8.3979733
21
35.2125439
0
LINE
8
DEFAULT_255_2_778
10
8.3979733
20
35.2125439
11
8.3545733
21
35.2143439
0
LINE
8
DEFAULT_255_2_778
10
8.3114733
20
35.2133439
11
8.2686733
21
35.2088439
0
LINE
8
DEFAULT_255_2_778
10
8.2686733
20
35.2088439
11
8.2257733
21
35.2006439
0
LINE
8
DEFAULT_255_2_778
10
8.1442733
20
35.1712439
11
8.1251733
21
35.1609439
0
LINE
8
DEFAULT_255_2_778
10
8.1251733
20
35.1609439
11
8.1066733
21
35.1495439
0
LINE
8
DEFAULT_255_2_778
10
7.9653733
20
34.8992439
11
7.9624733
21
34.8571439
0
LINE
8
DEFAULT_255_2_778
10
7.9624733
20
34.8571439
11
7.9624733
21
34.8148439
0
LINE
8
DEFAULT_255_2_778
10
7.9741733
20
34.7315439
11
7.9799733
21
34.7111439
0
LINE
8
DEFAULT_255_2_778
10
7.9799733
20
34.7111439
11
7.9873733
21
34.6910439
0
LINE
8
DEFAULT_255_2_778
10
8.0275733
20
34.6164439
11
8.0407733
21
34.5994439
0
LINE
8
DEFAULT_255_2_778
10
8.0407733
20
34.5994439
11
8.0548733
21
34.5833439
0
LINE
8
DEFAULT_255_2_778
10
8.0548733
20
34.5833439
11
8.0855733
21
34.5532439
0
LINE
8
DEFAULT_255_2_778
10
8.0855733
20
34.5532439
11
8.1021733
21
34.5394439
0
LINE
8
DEFAULT_255_2_778
10
8.1021733
20
34.5394439
11
8.1196733
21
34.5267439
0
LINE
8
DEFAULT_255_2_778
10
8.1196733
20
34.5267439
11
8.1558733
21
34.5032439
0
LINE
8
DEFAULT_255_2_778
10
8.1558733
20
34.5032439
11
8.1939733
21
34.4820439
0
LINE
8
DEFAULT_255_2_778
10
8.1463733
20
34.4581439
11
8.1016733
21
34.4296439
0
LINE
8
DEFAULT_255_2_778
10
8.0500733
20
34.3838439
11
8.0280733
21
34.3573439
0
LINE
8
DEFAULT_255_2_778
10
8.0280733
20
34.3573439
11
8.0087733
21
34.3288439
0
LINE
8
DEFAULT_255_2_778
10
7.9783733
20
34.2676439
11
7.9669733
21
34.2354439
0
LINE
8
DEFAULT_255_2_778
10
7.9669733
20
34.2354439
11
7.9585733
21
34.2023439
0
LINE
8
DEFAULT_255_2_778
10
7.9500733
20
34.1351439
11
7.9492733
21
34.1010439
0
LINE
8
DEFAULT_255_2_778
10
7.9492733
20
34.1010439
11
7.9497733
21
34.0668439
0
LINE
8
DEFAULT_255_2_778
10
7.9497733
20
34.0668439
11
7.9553733
21
33.9994439
0
LINE
8
DEFAULT_255_2_778
10
7.9680733
20
33.9327439
11
7.9778733
21
33.8999439
0
LINE
8
DEFAULT_255_2_778
10
7.9778733
20
33.8999439
11
7.9902733
21
33.8681439
0
LINE
8
DEFAULT_255_2_778
10
7.9902733
20
33.8681439
11
8.0056733
21
33.8377439
0
LINE
8
DEFAULT_255_2_778
10
8.0466733
20
33.7824439
11
8.0717733
21
33.7589439
0
LINE
8
DEFAULT_255_2_778
10
8.0717733
20
33.7589439
11
8.0995733
21
33.7380439
0
LINE
8
DEFAULT_255_2_778
10
8.3323733
20
33.6726439
11
8.3675733
21
33.6726439
0
LINE
8
DEFAULT_255_2_778
10
8.3675733
20
33.6726439
11
8.4024733
21
33.6745439
0
LINE
8
DEFAULT_255_2_778
10
8.4715733
20
33.6843439
11
8.5054733
21
33.6930439
0
LINE
8
DEFAULT_255_2_778
10
8.5054733
20
33.6930439
11
8.5387733
21
33.7044439
0
LINE
8
DEFAULT_255_2_778
10
8.6006733
20
33.7364439
11
8.6149733
21
33.7464439
0
LINE
8
DEFAULT_255_2_778
10
8.6149733
20
33.7464439
11
8.6286733
21
33.7573439
0
LINE
8
DEFAULT_255_2_778
10
8.1045733
20
34.9894439
11
8.1151733
21
35.0074439
0
LINE
8
DEFAULT_255_2_778
10
8.1580733
20
35.0524439
11
8.1754733
21
35.0643439
0
LINE
8
DEFAULT_255_2_778
10
8.1754733
20
35.0643439
11
8.1939733
21
35.0746439
0
LINE
8
DEFAULT_255_2_778
10
8.2331733
20
35.0903439
11
8.2537733
21
35.0961439
0
LINE
8
DEFAULT_255_2_778
10
8.2537733
20
35.0961439
11
8.2744733
21
35.1003439
0
LINE
8
DEFAULT_255_2_778
10
8.3162733
20
35.1053439
11
8.3585733
21
35.1064439
0
LINE
8
DEFAULT_255_2_778
10
8.3585733
20
35.1064439
11
8.4008733
21
35.1037439
0
LINE
8
DEFAULT_255_2_778
10
8.4424733
20
35.0969439
11
8.4628733
21
35.0916439
0
LINE
8
DEFAULT_255_2_778
10
8.4628733
20
35.0916439
11
8.4829733
21
35.0847439
0
LINE
8
DEFAULT_255_2_778
10
8.5210733
20
35.0667439
11
8.5387733
21
35.0553439
0
LINE
8
DEFAULT_255_2_778
10
8.5387733
20
35.0553439
11
8.5554733
21
35.0424439
0
LINE
8
DEFAULT_255_2_778
10
8.6257733
20
34.8971439
11
8.6297733
21
34.8563439
0
LINE
8
DEFAULT_255_2_778
10
8.6297733
20
34.8563439
11
8.6305733
21
34.8360439
0
LINE
8
DEFAULT_255_2_778
10
8.6305733
20
34.8360439
11
8.6305733
21
34.8153439
0
LINE
8
DEFAULT_255_2_778
10
8.6305733
20
34.8153439
11
8.6286733
21
34.7947439
0
LINE
8
DEFAULT_255_2_778
10
8.6286733
20
34.7947439
11
8.6252733
21
34.7746439
0
LINE
8
DEFAULT_255_2_778
10
8.6130733
20
34.7354439
11
8.6043733
21
34.7166439
0
LINE
8
DEFAULT_255_2_778
10
8.6043733
20
34.7166439
11
8.5943733
21
34.6987439
0
LINE
8
DEFAULT_255_2_778
10
8.4744733
20
34.5849439
11
8.4371733
21
34.5653439
0
LINE
8
DEFAULT_255_2_778
10
8.3577733
20
34.5367439
11
8.2995733
21
34.5558439
0
LINE
8
DEFAULT_255_2_778
10
8.2995733
20
34.5558439
11
8.2434733
21
34.5799439
0
LINE
8
DEFAULT_255_2_778
10
8.2434733
20
34.5799439
11
8.2164733
21
34.5942439
0
LINE
8
DEFAULT_255_2_778
10
8.2164733
20
34.5942439
11
8.1905733
21
34.6103439
0
LINE
8
DEFAULT_255_2_778
10
8.1011733
20
34.7098439
11
8.0913733
21
34.7323439
0
LINE
8
DEFAULT_255_2_778
10
8.0913733
20
34.7323439
11
8.0839733
21
34.7555439
0
LINE
8
DEFAULT_255_2_778
10
8.0839733
20
34.7555439
11
8.0786733
21
34.7796439
0
LINE
8
DEFAULT_255_2_778
10
8.0738733
20
34.8286439
11
8.0730733
21
34.8291439
0
LINE
8
DEFAULT_255_2_778
10
12.5450733
20
35.1860439
11
12.6985733
21
35.1522439
0
LINE
8
DEFAULT_255_2_778
10
12.6985733
20
35.1522439
11
12.7990733
21
35.0982439
0
LINE
8
DEFAULT_255_2_778
10
12.7990733
20
35.0982439
11
12.8644733
21
35.0376439
0
LINE
8
DEFAULT_255_2_778
10
12.8644733
20
35.0376439
11
12.9117733
21
34.9754439
0
LINE
8
DEFAULT_255_2_778
10
12.9117733
20
34.9754439
11
12.9490733
21
34.9069439
0
LINE
8
DEFAULT_255_2_778
10
12.9490733
20
34.9069439
11
12.9689733
21
34.8588439
0
LINE
8
DEFAULT_255_2_778
10
12.9689733
20
34.8588439
11
12.9847733
21
34.8087439
0
LINE
8
DEFAULT_255_2_778
10
12.9847733
20
34.8087439
11
12.9974733
21
34.7582439
0
LINE
8
DEFAULT_255_2_778
10
12.9974733
20
34.7582439
11
13.0075733
21
34.7085439
0
LINE
8
DEFAULT_255_2_778
10
13.0075733
20
34.7085439
11
13.0152733
21
34.6593439
0
LINE
8
DEFAULT_255_2_778
10
13.0152733
20
34.6593439
11
13.0207733
21
34.6114439
0
LINE
8
DEFAULT_255_2_778
10
13.0207733
20
34.6114439
11
13.0186733
21
34.2425439
0
LINE
8
DEFAULT_255_2_778
10
13.0186733
20
34.2425439
11
13.0141733
21
34.2092439
0
LINE
8
DEFAULT_255_2_778
10
13.0141733
20
34.2092439
11
13.0088733
21
34.1759439
0
LINE
8
DEFAULT_255_2_778
10
13.0088733
20
34.1759439
11
13.0025733
21
34.1428439
0
LINE
8
DEFAULT_255_2_778
10
13.0025733
20
34.1428439
11
12.9869733
21
34.0785439
0
LINE
8
DEFAULT_255_2_778
10
12.9869733
20
34.0785439
11
12.9673733
21
34.0161439
0
LINE
8
DEFAULT_255_2_778
10
12.9673733
20
34.0161439
11
12.9435733
21
33.9570439
0
LINE
8
DEFAULT_255_2_778
10
12.9435733
20
33.9570439
11
12.9046733
21
33.8853439
0
LINE
8
DEFAULT_255_2_778
10
12.9046733
20
33.8853439
11
12.8572733
21
33.8224439
0
LINE
8
DEFAULT_255_2_778
10
12.8572733
20
33.8224439
11
12.8003733
21
33.7726439
0
LINE
8
DEFAULT_255_2_778
10
12.8003733
20
33.7726439
11
12.7215733
21
33.7319439
0
LINE
8
DEFAULT_255_2_778
10
12.7215733
20
33.7319439
11
12.5905733
21
33.6969439
0
LINE
8
DEFAULT_255_2_778
10
12.5905733
20
33.6969439
11
12.3669733
21
33.6779439
0
LINE
8
DEFAULT_255_2_778
10
12.3669733
20
33.6779439
11
12.1685733
21
33.6903439
0
LINE
8
DEFAULT_255_2_778
10
12.1685733
20
33.6903439
11
12.1685733
21
35.1903439
0
LINE
8
DEFAULT_255_2_778
10
12.1685733
20
35.1903439
11
12.5450733
21
35.1860439
0
LINE
8
DEFAULT_255_2_778
10
12.3746733
20
33.7864439
11
12.5707733
21
33.8015439
0
LINE
8
DEFAULT_255_2_778
10
12.5707733
20
33.8015439
11
12.7191733
21
33.8470439
0
LINE
8
DEFAULT_255_2_778
10
12.7191733
20
33.8470439
11
12.7755733
21
33.8904439
0
LINE
8
DEFAULT_255_2_778
10
12.7755733
20
33.8904439
11
12.8228733
21
33.9520439
0
LINE
8
DEFAULT_255_2_778
10
12.8228733
20
33.9520439
11
12.8538733
21
34.0107439
0
LINE
8
DEFAULT_255_2_778
10
12.8538733
20
34.0107439
11
12.8728733
21
34.0600439
0
LINE
8
DEFAULT_255_2_778
10
12.8728733
20
34.0600439
11
12.8887733
21
34.1129439
0
LINE
8
DEFAULT_255_2_778
10
12.8887733
20
34.1129439
11
12.9017733
21
34.1682439
0
LINE
8
DEFAULT_255_2_778
10
12.9017733
20
34.1682439
11
12.9115733
21
34.2261439
0
LINE
8
DEFAULT_255_2_778
10
12.9115733
20
34.2261439
11
12.9152733
21
34.2555439
0
LINE
8
DEFAULT_255_2_778
10
12.9152733
20
34.2555439
11
12.9183733
21
34.2851439
0
LINE
8
DEFAULT_255_2_778
10
12.9183733
20
34.2851439
11
12.9183733
21
34.5701439
0
LINE
8
DEFAULT_255_2_778
10
12.9183733
20
34.5701439
11
12.9157733
21
34.6042439
0
LINE
8
DEFAULT_255_2_778
10
12.9157733
20
34.6042439
11
12.9123733
21
34.6381439
0
LINE
8
DEFAULT_255_2_778
10
12.9123733
20
34.6381439
11
12.9078733
21
34.6717439
0
LINE
8
DEFAULT_255_2_778
10
12.9078733
20
34.6717439
11
12.9001733
21
34.7151439
0
LINE
8
DEFAULT_255_2_778
10
12.9001733
20
34.7151439
11
12.8845733
21
34.7781439
0
LINE
8
DEFAULT_255_2_778
10
12.8845733
20
34.7781439
11
12.8641733
21
34.8376439
0
LINE
8
DEFAULT_255_2_778
10
12.8641733
20
34.8376439
11
12.8382733
21
34.8926439
0
LINE
8
DEFAULT_255_2_778
10
12.8382733
20
34.8926439
11
12.7853733
21
34.9696439
0
LINE
8
DEFAULT_255_2_778
10
12.7853733
20
34.9696439
11
12.7175733
21
35.0262439
0
LINE
8
DEFAULT_255_2_778
10
12.7175733
20
35.0262439
11
12.6011733
21
35.0710439
0
LINE
8
DEFAULT_255_2_778
10
12.6011733
20
35.0710439
11
12.4394733
21
35.0837439
0
LINE
8
DEFAULT_255_2_778
10
12.4394733
20
35.0837439
11
12.2743733
21
35.0837439
0
LINE
8
DEFAULT_255_2_778
10
12.2743733
20
35.0837439
11
12.2743733
21
33.7885439
0
LINE
8
DEFAULT_255_2_778
10
12.2743733
20
33.7885439
11
12.3746733
21
33.7864439
0
LINE
8
DEFAULT_255_2_778
10
16.1873733
20
35.1860439
11
16.4360733
21
35.1860439
0
LINE
8
DEFAULT_255_2_778
10
16.4360733
20
35.1860439
11
16.4360733
21
34.1832439
0
LINE
8
DEFAULT_255_2_778
10
16.4360733
20
34.1832439
11
16.6574733
21
34.1832439
0
LINE
8
DEFAULT_255_2_778
10
16.6574733
20
34.1832439
11
16.6574733
21
34.0788439
0
LINE
8
DEFAULT_255_2_778
10
16.6574733
20
34.0788439
11
16.4360733
21
34.0788439
0
LINE
8
DEFAULT_255_2_778
10
16.4360733
20
34.0788439
11
16.4360733
21
33.6798439
0
LINE
8
DEFAULT_255_2_778
10
16.4360733
20
33.6798439
11
16.3293733
21
33.6798439
0
LINE
8
DEFAULT_255_2_778
10
16.3293733
20
33.6798439
11
16.3293733
21
34.0788439
0
LINE
8
DEFAULT_255_2_778
10
16.3293733
20
34.0788439
11
15.7653733
21
34.0788439
0
LINE
8
DEFAULT_255_2_778
10
15.7653733
20
34.0788439
11
15.7653733
21
34.2333439
0
LINE
8
DEFAULT_255_2_778
10
15.7653733
20
34.2333439
11
16.1873733
21
35.1860439
0
LINE
8
DEFAULT_255_2_778
10
16.3293733
20
35.0815439
11
16.2563733
21
35.0815439
0
LINE
8
DEFAULT_255_2_778
10
16.2563733
20
35.0815439
11
15.8698733
21
34.2102439
0
LINE
8
DEFAULT_255_2_778
10
15.8698733
20
34.2102439
11
15.8698733
21
34.1830439
0
LINE
8
DEFAULT_255_2_778
10
15.8698733
20
34.1830439
11
16.3293733
21
34.1830439
0
LINE
8
DEFAULT_255_2_778
10
16.3293733
20
34.1830439
11
16.3293733
21
35.0815439
0
LINE
8
DEFAULT_255_2_778
10
22.2806733
20
33.8017439
11
22.2626733
21
33.8197439
0
LINE
8
DEFAULT_255_2_778
10
22.2626733
20
33.8197439
11
22.2457733
21
33.8385439
0
LINE
8
DEFAULT_255_2_778
10
22.2457733
20
33.8385439
11
22.2375733
21
33.8483439
0
LINE
8
DEFAULT_255_2_778
10
22.2375733
20
33.8483439
11
22.2296733
21
33.8583439
0
LINE
8
DEFAULT_255_2_778
10
22.1782733
20
34.0110439
11
22.1764733
21
34.0470439
0
LINE
8
DEFAULT_255_2_778
10
22.1764733
20
34.0470439
11
22.1766733
21
34.0830439
0
LINE
8
DEFAULT_255_2_778
10
22.1766733
20
34.0830439
11
22.1793733
21
34.1190439
0
LINE
8
DEFAULT_255_2_778
10
22.1793733
20
34.1190439
11
22.1851733
21
34.1549439
0
LINE
8
DEFAULT_255_2_778
10
22.3351733
20
34.3478439
11
22.3679733
21
34.3637439
0
LINE
8
DEFAULT_255_2_778
10
22.3679733
20
34.3637439
11
22.4015733
21
34.3775439
0
LINE
8
DEFAULT_255_2_778
10
22.4709733
20
34.3992439
11
22.5293733
21
34.3790439
0
LINE
8
DEFAULT_255_2_778
10
22.5293733
20
34.3790439
11
22.5857733
21
34.3539439
0
LINE
8
DEFAULT_255_2_778
10
22.5857733
20
34.3539439
11
22.6127733
21
34.3388439
0
LINE
8
DEFAULT_255_2_778
10
22.6127733
20
34.3388439
11
22.6389733
21
34.3219439
0
LINE
8
DEFAULT_255_2_778
10
22.7566733
20
34.1134439
11
22.7587733
21
34.0827439
0
LINE
8
DEFAULT_255_2_778
10
22.7587733
20
34.0827439
11
22.7587733
21
34.0517439
0
LINE
8
DEFAULT_255_2_778
10
22.7587733
20
34.0517439
11
22.7553733
21
33.9899439
0
LINE
8
DEFAULT_255_2_778
10
22.7455733
20
33.9287439
11
22.7373733
21
33.8986439
0
LINE
8
DEFAULT_255_2_778
10
22.7373733
20
33.8986439
11
22.7264733
21
33.8695439
0
LINE
8
DEFAULT_255_2_778
10
22.5285733
20
33.7395439
11
22.4973733
21
33.7369439
0
LINE
8
DEFAULT_255_2_778
10
22.4973733
20
33.7369439
11
22.4661733
21
33.7361439
0
LINE
8
DEFAULT_255_2_778
10
22.3669733
20
33.7507439
11
22.3431733
21
33.7596439
0
LINE
8
DEFAULT_255_2_778
10
22.2798733
20
33.8009439
11
22.2806733
21
33.8017439
0
LINE
8
DEFAULT_255_2_778
10
22.7317733
20
33.7022439
11
22.7709733
21
33.7374439
0
LINE
8
DEFAULT_255_2_778
10
22.8405733
20
33.8581439
11
22.8505733
21
33.8917439
0
LINE
8
DEFAULT_255_2_778
10
22.8505733
20
33.8917439
11
22.8582733
21
33.9261439
0
LINE
8
DEFAULT_255_2_778
10
22.8672733
20
33.9954439
11
22.8698733
21
34.0650439
0
LINE
8
DEFAULT_255_2_778
10
22.8659733
20
34.1346439
11
22.8603733
21
34.1695439
0
LINE
8
DEFAULT_255_2_778
10
22.8603733
20
34.1695439
11
22.8519733
21
34.2036439
0
LINE
8
DEFAULT_255_2_778
10
22.8519733
20
34.2036439
11
22.8402733
21
34.2367439
0
LINE
8
DEFAULT_255_2_778
10
22.8402733
20
34.2367439
11
22.8259733
21
34.2687439
0
LINE
8
DEFAULT_255_2_778
10
22.8259733
20
34.2687439
11
22.8087733
21
34.2997439
0
LINE
8
DEFAULT_255_2_778
10
22.7148733
20
34.4029439
11
22.7005733
21
34.4132439
0
LINE
8
DEFAULT_255_2_778
10
22.7005733
20
34.4132439
11
22.6860733
21
34.4230439
0
LINE
8
DEFAULT_255_2_778
10
22.7405733
20
34.5436439
11
22.7569733
21
34.5614439
0
LINE
8
DEFAULT_255_2_778
10
22.7569733
20
34.5614439
11
22.7725733
21
34.5799439
0
LINE
8
DEFAULT_255_2_778
10
22.8230733
20
34.6619439
11
22.8325733
21
34.6841439
0
LINE
8
DEFAULT_255_2_778
10
22.8325733
20
34.6841439
11
22.8405733
21
34.7071439
0
LINE
8
DEFAULT_255_2_778
10
22.8564733
20
34.8019439
11
22.8564733
21
34.8262439
0
LINE
8
DEFAULT_255_2_778
10
22.8564733
20
34.8262439
11
22.8556733
21
34.8505439
0
LINE
8
DEFAULT_255_2_778
10
22.6815733
20
35.1654439
11
22.6621733
21
35.1752439
0
LINE
8
DEFAULT_255_2_778
10
22.6621733
20
35.1752439
11
22.6420733
21
35.1839439
0
LINE
8
DEFAULT_255_2_778
10
22.5584733
20
35.2069439
11
22.5150733
21
35.2122439
0
LINE
8
DEFAULT_255_2_778
10
22.5150733
20
35.2122439
11
22.4716733
21
35.2141439
0
LINE
8
DEFAULT_255_2_778
10
22.4716733
20
35.2141439
11
22.4285733
21
35.2130439
0
LINE
8
DEFAULT_255_2_778
10
22.4285733
20
35.2130439
11
22.3857733
21
35.2085439
0
LINE
8
DEFAULT_255_2_778
10
22.3857733
20
35.2085439
11
22.3428733
21
35.2000439
0
LINE
8
DEFAULT_255_2_778
10
22.2613733
20
35.1699439
11
22.2423733
21
35.1593439
0
LINE
8
DEFAULT_255_2_778
10
22.2423733
20
35.1593439
11
22.2237733
21
35.1474439
0
LINE
8
DEFAULT_255_2_778
10
22.0824733
20
34.8894439
11
22.0795733
21
34.8463439
0
LINE
8
DEFAULT_255_2_778
10
22.0795733
20
34.8463439
11
22.0795733
21
34.8026439
0
LINE
8
DEFAULT_255_2_778
10
22.0912733
20
34.7169439
11
22.0970733
21
34.6960439
0
LINE
8
DEFAULT_255_2_778
10
22.0970733
20
34.6960439
11
22.1044733
21
34.6754439
0
LINE
8
DEFAULT_255_2_778
10
22.1446733
20
34.5986439
11
22.1576733
21
34.5812439
0
LINE
8
DEFAULT_255_2_778
10
22.1576733
20
34.5812439
11
22.1716733
21
34.5645439
0
LINE
8
DEFAULT_255_2_778
10
22.2026733
20
34.5336439
11
22.2192733
21
34.5195439
0
LINE
8
DEFAULT_255_2_778
10
22.2192733
20
34.5195439
11
22.2367733
21
34.5063439
0
LINE
8
DEFAULT_255_2_778
10
22.2367733
20
34.5063439
11
22.2732733
21
34.4820439
0
LINE
8
DEFAULT_255_2_778
10
22.2732733
20
34.4820439
11
22.3113733
21
34.4603439
0
LINE
8
DEFAULT_255_2_778
10
22.2637733
20
34.4357439
11
22.2190733
21
34.4063439
0
LINE
8
DEFAULT_255_2_778
10
22.1674733
20
34.3592439
11
22.1454733
21
34.3320439
0
LINE
8
DEFAULT_255_2_778
10
22.1454733
20
34.3320439
11
22.1261733
21
34.3026439
0
LINE
8
DEFAULT_255_2_778
10
22.0957733
20
34.2396439
11
22.0843733
21
34.2066439
0
LINE
8
DEFAULT_255_2_778
10
22.0843733
20
34.2066439
11
22.0761733
21
34.1724439
0
LINE
8
DEFAULT_255_2_778
10
22.0676733
20
34.1031439
11
22.0666733
21
34.0682439
0
LINE
8
DEFAULT_255_2_778
10
22.0666733
20
34.0682439
11
22.0671733
21
34.0333439
0
LINE
8
DEFAULT_255_2_778
10
22.0671733
20
34.0333439
11
22.0727733
21
33.9637439
0
LINE
8
DEFAULT_255_2_778
10
22.0854733
20
33.8951439
11
22.0951733
21
33.8612439
0
LINE
8
DEFAULT_255_2_778
10
22.0951733
20
33.8612439
11
22.1076733
21
33.8284439
0
LINE
8
DEFAULT_255_2_778
10
22.1076733
20
33.8284439
11
22.1229733
21
33.7970439
0
LINE
8
DEFAULT_255_2_778
10
22.2169733
20
33.6940439
11
22.2470733
21
33.6755439
0
LINE
8
DEFAULT_255_2_778
10
22.4497733
20
33.6268439
11
22.4849733
21
33.6268439
0
LINE
8
DEFAULT_255_2_778
10
22.4849733
20
33.6268439
11
22.5198733
21
33.6287439
0
LINE
8
DEFAULT_255_2_778
10
22.5886733
20
33.6387439
11
22.6225733
21
33.6478439
0
LINE
8
DEFAULT_255_2_778
10
22.6225733
20
33.6478439
11
22.6558733
21
33.6596439
0
LINE
8
DEFAULT_255_2_778
10
22.7177733
20
33.6924439
11
22.7320733
21
33.7028439
0
LINE
8
DEFAULT_255_2_778
10
22.7320733
20
33.7028439
11
22.7458733
21
33.7139439
0
LINE
8
DEFAULT_255_2_778
10
22.2216733
20
34.9828439
11
22.2319733
21
35.0014439
0
LINE
8
DEFAULT_255_2_778
10
22.2319733
20
35.0014439
11
22.2444733
21
35.0186439
0
LINE
8
DEFAULT_255_2_778
10
22.2444733
20
35.0186439
11
22.2587733
21
35.0341439
0
LINE
8
DEFAULT_255_2_778
10
22.2748733
20
35.0479439
11
22.2923733
21
35.0601439
0
LINE
8
DEFAULT_255_2_778
10
22.2923733
20
35.0601439
11
22.3108733
21
35.0707439
0
LINE
8
DEFAULT_255_2_778
10
22.3499733
20
35.0868439
11
22.3706733
21
35.0926439
0
LINE
8
DEFAULT_255_2_778
10
22.3706733
20
35.0926439
11
22.3912733
21
35.0971439
0
LINE
8
DEFAULT_255_2_778
10
22.4330733
20
35.1024439
11
22.4754733
21
35.1035439
0
LINE
8
DEFAULT_255_2_778
10
22.4754733
20
35.1035439
11
22.5177733
21
35.1008439
0
LINE
8
DEFAULT_255_2_778
10
22.5592733
20
35.0939439
11
22.5796733
21
35.0884439
0
LINE
8
DEFAULT_255_2_778
10
22.5796733
20
35.0884439
11
22.5997733
21
35.0815439
0
LINE
8
DEFAULT_255_2_778
10
22.6378733
20
35.0630439
11
22.6555733
21
35.0511439
0
LINE
8
DEFAULT_255_2_778
10
22.6555733
20
35.0511439
11
22.6722733
21
35.0376439
0
LINE
8
DEFAULT_255_2_778
10
22.7426733
20
34.8876439
11
22.7466733
21
34.8455439
0
LINE
8
DEFAULT_255_2_778
10
22.7466733
20
34.8455439
11
22.7473733
21
34.8243439
0
LINE
8
DEFAULT_255_2_778
10
22.7473733
20
34.8243439
11
22.7473733
21
34.8032439
0
LINE
8
DEFAULT_255_2_778
10
22.7473733
20
34.8032439
11
22.7455733
21
34.7820439
0
LINE
8
DEFAULT_255_2_778
10
22.7455733
20
34.7820439
11
22.7421733
21
34.7611439
0
LINE
8
DEFAULT_255_2_778
10
22.7299733
20
34.7209439
11
22.7212733
21
34.7016439
0
LINE
8
DEFAULT_255_2_778
10
22.7212733
20
34.7016439
11
22.7111733
21
34.6830439
0
LINE
8
DEFAULT_255_2_778
10
22.6579733
20
34.6174439
11
22.6259733
21
34.5899439
0
LINE
8
DEFAULT_255_2_778
10
22.4746733
20
34.5164439
11
22.4164733
21
34.5362439
0
LINE
8
DEFAULT_255_2_778
10
22.4164733
20
34.5362439
11
22.3603733
21
34.5611439
0
LINE
8
DEFAULT_255_2_778
10
22.3603733
20
34.5611439
11
22.3333733
21
34.5759439
0
LINE
8
DEFAULT_255_2_778
10
22.3333733
20
34.5759439
11
22.3076733
21
34.5926439
0
LINE
8
DEFAULT_255_2_778
10
22.2303733
20
34.6727439
11
22.2182733
21
34.6950439
0
LINE
8
DEFAULT_255_2_778
10
22.2182733
20
34.6950439
11
22.2084733
21
34.7182439
0
LINE
8
DEFAULT_255_2_778
10
22.2084733
20
34.7182439
11
22.2010733
21
34.7423439
0
LINE
8
DEFAULT_255_2_778
10
22.2010733
20
34.7423439
11
22.1957733
21
34.7672439
0
LINE
8
DEFAULT_255_2_778
10
22.1909733
20
34.8177439
11
22.1901733
21
34.8180439
0
LINE
8
DEFAULT_255_2_778
10
17.4520733
20
12.9134439
11
18.2359733
21
11.6066439
0
LINE
8
DEFAULT_255_2_778
10
18.2359733
20
11.6066439
11
18.2359733
21
12.9134439
0
LINE
8
DEFAULT_255_2_778
10
18.2359733
20
12.9134439
11
18.3640733
21
12.9134439
0
LINE
8
DEFAULT_255_2_778
10
18.3640733
20
12.9134439
11
18.3640733
21
11.4135439
0
LINE
8
DEFAULT_255_2_778
10
18.3640733
20
11.4135439
11
18.2113733
21
11.4132439
0
LINE
8
DEFAULT_255_2_778
10
18.2113733
20
11.4132439
11
17.4358733
21
12.6975439
0
LINE
8
DEFAULT_255_2_778
10
17.4358733
20
12.6975439
11
17.4358733
21
11.4135439
0
LINE
8
DEFAULT_255_2_778
10
17.4358733
20
11.4135439
11
17.3078733
21
11.4135439
0
LINE
8
DEFAULT_255_2_778
10
17.3078733
20
11.4135439
11
17.3078733
21
12.9134439
0
LINE
8
DEFAULT_255_2_778
10
17.3078733
20
12.9134439
11
17.4520733
21
12.9134439
0
LINE
8
DEFAULT_255_2_778
10
19.1398167
20
12.0241333
11
19.6436167
21
12.0241333
0
LINE
8
DEFAULT_255_2_778
10
19.6436167
20
12.0241333
11
19.6436167
21
11.9140333
0
LINE
8
DEFAULT_255_2_778
10
19.6436167
20
11.9140333
11
19.1398167
21
11.9140333
0
LINE
8
DEFAULT_255_2_778
10
19.1398167
20
11.9140333
11
19.1398167
21
12.0241333
0
LINE
8
DEFAULT_255_2_778
10
21.7691761
20
12.7100062
11
21.6805761
21
12.5766062
0
LINE
8
DEFAULT_255_2_778
10
21.6805761
20
12.5766062
11
21.6641761
21
12.4981062
0
LINE
8
DEFAULT_255_2_778
10
21.6641761
20
12.4981062
11
21.6633761
21
12.4920062
0
LINE
8
DEFAULT_255_2_778
10
21.6633761
20
12.4920062
11
21.5313761
21
12.4920062
0
LINE
8
DEFAULT_255_2_778
10
21.5313761
20
12.4920062
11
21.5334761
21
12.5338062
0
LINE
8
DEFAULT_255_2_778
10
21.5334761
20
12.5338062
11
21.5379761
21
12.5642062
0
LINE
8
DEFAULT_255_2_778
10
21.5379761
20
12.5642062
11
21.5509761
21
12.6134062
0
LINE
8
DEFAULT_255_2_778
10
21.5509761
20
12.6134062
11
21.5916761
21
12.6965062
0
LINE
8
DEFAULT_255_2_778
10
21.5916761
20
12.6965062
11
21.6871761
21
12.7994062
0
LINE
8
DEFAULT_255_2_778
10
21.6871761
20
12.7994062
11
21.8498761
21
12.8706062
0
LINE
8
DEFAULT_255_2_778
10
21.8498761
20
12.8706062
11
22.1239761
21
12.8643062
0
LINE
8
DEFAULT_255_2_778
10
22.1239761
20
12.8643062
11
22.2793761
21
12.7870062
0
LINE
8
DEFAULT_255_2_778
10
22.2793761
20
12.7870062
11
22.3682761
21
12.6830062
0
LINE
8
DEFAULT_255_2_778
10
22.3682761
20
12.6830062
11
22.4012761
21
12.6086062
0
LINE
8
DEFAULT_255_2_778
10
22.4012761
20
12.6086062
11
22.4134761
21
12.5587062
0
LINE
8
DEFAULT_255_2_778
10
22.4134761
20
12.5587062
11
22.4129761
21
12.4208062
0
LINE
8
DEFAULT_255_2_778
10
22.4129761
20
12.4208062
11
22.3996761
21
12.3729062
0
LINE
8
DEFAULT_255_2_778
10
22.3996761
20
12.3729062
11
22.2708761
21
12.2184062
0
LINE
8
DEFAULT_255_2_778
10
22.2708761
20
12.2184062
11
22.1374761
21
12.1631062
0
LINE
8
DEFAULT_255_2_778
10
22.1374761
20
12.1631062
11
22.2602761
21
12.1168062
0
LINE
8
DEFAULT_255_2_778
10
22.2602761
20
12.1168062
11
22.3306761
21
12.0639062
0
LINE
8
DEFAULT_255_2_778
10
22.3306761
20
12.0639062
11
22.3764761
21
12.0102062
0
LINE
8
DEFAULT_255_2_778
10
22.3764761
20
12.0102062
11
22.4028761
21
11.9655062
0
LINE
8
DEFAULT_255_2_778
10
22.4028761
20
11.9655062
11
22.4221761
21
11.9175062
0
LINE
8
DEFAULT_255_2_778
10
22.4221761
20
11.9175062
11
22.4311761
21
11.8837062
0
LINE
8
DEFAULT_255_2_778
10
22.4311761
20
11.8837062
11
22.4369761
21
11.8485062
0
LINE
8
DEFAULT_255_2_778
10
22.4369761
20
11.8485062
11
22.4354761
21
11.7382062
0
LINE
8
DEFAULT_255_2_778
10
22.4354761
20
11.7382062
11
22.4285761
21
11.7033062
0
LINE
8
DEFAULT_255_2_778
10
22.4285761
20
11.7033062
11
22.4187761
21
11.6697062
0
LINE
8
DEFAULT_255_2_778
10
22.4187761
20
11.6697062
11
22.3981761
21
11.6215062
0
LINE
8
DEFAULT_255_2_778
10
22.3981761
20
11.6215062
11
22.3597761
21
11.5617062
0
LINE
8
DEFAULT_255_2_778
10
22.3597761
20
11.5617062
11
22.2949761
21
11.4953062
0
LINE
8
DEFAULT_255_2_778
10
22.2949761
20
11.4953062
11
22.1980761
21
11.4366062
0
LINE
8
DEFAULT_255_2_778
10
22.1980761
20
11.4366062
11
22.0604761
21
11.3990062
0
LINE
8
DEFAULT_255_2_778
10
22.0604761
20
11.3990062
11
21.7789761
21
11.4204062
0
LINE
8
DEFAULT_255_2_778
10
21.7789761
20
11.4204062
11
21.6776761
21
11.4725062
0
LINE
8
DEFAULT_255_2_778
10
21.6776761
20
11.4725062
11
21.5371761
21
11.6464062
0
LINE
8
DEFAULT_255_2_778
10
21.5371761
20
11.6464062
11
21.5146761
21
11.7435062
0
LINE
8
DEFAULT_255_2_778
10
21.5146761
20
11.7435062
11
21.5120761
21
11.7797062
0
LINE
8
DEFAULT_255_2_778
10
21.5120761
20
11.7797062
11
21.5117761
21
11.7953062
0
LINE
8
DEFAULT_255_2_778
10
21.5117761
20
11.7953062
11
21.6477761
21
11.7953062
0
LINE
8
DEFAULT_255_2_778
10
21.6477761
20
11.7953062
11
21.6490761
21
11.7673062
0
LINE
8
DEFAULT_255_2_778
10
21.6490761
20
11.7673062
11
21.6527761
21
11.7405062
0
LINE
8
DEFAULT_255_2_778
10
21.6527761
20
11.7405062
11
21.6628761
21
11.7025062
0
LINE
8
DEFAULT_255_2_778
10
21.6628761
20
11.7025062
11
21.6845761
21
11.6559062
0
LINE
8
DEFAULT_255_2_778
10
21.6845761
20
11.6559062
11
21.7353761
21
11.5953062
0
LINE
8
DEFAULT_255_2_778
10
21.7353761
20
11.5953062
11
21.8398761
21
11.5315062
0
LINE
8
DEFAULT_255_2_778
10
21.8398761
20
11.5315062
11
21.9943761
21
11.5090062
0
LINE
8
DEFAULT_255_2_778
10
21.9943761
20
11.5090062
11
22.1382761
21
11.5427062
0
LINE
8
DEFAULT_255_2_778
10
22.1382761
20
11.5427062
11
22.2298761
21
11.6091062
0
LINE
8
DEFAULT_255_2_778
10
22.2298761
20
11.6091062
11
22.2724761
21
11.6675062
0
LINE
8
DEFAULT_255_2_778
10
22.2724761
20
11.6675062
11
22.2912761
21
11.7115062
0
LINE
8
DEFAULT_255_2_778
10
22.2912761
20
11.7115062
11
22.3004761
21
11.7472062
0
LINE
8
DEFAULT_255_2_778
10
22.3004761
20
11.7472062
11
22.2999761
21
11.8758062
0
LINE
8
DEFAULT_255_2_778
10
22.2999761
20
11.8758062
11
22.2904761
21
11.9110062
0
LINE
8
DEFAULT_255_2_778
10
22.2904761
20
11.9110062
11
22.2650761
21
11.9644062
0
LINE
8
DEFAULT_255_2_778
10
22.2650761
20
11.9644062
11
22.2091761
21
12.0284062
0
LINE
8
DEFAULT_255_2_778
10
22.2091761
20
12.0284062
11
22.0999761
21
12.0888062
0
LINE
8
DEFAULT_255_2_778
10
22.0999761
20
12.0888062
11
21.9782761
21
12.1067062
0
LINE
8
DEFAULT_255_2_778
10
21.9782761
20
12.1067062
11
21.8983761
21
12.1004062
0
LINE
8
DEFAULT_255_2_778
10
21.8983761
20
12.1004062
11
21.8983761
21
12.2253062
0
LINE
8
DEFAULT_255_2_778
10
21.8983761
20
12.2253062
11
22.0779761
21
12.2308062
0
LINE
8
DEFAULT_255_2_778
10
22.0779761
20
12.2308062
11
22.1782761
21
12.2774062
0
LINE
8
DEFAULT_255_2_778
10
22.1782761
20
12.2774062
11
22.2446761
21
12.3465062
0
LINE
8
DEFAULT_255_2_778
10
22.2446761
20
12.3465062
11
22.2711761
21
12.3973062
0
LINE
8
DEFAULT_255_2_778
10
22.2711761
20
12.3973062
11
22.2811761
21
12.4301062
0
LINE
8
DEFAULT_255_2_778
10
22.2811761
20
12.4301062
11
22.2806761
21
12.5595062
0
LINE
8
DEFAULT_255_2_778
10
22.2806761
20
12.5595062
11
22.2671761
21
12.6020062
0
LINE
8
DEFAULT_255_2_778
10
22.2671761
20
12.6020062
11
22.2337761
21
12.6595062
0
LINE
8
DEFAULT_255_2_778
10
22.2337761
20
12.6595062
11
22.1665761
21
12.7214062
0
LINE
8
DEFAULT_255_2_778
10
22.1665761
20
12.7214062
11
22.0403761
21
12.7656062
0
LINE
8
DEFAULT_255_2_778
10
22.0403761
20
12.7656062
11
21.8641761
21
12.7558062
0
LINE
8
DEFAULT_255_2_778
10
21.8641761
20
12.7558062
11
21.7699761
21
12.7095062
0
LINE
8
DEFAULT_255_2_778
10
22.7918823
20
12.6457239
11
23.0638823
21
12.8272239
0
LINE
8
DEFAULT_255_2_778
10
23.0638823
20
12.8272239
11
23.1122823
21
12.8722239
0
LINE
8
DEFAULT_255_2_778
10
23.1122823
20
12.8722239
11
23.2360823
21
12.8722239
0
LINE
8
DEFAULT_255_2_778
10
23.2360823
20
12.8722239
11
23.2360823
21
11.4136239
0
LINE
8
DEFAULT_255_2_778
10
23.2360823
20
11.4136239
11
23.1040823
21
11.4136239
0
LINE
8
DEFAULT_255_2_778
10
23.1040823
20
11.4136239
11
23.1040823
21
12.7246239
0
LINE
8
DEFAULT_255_2_778
10
23.1040823
20
12.7246239
11
22.7921823
21
12.5105239
0
LINE
8
DEFAULT_255_2_778
10
22.7921823
20
12.5105239
11
22.7921823
21
12.6457239
0
LINE
8
DEFAULT_255_2_778
10
21.4160521
20
12.9134614
11
20.9160521
21
12.1842614
0
LINE
8
DEFAULT_255_2_778
10
20.9160521
20
12.1842614
11
21.4319521
21
11.4135614
0
LINE
8
DEFAULT_255_2_778
10
21.4319521
20
11.4135614
11
21.2660521
21
11.4137614
0
LINE
8
DEFAULT_255_2_778
10
21.2660521
20
11.4137614
11
20.8281521
21
12.0823614
0
LINE
8
DEFAULT_255_2_778
10
20.8281521
20
12.0823614
11
20.3892521
21
11.4137614
0
LINE
8
DEFAULT_255_2_778
10
20.3892521
20
11.4137614
11
20.2418521
21
11.4135614
0
LINE
8
DEFAULT_255_2_778
10
20.2418521
20
11.4135614
11
20.7559521
21
12.1842614
0
LINE
8
DEFAULT_255_2_778
10
20.7559521
20
12.1842614
11
20.2677521
21
12.9134614
0
LINE
8
DEFAULT_255_2_778
10
20.2677521
20
12.9134614
11
20.4376521
21
12.9134614
0
LINE
8
DEFAULT_255_2_778
10
20.4376521
20
12.9134614
11
20.8458521
21
12.2813614
0
LINE
8
DEFAULT_255_2_778
10
20.8458521
20
12.2813614
11
21.2694521
21
12.9134614
0
LINE
8
DEFAULT_255_2_778
10
21.2694521
20
12.9134614
11
21.4155521
21
12.9134614
0
LINE
8
DEFAULT_255_2_778
10
12.8837834
20
12.9133937
11
13.9396834
21
12.9133937
0
LINE
8
DEFAULT_255_2_778
10
13.9396834
20
12.9133937
11
13.9396834
21
12.7930937
0
LINE
8
DEFAULT_255_2_778
10
13.9396834
20
12.7930937
11
13.4756834
21
12.7930937
0
LINE
8
DEFAULT_255_2_778
10
13.4756834
20
12.7930937
11
13.4756834
21
11.4134937
0
LINE
8
DEFAULT_255_2_778
10
13.4756834
20
11.4134937
11
13.3475834
21
11.4134937
0
LINE
8
DEFAULT_255_2_778
10
13.3475834
20
11.4134937
11
13.3475834
21
12.7930937
0
LINE
8
DEFAULT_255_2_778
10
13.3475834
20
12.7930937
11
12.8837834
21
12.7930937
0
LINE
8
DEFAULT_255_2_778
10
12.8837834
20
12.7930937
11
12.8837834
21
12.9133937
0
LINE
8
DEFAULT_255_2_778
10
11.8780834
20
12.9133937
11
12.7360834
21
12.9133937
0
LINE
8
DEFAULT_255_2_778
10
12.7360834
20
12.9133937
11
12.7360834
21
12.7930937
0
LINE
8
DEFAULT_255_2_778
10
12.7360834
20
12.7930937
11
12.0061834
21
12.7930937
0
LINE
8
DEFAULT_255_2_778
10
12.0061834
20
12.7930937
11
12.0061834
21
12.2506937
0
LINE
8
DEFAULT_255_2_778
10
12.0061834
20
12.2506937
11
12.7080834
21
12.2506937
0
LINE
8
DEFAULT_255_2_778
10
12.7080834
20
12.2506937
11
12.7080834
21
12.1302937
0
LINE
8
DEFAULT_255_2_778
10
12.7080834
20
12.1302937
11
12.0061834
21
12.1302937
0
LINE
8
DEFAULT_255_2_778
10
12.0061834
20
12.1302937
11
12.0061834
21
11.5341937
0
LINE
8
DEFAULT_255_2_778
10
12.0061834
20
11.5341937
11
12.7659834
21
11.5341937
0
LINE
8
DEFAULT_255_2_778
10
12.7659834
20
11.5341937
11
12.7659834
21
11.4137937
0
LINE
8
DEFAULT_255_2_778
10
12.7659834
20
11.4137937
11
11.8780834
21
11.4137937
0
LINE
8
DEFAULT_255_2_778
10
11.8780834
20
11.4137937
11
11.8780834
21
12.9136937
0
LINE
8
DEFAULT_255_2_778
10
7.7603521
20
12.9134614
11
7.2603521
21
12.1842614
0
LINE
8
DEFAULT_255_2_778
10
7.2603521
20
12.1842614
11
7.7762521
21
11.4135614
0
LINE
8
DEFAULT_255_2_778
10
7.7762521
20
11.4135614
11
7.6103521
21
11.4137614
0
LINE
8
DEFAULT_255_2_778
10
7.6103521
20
11.4137614
11
7.1724521
21
12.0823614
0
LINE
8
DEFAULT_255_2_778
10
7.1724521
20
12.0823614
11
6.7335521
21
11.4137614
0
LINE
8
DEFAULT_255_2_778
10
6.7335521
20
11.4137614
11
6.5861521
21
11.4135614
0
LINE
8
DEFAULT_255_2_778
10
6.5861521
20
11.4135614
11
7.1002521
21
12.1842614
0
LINE
8
DEFAULT_255_2_778
10
7.1002521
20
12.1842614
11
6.6120521
21
12.9134614
0
LINE
8
DEFAULT_255_2_778
10
6.6120521
20
12.9134614
11
6.7819521
21
12.9134614
0
LINE
8
DEFAULT_255_2_778
10
6.7819521
20
12.9134614
11
7.1901521
21
12.2813614
0
LINE
8
DEFAULT_255_2_778
10
7.1901521
20
12.2813614
11
7.6137521
21
12.9134614
0
LINE
8
DEFAULT_255_2_778
10
7.6137521
20
12.9134614
11
7.7598521
21
12.9134614
0
LINE
8
DEFAULT_255_2_778
10
13.6942167
20
12.0241333
11
14.1980167
21
12.0241333
0
LINE
8
DEFAULT_255_2_778
10
14.1980167
20
12.0241333
11
14.1980167
21
11.9140333
0
LINE
8
DEFAULT_255_2_778
10
14.1980167
20
11.9140333
11
13.6942167
21
11.9140333
0
LINE
8
DEFAULT_255_2_778
10
13.6942167
20
11.9140333
11
13.6942167
21
12.0241333
0
LINE
8
DEFAULT_255_2_778
10
10.5983167
20
12.0241333
11
11.1021167
21
12.0241333
0
LINE
8
DEFAULT_255_2_778
10
11.1021167
20
12.0241333
11
11.1021167
21
11.9140333
0
LINE
8
DEFAULT_255_2_778
10
11.1021167
20
11.9140333
11
10.5983167
21
11.9140333
0
LINE
8
DEFAULT_255_2_778
10
10.5983167
20
11.9140333
11
10.5983167
21
12.0241333
0
LINE
8
DEFAULT_255_2_778
10
8.1137761
20
12.7100062
11
8.0251761
21
12.5766062
0
LINE
8
DEFAULT_255_2_778
10
8.0251761
20
12.5766062
11
8.0087761
21
12.4981062
0
LINE
8
DEFAULT_255_2_778
10
8.0087761
20
12.4981062
11
8.0079761
21
12.4920062
0
LINE
8
DEFAULT_255_2_778
10
8.0079761
20
12.4920062
11
7.8759761
21
12.4920062
0
LINE
8
DEFAULT_255_2_778
10
7.8759761
20
12.4920062
11
7.8780761
21
12.5338062
0
LINE
8
DEFAULT_255_2_778
10
7.8780761
20
12.5338062
11
7.8825761
21
12.5642062
0
LINE
8
DEFAULT_255_2_778
10
7.8825761
20
12.5642062
11
7.8955761
21
12.6134062
0
LINE
8
DEFAULT_255_2_778
10
7.8955761
20
12.6134062
11
7.9362761
21
12.6965062
0
LINE
8
DEFAULT_255_2_778
10
7.9362761
20
12.6965062
11
8.0317761
21
12.7994062
0
LINE
8
DEFAULT_255_2_778
10
8.0317761
20
12.7994062
11
8.1944761
21
12.8706062
0
LINE
8
DEFAULT_255_2_778
10
8.1944761
20
12.8706062
11
8.4685761
21
12.8643062
0
LINE
8
DEFAULT_255_2_778
10
8.4685761
20
12.8643062
11
8.6239761
21
12.7870062
0
LINE
8
DEFAULT_255_2_778
10
8.6239761
20
12.7870062
11
8.7128761
21
12.6830062
0
LINE
8
DEFAULT_255_2_778
10
8.7128761
20
12.6830062
11
8.7458761
21
12.6086062
0
LINE
8
DEFAULT_255_2_778
10
8.7458761
20
12.6086062
11
8.7580761
21
12.5587062
0
LINE
8
DEFAULT_255_2_778
10
8.7580761
20
12.5587062
11
8.7575761
21
12.4208062
0
LINE
8
DEFAULT_255_2_778
10
8.7575761
20
12.4208062
11
8.7442761
21
12.3729062
0
LINE
8
DEFAULT_255_2_778
10
8.7442761
20
12.3729062
11
8.6154761
21
12.2184062
0
LINE
8
DEFAULT_255_2_778
10
8.6154761
20
12.2184062
11
8.4820761
21
12.1631062
0
LINE
8
DEFAULT_255_2_778
10
8.4820761
20
12.1631062
11
8.6048761
21
12.1168062
0
LINE
8
DEFAULT_255_2_778
10
8.6048761
20
12.1168062
11
8.6752761
21
12.0639062
0
LINE
8
DEFAULT_255_2_778
10
8.6752761
20
12.0639062
11
8.7210761
21
12.0102062
0
LINE
8
DEFAULT_255_2_778
10
8.7210761
20
12.0102062
11
8.7474761
21
11.9655062
0
LINE
8
DEFAULT_255_2_778
10
8.7474761
20
11.9655062
11
8.7667761
21
11.9175062
0
LINE
8
DEFAULT_255_2_778
10
8.7667761
20
11.9175062
11
8.7757761
21
11.8837062
0
LINE
8
DEFAULT_255_2_778
10
8.7757761
20
11.8837062
11
8.7815761
21
11.8485062
0
LINE
8
DEFAULT_255_2_778
10
8.7815761
20
11.8485062
11
8.7800761
21
11.7382062
0
LINE
8
DEFAULT_255_2_778
10
8.7800761
20
11.7382062
11
8.7731761
21
11.7033062
0
LINE
8
DEFAULT_255_2_778
10
8.7731761
20
11.7033062
11
8.7633761
21
11.6697062
0
LINE
8
DEFAULT_255_2_778
10
8.7633761
20
11.6697062
11
8.7427761
21
11.6215062
0
LINE
8
DEFAULT_255_2_778
10
8.7427761
20
11.6215062
11
8.7043761
21
11.5617062
0
LINE
8
DEFAULT_255_2_778
10
8.7043761
20
11.5617062
11
8.6395761
21
11.4953062
0
LINE
8
DEFAULT_255_2_778
10
8.6395761
20
11.4953062
11
8.5426761
21
11.4366062
0
LINE
8
DEFAULT_255_2_778
10
8.5426761
20
11.4366062
11
8.4050761
21
11.3990062
0
LINE
8
DEFAULT_255_2_778
10
8.4050761
20
11.3990062
11
8.1235761
21
11.4204062
0
LINE
8
DEFAULT_255_2_778
10
8.1235761
20
11.4204062
11
8.0222761
21
11.4725062
0
LINE
8
DEFAULT_255_2_778
10
8.0222761
20
11.4725062
11
7.8817761
21
11.6464062
0
LINE
8
DEFAULT_255_2_778
10
7.8817761
20
11.6464062
11
7.8592761
21
11.7435062
0
LINE
8
DEFAULT_255_2_778
10
7.8592761
20
11.7435062
11
7.8566761
21
11.7797062
0
LINE
8
DEFAULT_255_2_778
10
7.8566761
20
11.7797062
11
7.8563761
21
11.7953062
0
LINE
8
DEFAULT_255_2_778
10
7.8563761
20
11.7953062
11
7.9923761
21
11.7953062
0
LINE
8
DEFAULT_255_2_778
10
7.9923761
20
11.7953062
11
7.9936761
21
11.7673062
0
LINE
8
DEFAULT_255_2_778
10
7.9936761
20
11.7673062
11
7.9973761
21
11.7405062
0
LINE
8
DEFAULT_255_2_778
10
7.9973761
20
11.7405062
11
8.0074761
21
11.7025062
0
LINE
8
DEFAULT_255_2_778
10
8.0074761
20
11.7025062
11
8.0291761
21
11.6559062
0
LINE
8
DEFAULT_255_2_778
10
8.0291761
20
11.6559062
11
8.0799761
21
11.5953062
0
LINE
8
DEFAULT_255_2_778
10
8.0799761
20
11.5953062
11
8.1844761
21
11.5315062
0
LINE
8
DEFAULT_255_2_778
10
8.1844761
20
11.5315062
11
8.3389761
21
11.5090062
0
LINE
8
DEFAULT_255_2_778
10
8.3389761
20
11.5090062
11
8.4828761
21
11.5427062
0
LINE
8
DEFAULT_255_2_778
10
8.4828761
20
11.5427062
11
8.5744761
21
11.6091062
0
LINE
8
DEFAULT_255_2_778
10
8.5744761
20
11.6091062
11
8.6170761
21
11.6675062
0
LINE
8
DEFAULT_255_2_778
10
8.6170761
20
11.6675062
11
8.6358761
21
11.7115062
0
LINE
8
DEFAULT_255_2_778
10
8.6358761
20
11.7115062
11
8.6450761
21
11.7472062
0
LINE
8
DEFAULT_255_2_778
10
8.6450761
20
11.7472062
11
8.6445761
21
11.8758062
0
LINE
8
DEFAULT_255_2_778
10
8.6445761
20
11.8758062
11
8.6350761
21
11.9110062
0
LINE
8
DEFAULT_255_2_778
10
8.6350761
20
11.9110062
11
8.6096761
21
11.9644062
0
LINE
8
DEFAULT_255_2_778
10
8.6096761
20
11.9644062
11
8.5537761
21
12.0284062
0
LINE
8
DEFAULT_255_2_778
10
8.5537761
20
12.0284062
11
8.4445761
21
12.0888062
0
LINE
8
DEFAULT_255_2_778
10
8.4445761
20
12.0888062
11
8.3228761
21
12.1067062
0
LINE
8
DEFAULT_255_2_778
10
8.3228761
20
12.1067062
11
8.2429761
21
12.1004062
0
LINE
8
DEFAULT_255_2_778
10
8.2429761
20
12.1004062
11
8.2429761
21
12.2253062
0
LINE
8
DEFAULT_255_2_778
10
8.2429761
20
12.2253062
11
8.4225761
21
12.2308062
0
LINE
8
DEFAULT_255_2_778
10
8.4225761
20
12.2308062
11
8.5228761
21
12.2774062
0
LINE
8
DEFAULT_255_2_778
10
8.5228761
20
12.2774062
11
8.5892761
21
12.3465062
0
LINE
8
DEFAULT_255_2_778
10
8.5892761
20
12.3465062
11
8.6157761
21
12.3973062
0
LINE
8
DEFAULT_255_2_778
10
8.6157761
20
12.3973062
11
8.6257761
21
12.4301062
0
LINE
8
DEFAULT_255_2_778
10
8.6257761
20
12.4301062
11
8.6252761
21
12.5595062
0
LINE
8
DEFAULT_255_2_778
10
8.6252761
20
12.5595062
11
8.6117761
21
12.6020062
0
LINE
8
DEFAULT_255_2_778
10
8.6117761
20
12.6020062
11
8.5783761
21
12.6595062
0
LINE
8
DEFAULT_255_2_778
10
8.5783761
20
12.6595062
11
8.5111761
21
12.7214062
0
LINE
8
DEFAULT_255_2_778
10
8.5111761
20
12.7214062
11
8.3849761
21
12.7656062
0
LINE
8
DEFAULT_255_2_778
10
8.3849761
20
12.7656062
11
8.2087761
21
12.7558062
0
LINE
8
DEFAULT_255_2_778
10
8.2087761
20
12.7558062
11
8.1145761
21
12.7095062
0
LINE
8
DEFAULT_255_2_778
10
15.2398762
20
11.6005937
11
15.3316762
21
11.7643937
0
LINE
8
DEFAULT_255_2_778
10
15.3316762
20
11.7643937
11
15.3337762
21
11.7770937
0
LINE
8
DEFAULT_255_2_778
10
15.3337762
20
11.7770937
11
15.4758762
21
11.7770937
0
LINE
8
DEFAULT_255_2_778
10
15.4758762
20
11.7770937
11
15.4665762
21
11.7346937
0
LINE
8
DEFAULT_255_2_778
10
15.4665762
20
11.7346937
11
15.4438762
21
11.6688937
0
LINE
8
DEFAULT_255_2_778
10
15.4438762
20
11.6688937
11
15.3964762
21
11.5862937
0
LINE
8
DEFAULT_255_2_778
10
15.3964762
20
11.5862937
11
15.3088762
21
11.4965937
0
LINE
8
DEFAULT_255_2_778
10
15.3088762
20
11.4965937
11
15.1681762
21
11.4209937
0
LINE
8
DEFAULT_255_2_778
10
15.1681762
20
11.4209937
11
14.9448762
21
11.3904937
0
LINE
8
DEFAULT_255_2_778
10
14.9448762
20
11.3904937
11
14.7421762
21
11.4298937
0
LINE
8
DEFAULT_255_2_778
10
14.7421762
20
11.4298937
11
14.6135762
21
11.5055937
0
LINE
8
DEFAULT_255_2_778
10
14.6135762
20
11.5055937
11
14.5177762
21
11.6071937
0
LINE
8
DEFAULT_255_2_778
10
14.5177762
20
11.6071937
11
14.4500762
21
11.7214937
0
LINE
8
DEFAULT_255_2_778
10
14.4500762
20
11.7214937
11
14.4114762
21
11.8182937
0
LINE
8
DEFAULT_255_2_778
10
14.4114762
20
11.8182937
11
14.3915762
21
11.8881937
0
LINE
8
DEFAULT_255_2_778
10
14.3915762
20
11.8881937
11
14.3764762
21
11.9619937
0
LINE
8
DEFAULT_255_2_778
10
14.3764762
20
11.9619937
11
14.3682762
21
12.0201937
0
LINE
8
DEFAULT_255_2_778
10
14.3682762
20
12.0201937
11
14.3685762
21
12.3315937
0
LINE
8
DEFAULT_255_2_778
10
14.3685762
20
12.3315937
11
14.3772762
21
12.3895937
0
LINE
8
DEFAULT_255_2_778
10
14.3772762
20
12.3895937
11
14.3934762
21
12.4630937
0
LINE
8
DEFAULT_255_2_778
10
14.3934762
20
12.4630937
11
14.4212762
21
12.5488937
0
LINE
8
DEFAULT_255_2_778
10
14.4212762
20
12.5488937
11
14.4651762
21
12.6427937
0
LINE
8
DEFAULT_255_2_778
10
14.4651762
20
12.6427937
11
14.5415762
21
12.7517937
0
LINE
8
DEFAULT_255_2_778
10
14.5415762
20
12.7517937
11
14.6479762
21
12.8456937
0
LINE
8
DEFAULT_255_2_778
10
14.6479762
20
12.8456937
11
14.8069762
21
12.9176937
0
LINE
8
DEFAULT_255_2_778
10
14.8069762
20
12.9176937
11
15.0352762
21
12.9414937
0
LINE
8
DEFAULT_255_2_778
10
15.0352762
20
12.9414937
11
15.2144762
21
12.9062937
0
LINE
8
DEFAULT_255_2_778
10
15.2144762
20
12.9062937
11
15.3284762
21
12.8382937
0
LINE
8
DEFAULT_255_2_778
10
15.3284762
20
12.8382937
11
15.4440762
21
12.6652937
0
LINE
8
DEFAULT_255_2_778
10
15.4440762
20
12.6652937
11
15.4578762
21
12.5991937
0
LINE
8
DEFAULT_255_2_778
10
15.4578762
20
12.5991937
11
15.4596762
21
12.5620937
0
LINE
8
DEFAULT_255_2_778
10
15.4596762
20
12.5620937
11
15.3197762
21
12.5620937
0
LINE
8
DEFAULT_255_2_778
10
15.3197762
20
12.5620937
11
15.3165762
21
12.5863937
0
LINE
8
DEFAULT_255_2_778
10
15.3165762
20
12.5863937
11
15.3088762
21
12.6207937
0
LINE
8
DEFAULT_255_2_778
10
15.3088762
20
12.6207937
11
15.2882762
21
12.6721937
0
LINE
8
DEFAULT_255_2_778
10
15.2882762
20
12.6721937
11
15.2427762
21
12.7313937
0
LINE
8
DEFAULT_255_2_778
10
15.2427762
20
12.7313937
11
15.1162762
21
12.8020937
0
LINE
8
DEFAULT_255_2_778
10
15.1162762
20
12.8020937
11
14.8974762
21
12.8144937
0
LINE
8
DEFAULT_255_2_778
10
14.8974762
20
12.8144937
11
14.7371762
21
12.7496937
0
LINE
8
DEFAULT_255_2_778
10
14.7371762
20
12.7496937
11
14.6347762
21
12.6488937
0
LINE
8
DEFAULT_255_2_778
10
14.6347762
20
12.6488937
11
14.5990762
21
12.5945937
0
LINE
8
DEFAULT_255_2_778
10
14.5990762
20
12.5945937
11
14.5632762
21
12.5231937
0
LINE
8
DEFAULT_255_2_778
10
14.5632762
20
12.5231937
11
14.5439762
21
12.4720937
0
LINE
8
DEFAULT_255_2_778
10
14.5439762
20
12.4720937
11
14.5280762
21
12.4181937
0
LINE
8
DEFAULT_255_2_778
10
14.5280762
20
12.4181937
11
14.5156762
21
12.3612937
0
LINE
8
DEFAULT_255_2_778
10
14.5156762
20
12.3612937
11
14.5108762
21
12.3315937
0
LINE
8
DEFAULT_255_2_778
10
14.5108762
20
12.3315937
11
14.5069762
21
12.3014937
0
LINE
8
DEFAULT_255_2_778
10
14.5069762
20
12.3014937
11
14.5037762
21
12.2704937
0
LINE
8
DEFAULT_255_2_778
10
14.5037762
20
12.2704937
11
14.5034762
21
12.0762937
0
LINE
8
DEFAULT_255_2_778
10
14.5034762
20
12.0762937
11
14.5063762
21
12.0453937
0
LINE
8
DEFAULT_255_2_778
10
14.5063762
20
12.0453937
11
14.5101762
21
12.0151937
0
LINE
8
DEFAULT_255_2_778
10
14.5101762
20
12.0151937
11
14.5145762
21
11.9857937
0
LINE
8
DEFAULT_255_2_778
10
14.5145762
20
11.9857937
11
14.5262762
21
11.9288937
0
LINE
8
DEFAULT_255_2_778
10
14.5262762
20
11.9288937
11
14.5413762
21
11.8749937
0
LINE
8
DEFAULT_255_2_778
10
14.5413762
20
11.8749937
11
14.5595762
21
11.8238937
0
LINE
8
DEFAULT_255_2_778
10
14.5595762
20
11.8238937
11
14.5931762
21
11.7526937
0
LINE
8
DEFAULT_255_2_778
10
14.5931762
20
11.7526937
11
14.6730762
21
11.6418937
0
LINE
8
DEFAULT_255_2_778
10
14.6730762
20
11.6418937
11
14.8035762
21
11.5494937
0
LINE
8
DEFAULT_255_2_778
10
14.8035762
20
11.5494937
11
15.0173762
21
11.5108937
0
LINE
8
DEFAULT_255_2_778
10
15.0173762
20
11.5108937
11
15.1660762
21
11.5470937
0
LINE
8
DEFAULT_255_2_778
10
15.1660762
20
11.5470937
11
15.2392762
21
11.6000937
0
LINE
8
DEFAULT_255_2_778
10
9.1880762
20
11.7521937
11
9.2210762
21
11.6711937
0
LINE
8
DEFAULT_255_2_778
10
9.2210762
20
11.6711937
11
9.2689762
21
11.5973937
0
LINE
8
DEFAULT_255_2_778
10
9.2689762
20
11.5973937
11
9.3456762
21
11.5352937
0
LINE
8
DEFAULT_255_2_778
10
9.3456762
20
11.5352937
11
9.4626762
21
11.5089937
0
LINE
8
DEFAULT_255_2_778
10
9.4626762
20
11.5089937
11
9.5785762
21
11.5381937
0
LINE
8
DEFAULT_255_2_778
10
9.5785762
20
11.5381937
11
9.6544762
21
11.6034937
0
LINE
8
DEFAULT_255_2_778
10
9.6544762
20
11.6034937
11
9.7018762
21
11.6801937
0
LINE
8
DEFAULT_255_2_778
10
9.7018762
20
11.6801937
11
9.7341762
21
11.7637937
0
LINE
8
DEFAULT_255_2_778
10
9.7341762
20
11.7637937
11
9.7547762
21
11.8436937
0
LINE
8
DEFAULT_255_2_778
10
9.7547762
20
11.8436937
11
9.7671762
21
11.9132937
0
LINE
8
DEFAULT_255_2_778
10
9.7671762
20
11.9132937
11
9.7740762
21
11.9688937
0
LINE
8
DEFAULT_255_2_778
10
9.7740762
20
11.9688937
11
9.7719762
21
12.3302937
0
LINE
8
DEFAULT_255_2_778
10
9.7719762
20
12.3302937
11
9.7647762
21
12.3831937
0
LINE
8
DEFAULT_255_2_778
10
9.7647762
20
12.3831937
11
9.7523762
21
12.4487937
0
LINE
8
DEFAULT_255_2_778
10
9.7523762
20
12.4487937
11
9.7319762
21
12.5228937
0
LINE
8
DEFAULT_255_2_778
10
9.7319762
20
12.5228937
11
9.6989762
21
12.6035937
0
LINE
8
DEFAULT_255_2_778
10
9.6989762
20
12.6035937
11
9.6510762
21
12.6773937
0
LINE
8
DEFAULT_255_2_778
10
9.6510762
20
12.6773937
11
9.5745762
21
12.7395937
0
LINE
8
DEFAULT_255_2_778
10
9.5745762
20
12.7395937
11
9.4581762
21
12.7660937
0
LINE
8
DEFAULT_255_2_778
10
9.4581762
20
12.7660937
11
9.3425762
21
12.7374937
0
LINE
8
DEFAULT_255_2_778
10
9.3425762
20
12.7374937
11
9.2665762
21
12.6726937
0
LINE
8
DEFAULT_255_2_778
10
9.2665762
20
12.6726937
11
9.2192762
21
12.5964937
0
LINE
8
DEFAULT_255_2_778
10
9.2192762
20
12.5964937
11
9.1866762
21
12.5133937
0
LINE
8
DEFAULT_255_2_778
10
9.1866762
20
12.5133937
11
9.1657762
21
12.4337937
0
LINE
8
DEFAULT_255_2_778
10
9.1657762
20
12.4337937
11
9.1530762
21
12.3643937
0
LINE
8
DEFAULT_255_2_778
10
9.1530762
20
12.3643937
11
9.1459762
21
12.3090937
0
LINE
8
DEFAULT_255_2_778
10
9.1459762
20
12.3090937
11
9.1472762
21
11.9468937
0
LINE
8
DEFAULT_255_2_778
10
9.1472762
20
11.9468937
11
9.1544762
21
11.8934937
0
LINE
8
DEFAULT_255_2_778
10
9.1544762
20
11.8934937
11
9.1668762
21
11.8272937
0
LINE
8
DEFAULT_255_2_778
10
9.1668762
20
11.8272937
11
9.1880762
21
11.7521937
0
LINE
8
DEFAULT_255_2_778
10
9.8539762
20
11.6960937
11
9.8185762
21
11.6145937
0
LINE
8
DEFAULT_255_2_778
10
9.8185762
20
11.6145937
11
9.7663762
21
11.5336937
0
LINE
8
DEFAULT_255_2_778
10
9.7663762
20
11.5336937
11
9.6923762
21
11.4621937
0
LINE
8
DEFAULT_255_2_778
10
9.6923762
20
11.4621937
11
9.5761762
21
11.4071937
0
LINE
8
DEFAULT_255_2_778
10
9.5761762
20
11.4071937
11
9.4054762
21
11.3957937
0
LINE
8
DEFAULT_255_2_778
10
9.4054762
20
11.3957937
11
9.2779762
21
11.4333937
0
LINE
8
DEFAULT_255_2_778
10
9.2779762
20
11.4333937
11
9.1840762
21
11.5026937
0
LINE
8
DEFAULT_255_2_778
10
9.1840762
20
11.5026937
11
9.1255762
21
11.5767937
0
LINE
8
DEFAULT_255_2_778
10
9.1255762
20
11.5767937
11
9.0850762
21
11.6524937
0
LINE
8
DEFAULT_255_2_778
10
9.0850762
20
11.6524937
11
9.0586762
21
11.7220937
0
LINE
8
DEFAULT_255_2_778
10
9.0586762
20
11.7220937
11
9.0374762
21
11.7992937
0
LINE
8
DEFAULT_255_2_778
10
9.0374762
20
11.7992937
11
9.0250762
21
11.8625937
0
LINE
8
DEFAULT_255_2_778
10
9.0250762
20
11.8625937
11
9.0184762
21
11.9069937
0
LINE
8
DEFAULT_255_2_778
10
9.0184762
20
11.9069937
11
9.0131762
21
11.9535937
0
LINE
8
DEFAULT_255_2_778
10
9.0131762
20
11.9535937
11
9.0091762
21
12.0019937
0
LINE
8
DEFAULT_255_2_778
10
9.0091762
20
12.0019937
11
9.0102762
21
12.2866937
0
LINE
8
DEFAULT_255_2_778
10
9.0102762
20
12.2866937
11
9.0144762
21
12.3342937
0
LINE
8
DEFAULT_255_2_778
10
9.0144762
20
12.3342937
11
9.0199762
21
12.3800937
0
LINE
8
DEFAULT_255_2_778
10
9.0199762
20
12.3800937
11
9.0308762
21
12.4448937
0
LINE
8
DEFAULT_255_2_778
10
9.0308762
20
12.4448937
11
9.0443762
21
12.5051937
0
LINE
8
DEFAULT_255_2_778
10
9.0443762
20
12.5051937
11
9.0668762
21
12.5787937
0
LINE
8
DEFAULT_255_2_778
10
9.0668762
20
12.5787937
11
9.1020762
21
12.6599937
0
LINE
8
DEFAULT_255_2_778
10
9.1020762
20
12.6599937
11
9.1538762
21
12.7408937
0
LINE
8
DEFAULT_255_2_778
10
9.1538762
20
12.7408937
11
9.2276762
21
12.8120937
0
LINE
8
DEFAULT_255_2_778
10
9.2276762
20
12.8120937
11
9.3435762
21
12.8673937
0
LINE
8
DEFAULT_255_2_778
10
9.3435762
20
12.8673937
11
9.5139762
21
12.8792937
0
LINE
8
DEFAULT_255_2_778
10
9.5139762
20
12.8792937
11
9.6417762
21
12.8419937
0
LINE
8
DEFAULT_255_2_778
10
9.6417762
20
12.8419937
11
9.7359762
21
12.7726937
0
LINE
8
DEFAULT_255_2_778
10
9.7359762
20
12.7726937
11
9.7946762
21
12.6983937
0
LINE
8
DEFAULT_255_2_778
10
9.7946762
20
12.6983937
11
9.8354762
21
12.6220937
0
LINE
8
DEFAULT_255_2_778
10
9.8354762
20
12.6220937
11
9.8621762
21
12.5525937
0
LINE
8
DEFAULT_255_2_778
10
9.8621762
20
12.5525937
11
9.8835762
21
12.4749937
0
LINE
8
DEFAULT_255_2_778
10
9.8835762
20
12.4749937
11
9.8962762
21
12.4117937
0
LINE
8
DEFAULT_255_2_778
10
9.8962762
20
12.4117937
11
9.9031762
21
12.3670937
0
LINE
8
DEFAULT_255_2_778
10
9.9031762
20
12.3670937
11
9.9087762
21
12.3204937
0
LINE
8
DEFAULT_255_2_778
10
9.9087762
20
12.3204937
11
9.9129762
21
12.2720937
0
LINE
8
DEFAULT_255_2_778
10
9.9129762
20
12.2720937
11
9.9121762
21
11.9868937
0
LINE
8
DEFAULT_255_2_778
10
9.9121762
20
11.9868937
11
9.9079762
21
11.9392937
0
LINE
8
DEFAULT_255_2_778
10
9.9079762
20
11.9392937
11
9.9023762
21
11.8934937
0
LINE
8
DEFAULT_255_2_778
10
9.9023762
20
11.8934937
11
9.8915762
21
11.8288937
0
LINE
8
DEFAULT_255_2_778
10
9.8915762
20
11.8288937
11
9.8780762
21
11.7688937
0
LINE
8
DEFAULT_255_2_778
10
9.8780762
20
11.7688937
11
9.8539762
21
11.6960937
0
LINE
8
DEFAULT_255_2_778
10
15.9481762
20
11.7190937
11
16.0195762
21
11.6312937
0
LINE
8
DEFAULT_255_2_778
10
16.0195762
20
11.6312937
11
16.1179762
21
11.5603937
0
LINE
8
DEFAULT_255_2_778
10
16.1179762
20
11.5603937
11
16.2666762
21
11.5156937
0
LINE
8
DEFAULT_255_2_778
10
16.2666762
20
11.5156937
11
16.4494762
21
11.5230937
0
LINE
8
DEFAULT_255_2_778
10
16.4494762
20
11.5230937
11
16.5775762
21
11.5730937
0
LINE
8
DEFAULT_255_2_778
10
16.5775762
20
11.5730937
11
16.6720762
21
11.6508937
0
LINE
8
DEFAULT_255_2_778
10
16.6720762
20
11.6508937
11
16.7397762
21
11.7444937
0
LINE
8
DEFAULT_255_2_778
10
16.7397762
20
11.7444937
11
16.7778762
21
11.8230937
0
LINE
8
DEFAULT_255_2_778
10
16.7778762
20
11.8230937
11
16.8016762
21
11.8918937
0
LINE
8
DEFAULT_255_2_778
10
16.8016762
20
11.8918937
11
16.8156762
21
11.9471937
0
LINE
8
DEFAULT_255_2_778
10
16.8156762
20
11.9471937
11
16.8262762
21
12.0053937
0
LINE
8
DEFAULT_255_2_778
10
16.8262762
20
12.0053937
11
16.8315762
21
12.0458937
0
LINE
8
DEFAULT_255_2_778
10
16.8315762
20
12.0458937
11
16.8312762
21
12.3043937
0
LINE
8
DEFAULT_255_2_778
10
16.8312762
20
12.3043937
11
16.8259762
21
12.3445937
0
LINE
8
DEFAULT_255_2_778
10
16.8259762
20
12.3445937
11
16.8151762
21
12.4022937
0
LINE
8
DEFAULT_255_2_778
10
16.8151762
20
12.4022937
11
16.7953762
21
12.4741937
0
LINE
8
DEFAULT_255_2_778
10
16.7953762
20
12.4741937
11
16.7617762
21
12.5562937
0
LINE
8
DEFAULT_255_2_778
10
16.7617762
20
12.5562937
11
16.7090762
21
12.6427937
0
LINE
8
DEFAULT_255_2_778
10
16.7090762
20
12.6427937
11
16.6227762
21
12.7319937
0
LINE
8
DEFAULT_255_2_778
10
16.6227762
20
12.7319937
11
16.5047762
21
12.7961937
0
LINE
8
DEFAULT_255_2_778
10
16.5047762
20
12.7961937
11
16.3299762
21
12.8226937
0
LINE
8
DEFAULT_255_2_778
10
16.3299762
20
12.8226937
11
16.1714762
21
12.7967937
0
LINE
8
DEFAULT_255_2_778
10
16.1714762
20
12.7967937
11
16.0526762
21
12.7324937
0
LINE
8
DEFAULT_255_2_778
10
16.0526762
20
12.7324937
11
15.9758762
21
12.6554937
0
LINE
8
DEFAULT_255_2_778
10
15.9758762
20
12.6554937
11
15.9216762
21
12.5720937
0
LINE
8
DEFAULT_255_2_778
10
15.9216762
20
12.5720937
11
15.8861762
21
12.4935937
0
LINE
8
DEFAULT_255_2_778
10
15.8861762
20
12.4935937
11
15.8645762
21
12.4249937
0
LINE
8
DEFAULT_255_2_778
10
15.8645762
20
12.4249937
11
15.8520762
21
12.3702937
0
LINE
8
DEFAULT_255_2_778
10
15.8520762
20
12.3702937
11
15.8457762
21
12.3321937
0
LINE
8
DEFAULT_255_2_778
10
15.8457762
20
12.3321937
11
15.8406762
21
12.2926937
0
LINE
8
DEFAULT_255_2_778
10
15.8406762
20
12.2926937
11
15.8420762
21
12.0421937
0
LINE
8
DEFAULT_255_2_778
10
15.8420762
20
12.0421937
11
15.8473762
21
12.0029937
0
LINE
8
DEFAULT_255_2_778
10
15.8473762
20
12.0029937
11
15.8578762
21
11.9466937
0
LINE
8
DEFAULT_255_2_778
10
15.8578762
20
11.9466937
11
15.8769762
21
11.8757937
0
LINE
8
DEFAULT_255_2_778
10
15.8769762
20
11.8757937
11
15.9086762
21
11.7939937
0
LINE
8
DEFAULT_255_2_778
10
15.9086762
20
11.7939937
11
15.9481762
21
11.7190937
0
LINE
8
DEFAULT_255_2_778
10
16.8320762
20
11.6275937
11
16.7566762
21
11.5407937
0
LINE
8
DEFAULT_255_2_778
10
16.7566762
20
11.5407937
11
16.6521762
21
11.4645937
0
LINE
8
DEFAULT_255_2_778
10
16.6521762
20
11.4645937
11
16.5106762
21
11.4103937
0
LINE
8
DEFAULT_255_2_778
10
16.5106762
20
11.4103937
11
16.3013762
21
11.3917937
0
LINE
8
DEFAULT_255_2_778
10
16.3013762
20
11.3917937
11
16.1208762
21
11.4222937
0
LINE
8
DEFAULT_255_2_778
10
16.1208762
20
11.4222937
11
15.9856762
21
11.4867937
0
LINE
8
DEFAULT_255_2_778
10
15.9856762
20
11.4867937
11
15.8867762
21
11.5722937
0
LINE
8
DEFAULT_255_2_778
10
15.8867762
20
11.5722937
11
15.8163762
21
11.6666937
0
LINE
8
DEFAULT_255_2_778
10
15.8163762
20
11.6666937
11
15.7695762
21
11.7574937
0
LINE
8
DEFAULT_255_2_778
10
15.7695762
20
11.7574937
11
15.7401762
21
11.8373937
0
LINE
8
DEFAULT_255_2_778
10
15.7401762
20
11.8373937
11
15.7229762
21
11.9016937
0
LINE
8
DEFAULT_255_2_778
10
15.7229762
20
11.9016937
11
15.7136762
21
11.9466937
0
LINE
8
DEFAULT_255_2_778
10
15.7136762
20
11.9466937
11
15.7062762
21
11.9931937
0
LINE
8
DEFAULT_255_2_778
10
15.7062762
20
11.9931937
11
15.7004762
21
12.0413937
0
LINE
8
DEFAULT_255_2_778
10
15.7004762
20
12.0413937
11
15.7020762
21
12.3225937
0
LINE
8
DEFAULT_255_2_778
10
15.7020762
20
12.3225937
11
15.7086762
21
12.3704937
0
LINE
8
DEFAULT_255_2_778
10
15.7086762
20
12.3704937
11
15.7171762
21
12.4167937
0
LINE
8
DEFAULT_255_2_778
10
15.7171762
20
12.4167937
11
15.7335762
21
12.4831937
0
LINE
8
DEFAULT_255_2_778
10
15.7335762
20
12.4831937
11
15.7544762
21
12.5458937
0
LINE
8
DEFAULT_255_2_778
10
15.7544762
20
12.5458937
11
15.7893762
21
12.6239937
0
LINE
8
DEFAULT_255_2_778
10
15.7893762
20
12.6239937
11
15.8438762
21
12.7120937
0
LINE
8
DEFAULT_255_2_778
10
15.8438762
20
12.7120937
11
15.9235762
21
12.8004937
0
LINE
8
DEFAULT_255_2_778
10
15.9235762
20
12.8004937
11
16.0343762
21
12.8766937
0
LINE
8
DEFAULT_255_2_778
10
16.0343762
20
12.8766937
11
16.1851762
21
12.9284937
0
LINE
8
DEFAULT_255_2_778
10
16.1851762
20
12.9284937
11
16.3841762
21
12.9414937
0
LINE
8
DEFAULT_255_2_778
10
16.3841762
20
12.9414937
11
16.5505762
21
12.9123937
0
LINE
8
DEFAULT_255_2_778
10
16.5505762
20
12.9123937
11
16.6749762
21
12.8557937
0
LINE
8
DEFAULT_255_2_778
10
16.6749762
20
12.8557937
11
16.7659762
21
12.7840937
0
LINE
8
DEFAULT_255_2_778
10
16.7659762
20
12.7840937
11
16.8307762
21
12.7078937
0
LINE
8
DEFAULT_255_2_778
10
16.8307762
20
12.7078937
11
16.8844762
21
12.6189937
0
LINE
8
DEFAULT_255_2_778
10
16.8844762
20
12.6189937
11
16.9186762
21
12.5408937
0
LINE
8
DEFAULT_255_2_778
10
16.9186762
20
12.5408937
11
16.9392762
21
12.4784937
0
LINE
8
DEFAULT_255_2_778
10
16.9392762
20
12.4784937
11
16.9553762
21
12.4125937
0
LINE
8
DEFAULT_255_2_778
10
16.9553762
20
12.4125937
11
16.9638762
21
12.3667937
0
LINE
8
DEFAULT_255_2_778
10
16.9638762
20
12.3667937
11
16.9701762
21
12.3194937
0
LINE
8
DEFAULT_255_2_778
10
16.9701762
20
12.3194937
11
16.9694762
21
12.0199937
0
LINE
8
DEFAULT_255_2_778
10
16.9694762
20
12.0199937
11
16.9633762
21
11.9736937
0
LINE
8
DEFAULT_255_2_778
10
16.9633762
20
11.9736937
11
16.9553762
21
11.9288937
0
LINE
8
DEFAULT_255_2_778
10
16.9553762
20
11.9288937
11
16.9405762
21
11.8646937
0
LINE
8
DEFAULT_255_2_778
10
16.9405762
20
11.8646937
11
16.9148762
21
11.7847937
0
LINE
8
DEFAULT_255_2_778
10
16.9148762
20
11.7847937
11
16.8730762
21
11.6937937
0
LINE
8
DEFAULT_255_2_778
10
16.8730762
20
11.6937937
11
16.8320762
21
11.6275937
0
ENDSEC
0
EOF