0
SECTION
2
HEADER
9
$MEASUREMENT
70
1
0
ENDSEC
0
SECTION
2
TABLES
0
TABLE
2
LTYPE
0
LTYPE
72
65
70
64
2
CONTINUOUS
3
______
73
0
40
0
0
ENDTAB
0
TABLE
2
LAYER
0
LAYER
2
DEFAULT_255_2_778
70
0
62
255
6
CONTINUOUS
0
ENDTAB
0
ENDSEC
0
SECTION
2
ENTITIES
0
LINE
8
DEFAULT_255_2_778
10
29.9983672
20
34.919867
11
29.8901672
21
34.919567
0
LINE
8
DEFAULT_255_2_778
10
36.2409672
20
126.618367
11
36.2409672
21
127.090867
0
LINE
8
DEFAULT_255_2_778
10
28.3407672
20
7.334367
11
28.3407672
21
10.912867
0
LINE
8
DEFAULT_255_2_778
10
0.2406672
20
-0.221833
11
23.7406672
21
-0.221833
0
LINE
8
DEFAULT_255_2_778
10
23.7406672
20
-0.221833
11
23.7406672
21
0.038467
0
LINE
8
DEFAULT_255_2_778
10
23.7406672
20
0.038467
11
23.7880672
21
0.038467
0
LINE
8
DEFAULT_255_2_778
10
23.7880672
20
0.038467
11
23.7880672
21
0.686967
0
ARC
8
DEFAULT_255_2_778
10
30.3421233
20
30.9375194
40
2.0013561
50
155.3210892
51
179.9990976
0
ARC
8
DEFAULT_255_2_778
10
24.2183724
20
151.7815393
40
6.0225958
50
359.9668139
51
12.2590519
0
ARC
8
DEFAULT_255_2_778
10
24.2791621
20
151.7919079
40
5.9609915
50
12.285728
51
29.8656809
0
ARC
8
DEFAULT_255_2_778
10
24.2277855
20
151.7637669
40
6.0195585
50
29.8544478
51
70.1249482
0
ARC
8
DEFAULT_255_2_778
10
24.2534741
20
151.8113522
40
5.9660794
50
70.2015929
51
84.3979194
0
ARC
8
DEFAULT_255_2_778
10
24.2419943
20
151.7063823
40
6.0716688
50
84.3868043
51
90.0087489
0
LINE
8
DEFAULT_255_2_778
10
0.2406672
20
-0.2218491
11
0.2406672
21
2.3165509
0
LINE
8
DEFAULT_255_2_778
10
0.2406672
20
2.3165509
11
8.2405672
21
2.3165509
0
LINE
8
DEFAULT_255_2_778
10
8.2405672
20
2.3165509
11
8.2405672
21
10.9128509
0
LINE
8
DEFAULT_255_2_778
10
8.2405672
20
10.9128509
11
28.3407672
21
10.9128509
0
LINE
8
DEFAULT_255_2_778
10
28.3407672
20
10.9128509
11
28.3407672
21
30.9375509
0
LINE
8
DEFAULT_255_2_778
10
34.5407672
20
104.0909509
11
36.2406672
21
104.0909509
0
LINE
8
DEFAULT_255_2_778
10
36.2406672
20
104.0909509
11
36.2406672
21
104.9928509
0
LINE
8
DEFAULT_255_2_778
10
36.2406672
20
80.6184509
11
36.2406672
21
81.0909509
0
LINE
8
DEFAULT_255_2_778
10
33.6689672
20
46.6832509
11
36.2409672
21
46.6832509
0
LINE
8
DEFAULT_255_2_778
10
36.2409672
20
46.6832509
11
36.2409672
21
45.1780509
0
LINE
8
DEFAULT_255_2_778
10
36.2406672
20
37.3780509
11
36.2406672
21
35.8728509
0
LINE
8
DEFAULT_255_2_778
10
36.2406672
20
35.8728509
11
30.2724672
21
35.8728509
0
LINE
8
DEFAULT_255_2_778
10
36.2406672
20
103.6183509
11
36.2406672
21
104.0909509
0
LINE
8
DEFAULT_255_2_778
10
36.2406672
20
57.6181509
11
36.2406672
21
58.0907509
0
LINE
8
DEFAULT_255_2_778
10
21.2408672
20
156.5781509
11
21.2408672
21
151.2782509
0
LINE
8
DEFAULT_255_2_778
10
28.2409672
20
147.2780509
11
28.2409672
21
151.7780509
0
LINE
8
DEFAULT_255_2_778
10
28.2409672
20
151.7780509
11
30.2409672
21
151.7780509
0
ARC
8
DEFAULT_255_2_778
10
23.5439794
20
148.6520095
40
2.6260416
50
68.9652836
51
90.0677021
0
ARC
8
DEFAULT_255_2_778
10
23.4869638
20
148.552494
40
2.7394463
50
22.3257476
51
68.5993342
0
ARC
8
DEFAULT_255_2_778
10
23.3696248
20
148.4920602
40
2.8709689
50
3.4815295
51
22.5518583
0
ARC
8
DEFAULT_255_2_778
10
23.2769586
20
148.4829761
40
2.9640178
50
359.9956158
51
3.5480267
0
ARC
8
DEFAULT_255_2_778
10
32.0929452
20
142.9788848
40
2.4978276
50
11.3859306
51
30.6924316
0
ARC
8
DEFAULT_255_2_778
10
32.0889063
20
142.9782099
40
2.5019202
50
359.998612
51
11.3828226
0
ARC
8
DEFAULT_255_2_778
10
32.092199
20
142.977736
40
2.4986274
50
334.4393913
51
0.0094767
0
ARC
8
DEFAULT_255_2_778
10
32.086063
20
142.9809354
40
2.5055434
50
329.3186492
51
334.4339312
0
ARC
8
DEFAULT_255_2_778
10
30.2183647
20
49.7268194
40
4.0303682
50
1.3372495
51
3.578078
0
ARC
8
DEFAULT_255_2_778
10
30.2151797
20
49.7267428
40
4.0335541
50
0.0000146
51
1.337282
0
ARC
8
DEFAULT_255_2_778
10
30.2036565
20
49.7271085
40
4.0450773
50
348.2642851
51
359.9948343
0
ARC
8
DEFAULT_255_2_778
10
-44.1603075
20
65.1983254
40
80.0013652
50
335.3037525
51
348.2482751
0
LINE
8
DEFAULT_255_2_778
10
21.2408764
20
155.7780493
11
24.2409764
21
155.7780493
0
LINE
8
DEFAULT_255_2_778
10
24.2409764
20
155.7780493
11
24.2409764
21
157.7780493
0
LINE
8
DEFAULT_255_2_778
10
24.2409764
20
157.7780493
11
20.0409764
21
157.7780493
0
LINE
8
DEFAULT_255_2_778
10
20.0409764
20
157.7780493
11
20.0409764
21
151.2780493
0
LINE
8
DEFAULT_255_2_778
10
20.0409764
20
151.2780493
11
23.5408764
21
151.2780493
0
LINE
8
DEFAULT_255_2_778
10
23.5408764
20
151.2780493
11
23.5408764
21
151.2780493
0
LINE
8
DEFAULT_255_2_778
10
26.2409764
20
148.4827493
11
26.2409764
21
147.2780493
0
LINE
8
DEFAULT_255_2_778
10
26.2409764
20
147.2780493
11
34.2408764
21
147.2780493
0
LINE
8
DEFAULT_255_2_778
10
34.2408764
20
147.2780493
11
34.2408764
21
144.2538493
0
LINE
8
DEFAULT_255_2_778
10
34.2408764
20
141.7024493
11
34.2408764
21
49.9783493
0
LINE
8
DEFAULT_255_2_778
10
30.2409084
20
151.7780841
11
30.2409084
21
147.2780841
0
LINE
8
DEFAULT_255_2_778
10
34.2409084
20
86.4780841
11
34.3409084
21
86.4780841
0
LINE
8
DEFAULT_255_2_778
10
34.3409084
20
86.4780841
11
34.3409084
21
81.8780841
0
LINE
8
DEFAULT_255_2_778
10
34.3409084
20
81.8780841
11
34.2409084
21
81.8780841
0
LINE
8
DEFAULT_255_2_778
10
34.2409084
20
127.8779841
11
34.3409084
21
127.8779841
0
LINE
8
DEFAULT_255_2_778
10
34.3409084
20
127.8779841
11
34.3409084
21
132.4780841
0
LINE
8
DEFAULT_255_2_778
10
34.3409084
20
132.4780841
11
34.2409084
21
132.4780841
0
LINE
8
DEFAULT_255_2_778
10
34.2406084
20
58.8780841
11
34.3406084
21
58.8780841
0
LINE
8
DEFAULT_255_2_778
10
34.3406084
20
58.8780841
11
34.3406084
21
63.4781841
0
LINE
8
DEFAULT_255_2_778
10
34.3406084
20
63.4781841
11
34.2406084
21
63.4781841
0
LINE
8
DEFAULT_255_2_778
10
34.2408813
20
134.2279614
11
34.5408813
21
134.2279614
0
LINE
8
DEFAULT_255_2_778
10
34.5408813
20
134.2279614
11
34.5408813
21
132.7280614
0
LINE
8
DEFAULT_255_2_778
10
34.5408813
20
132.7280614
11
34.2408813
21
132.7280614
0
LINE
8
DEFAULT_255_2_778
10
34.2408813
20
127.6281614
11
34.5408813
21
127.6281614
0
LINE
8
DEFAULT_255_2_778
10
34.5408813
20
127.6281614
11
34.5408813
21
126.1282614
0
LINE
8
DEFAULT_255_2_778
10
34.5408813
20
126.1282614
11
34.2408813
21
126.1282614
0
LINE
8
DEFAULT_255_2_778
10
34.2408813
20
111.2280614
11
34.5408813
21
111.2280614
0
LINE
8
DEFAULT_255_2_778
10
34.5408813
20
111.2280614
11
34.5408813
21
109.7281614
0
LINE
8
DEFAULT_255_2_778
10
34.5408813
20
109.7281614
11
34.2408813
21
109.7281614
0
LINE
8
DEFAULT_255_2_778
10
34.2408813
20
104.6279614
11
34.5408813
21
104.6279614
0
LINE
8
DEFAULT_255_2_778
10
34.5408813
20
104.6279614
11
34.5408813
21
103.1280614
0
LINE
8
DEFAULT_255_2_778
10
34.5408813
20
103.1280614
11
34.2408813
21
103.1280614
0
LINE
8
DEFAULT_255_2_778
10
34.2406813
20
88.2280614
11
34.5406813
21
88.2280614
0
LINE
8
DEFAULT_255_2_778
10
34.5406813
20
88.2280614
11
34.5406813
21
86.7281614
0
LINE
8
DEFAULT_255_2_778
10
34.5406813
20
86.7281614
11
34.2406813
21
86.7281614
0
LINE
8
DEFAULT_255_2_778
10
34.2406813
20
81.6280614
11
34.5406813
21
81.6280614
0
LINE
8
DEFAULT_255_2_778
10
34.5406813
20
81.6280614
11
34.5406813
21
80.1281614
0
LINE
8
DEFAULT_255_2_778
10
34.5406813
20
80.1281614
11
34.2406813
21
80.1281614
0
LINE
8
DEFAULT_255_2_778
10
34.2406813
20
65.2280614
11
34.5406813
21
65.2280614
0
LINE
8
DEFAULT_255_2_778
10
34.5406813
20
65.2280614
11
34.5406813
21
63.7281614
0
LINE
8
DEFAULT_255_2_778
10
34.5406813
20
63.7281614
11
34.2406813
21
63.7281614
0
LINE
8
DEFAULT_255_2_778
10
34.2406813
20
58.6280614
11
34.5406813
21
58.6280614
0
LINE
8
DEFAULT_255_2_778
10
34.5406813
20
58.6280614
11
34.5406813
21
57.1281614
0
LINE
8
DEFAULT_255_2_778
10
34.5406813
20
57.1281614
11
34.2406813
21
57.1281614
0
ARC
8
DEFAULT_255_2_778
10
21.258382
20
7.2781177
40
7.0595215
50
290.9951792
51
308.0492097
0
ARC
8
DEFAULT_255_2_778
10
21.2199065
20
7.3207875
40
7.1168382
50
308.0814104
51
325.4170004
0
ARC
8
DEFAULT_255_2_778
10
21.1857425
20
7.3394853
40
7.1555796
50
325.449009
51
342.7006549
0
ARC
8
DEFAULT_255_2_778
10
21.1875623
20
7.3362203
40
7.1528717
50
342.7212904
51
359.9852093
0
LINE
8
DEFAULT_255_2_778
10
28.3404337
20
9.2832738
11
11.1912337
21
9.2832738
0
LINE
8
DEFAULT_255_2_778
10
11.1912337
20
9.2832738
11
11.1912337
21
0.6872738
0
LINE
8
DEFAULT_255_2_778
10
11.1912337
20
0.6872738
11
23.7877337
21
0.6872738
0
LINE
8
DEFAULT_255_2_778
10
28.3404337
20
7.3343738
11
28.3404337
21
6.9374738
0
LINE
8
DEFAULT_255_2_778
10
28.3404337
20
6.9374738
11
28.3404337
21
6.6858738
0
LINE
8
DEFAULT_255_2_778
10
28.3404337
20
6.6858738
11
28.3201337
21
6.1495738
0
LINE
8
DEFAULT_255_2_778
10
28.3201337
20
6.1495738
11
28.2603337
21
5.6198738
0
LINE
8
DEFAULT_255_2_778
10
28.2603337
20
5.6198738
11
28.1613337
21
5.0967738
0
LINE
8
DEFAULT_255_2_778
10
28.1613337
20
5.0967738
11
28.0232337
21
4.5805738
0
LINE
8
DEFAULT_255_2_778
10
28.0232337
20
4.5805738
11
27.9391337
21
4.3249738
0
LINE
8
DEFAULT_255_2_778
10
27.9391337
20
4.3249738
11
27.8454337
21
4.0728738
0
LINE
8
DEFAULT_255_2_778
10
27.8454337
20
4.0728738
11
27.6313337
21
3.5830738
0
LINE
8
DEFAULT_255_2_778
10
27.6313337
20
3.5830738
11
27.3824337
21
3.1126738
0
LINE
8
DEFAULT_255_2_778
10
27.3824337
20
3.1126738
11
27.0987337
21
2.6612738
0
LINE
8
DEFAULT_255_2_778
10
27.0987337
20
2.6612738
11
26.7797337
21
2.2297738
0
LINE
8
DEFAULT_255_2_778
10
26.7797337
20
2.2297738
11
26.6077337
21
2.0225738
0
LINE
8
DEFAULT_255_2_778
10
26.6077337
20
2.0225738
11
26.4288337
21
1.8230738
0
LINE
8
DEFAULT_255_2_778
10
26.4288337
20
1.8230738
11
26.0513337
21
1.4468738
0
LINE
8
DEFAULT_255_2_778
10
26.0513337
20
1.4468738
11
25.6472337
21
1.1005738
0
LINE
8
DEFAULT_255_2_778
10
25.6472337
20
1.1005738
11
25.2162337
21
0.7843738
0
LINE
8
DEFAULT_255_2_778
10
25.2162337
20
0.7843738
11
24.9905337
21
0.6377738
0
LINE
8
DEFAULT_255_2_778
10
24.9905337
20
0.6377738
11
24.7590337
21
0.4996738
0
LINE
8
DEFAULT_255_2_778
10
24.7590337
20
0.4996738
11
24.2823337
21
0.2509738
0
LINE
8
DEFAULT_255_2_778
10
24.2823337
20
0.2509738
11
23.7872337
21
0.0390738
0
LINE
8
DEFAULT_255_2_778
10
8.9909337
20
149.2780738
11
8.9909337
21
155.5015738
0
LINE
8
DEFAULT_255_2_778
10
8.9909337
20
155.5015738
11
10.5909337
21
155.5015738
0
LINE
8
DEFAULT_255_2_778
10
10.5909337
20
155.5015738
11
10.5909337
21
149.2780738
0
LINE
8
DEFAULT_255_2_778
10
11.1909337
20
149.2780738
11
11.1909337
21
158.7781738
0
LINE
8
DEFAULT_255_2_778
10
4.2631337
20
155.5015738
11
4.2631337
21
149.2780738
0
LINE
8
DEFAULT_255_2_778
10
4.2631337
20
149.2780738
11
2.2631337
21
149.2780738
0
LINE
8
DEFAULT_255_2_778
10
2.2631337
20
149.2780738
11
2.2631337
21
155.5015738
0
LINE
8
DEFAULT_255_2_778
10
2.2631337
20
155.5015738
11
4.2631337
21
155.5015738
0
ARC
8
DEFAULT_255_2_778
10
23.6386576
20
146.5812501
40
2.6937805
50
14.990347
51
39.2215516
0
ARC
8
DEFAULT_255_2_778
10
23.6325036
20
146.5768876
40
2.7013065
50
39.2107002
51
82.6345637
0
ARC
8
DEFAULT_255_2_778
10
23.6333441
20
146.5679563
40
2.7100571
50
82.6763937
51
90.0079697
0
ARC
8
DEFAULT_255_2_778
10
24.2411388
20
151.7793853
40
6.9987281
50
67.1491772
51
90.0030425
0
ARC
8
DEFAULT_255_2_778
10
24.2419442
20
151.7800542
40
6.997799
50
44.9949992
51
67.1531269
0
ARC
8
DEFAULT_255_2_778
10
24.2427236
20
151.7791241
40
6.9979056
50
22.1481524
51
45.0048968
0
ARC
8
DEFAULT_255_2_778
10
24.242223
20
151.7783949
40
6.9986442
50
359.9968773
51
22.1521363
0
ARC
8
DEFAULT_255_2_778
10
24.2374181
20
151.7808276
40
4.00355
50
359.9597256
51
15.7867618
0
ARC
8
DEFAULT_255_2_778
10
24.2458853
20
151.7782462
40
3.9961074
50
15.8554061
51
44.0422332
0
ARC
8
DEFAULT_255_2_778
10
24.2397093
20
151.7802065
40
3.9991882
50
43.9605333
51
73.5540141
0
ARC
8
DEFAULT_255_2_778
10
24.2444649
20
151.7785138
40
3.9994684
50
73.6262195
51
89.5217475
0
ARC
8
DEFAULT_255_2_778
10
24.2404866
20
151.6877601
40
4.0902534
50
89.4766332
51
89.9918672
0
LINE
8
DEFAULT_255_2_778
10
23.6329672
20
149.2780134
11
8.2408672
21
149.2780134
0
LINE
8
DEFAULT_255_2_778
10
8.2408672
20
149.2780134
11
8.2408672
21
158.7781134
0
LINE
8
DEFAULT_255_2_778
10
8.2408672
20
158.7781134
11
24.2407672
21
158.7781134
0
LINE
8
DEFAULT_255_2_778
10
31.2408672
20
151.7780134
11
31.2408672
21
147.2780134
0
LINE
8
DEFAULT_255_2_778
10
0.2406672
20
2.3165134
11
0.2406672
21
10.9781134
0
LINE
8
DEFAULT_255_2_778
10
0.2406672
20
10.9781134
11
0.5406672
21
11.2782134
0
LINE
8
DEFAULT_255_2_778
10
0.5406672
20
11.2782134
11
0.5409672
21
148.9782134
0
LINE
8
DEFAULT_255_2_778
10
0.5409672
20
148.9782134
11
0.2409672
21
149.2782134
0
LINE
8
DEFAULT_255_2_778
10
0.2409672
20
149.2782134
11
0.2409672
21
158.7781134
0
LINE
8
DEFAULT_255_2_778
10
0.2409672
20
158.7781134
11
8.2408672
21
158.7781134
0
LINE
8
DEFAULT_255_2_778
10
4.2406672
20
3.3933134
11
2.2406672
21
3.3933134
0
LINE
8
DEFAULT_255_2_778
10
2.2406672
20
3.3933134
11
2.2406672
21
10.4103134
0
LINE
8
DEFAULT_255_2_778
10
2.2406672
20
10.4103134
11
4.2406672
21
10.4103134
0
LINE
8
DEFAULT_255_2_778
10
4.2406672
20
10.4103134
11
4.2406672
21
3.3933134
0
LINE
8
DEFAULT_255_2_778
10
29.6514672
20
34.0845134
11
29.5429672
21
34.0845134
0
LINE
8
DEFAULT_255_2_778
10
29.2810672
20
33.2195134
11
29.1720672
21
33.2195134
0
LINE
8
DEFAULT_255_2_778
10
34.3409672
20
127.9928134
11
36.2409672
21
127.9928134
0
LINE
8
DEFAULT_255_2_778
10
34.3406672
20
81.9928134
11
36.2406672
21
81.9928134
0
LINE
8
DEFAULT_255_2_778
10
34.3406672
20
58.9929134
11
36.2406672
21
58.9929134
0
LINE
8
DEFAULT_255_2_778
10
1.3407672
20
158.7781134
11
1.3407672
21
158.8781134
0
LINE
8
DEFAULT_255_2_778
10
1.3407672
20
158.8781134
11
10.9406672
21
158.8781134
0
LINE
8
DEFAULT_255_2_778
10
10.9406672
20
158.8781134
11
10.9406672
21
158.7781134
0
LINE
8
DEFAULT_255_2_778
10
29.1614672
20
33.1955134
11
29.2707672
21
33.1955134
0
ARC
8
DEFAULT_255_2_778
10
16.2452272
20
154.0816458
40
2.2545056
50
158.2390887
51
180.090221
0
ARC
8
DEFAULT_255_2_778
10
16.2357125
20
154.082665
40
2.2452927
50
100.4596873
51
158.173229
0
ARC
8
DEFAULT_255_2_778
10
16.2396317
20
154.0480998
40
2.2799962
50
89.9700271
51
100.3988469
0
ARC
8
DEFAULT_255_2_778
10
16.2443658
20
154.0735757
40
2.2545229
50
68.2401607
51
90.0899995
0
ARC
8
DEFAULT_255_2_778
10
16.245447
20
154.0831296
40
2.2452504
50
10.46182
51
68.1754031
0
ARC
8
DEFAULT_255_2_778
10
16.211058
20
154.0792872
40
2.2797667
50
359.9700565
51
10.3998477
0
ARC
8
DEFAULT_255_2_778
10
16.2364404
20
154.0745608
40
2.2543868
50
338.2386051
51
0.0898428
0
ARC
8
DEFAULT_255_2_778
10
16.2457625
20
154.0735788
40
2.2453665
50
280.4545112
51
338.173688
0
ARC
8
DEFAULT_255_2_778
10
16.2420131
20
154.1076077
40
2.2795122
50
269.9701221
51
280.3919857
0
ARC
8
DEFAULT_255_2_778
10
16.2372822
20
154.0827325
40
2.2546395
50
248.2398393
51
270.0900165
0
ARC
8
DEFAULT_255_2_778
10
16.236185
20
154.0731612
40
2.245345
50
190.4547019
51
248.1752974
0
ARC
8
DEFAULT_255_2_778
10
16.2702364
20
154.0769071
40
2.2795122
50
179.9701222
51
190.3919859
0
ARC
8
DEFAULT_255_2_778
10
16.4363998
20
22.2485616
40
14.0014772
50
241.205546
51
247.9936898
0
ARC
8
DEFAULT_255_2_778
10
17.28073
20
23.7921282
40
15.7608749
50
235.7723572
51
241.2184745
0
ARC
8
DEFAULT_255_2_778
10
17.9050978
20
24.7376132
40
16.8938137
50
235.0853283
51
235.8252158
0
ARC
8
DEFAULT_255_2_778
10
16.444063
20
13.6679504
40
14.018709
50
241.2085162
51
247.988372
0
ARC
8
DEFAULT_255_2_778
10
17.2946739
20
15.2232747
40
15.7914361
50
235.7866014
51
241.2216639
0
ARC
8
DEFAULT_255_2_778
10
17.9238494
20
16.1764254
40
16.9334211
50
235.1014934
51
235.8395153
0
LINE
8
DEFAULT_255_2_778
10
20.0410244
20
157.7790958
11
20.0414006
21
157.7790958
0
ARC
8
DEFAULT_255_2_778
10
20.0414631
20
156.5831711
40
1.1959247
50
44.8361498
51
90.0029968
0
ARC
8
DEFAULT_255_2_778
10
20.0462998
20
156.5783345
40
1.1959246
50
359.9970032
51
45.1638502
0
LINE
8
DEFAULT_255_2_778
10
21.2422245
20
156.578272
11
21.2422244
21
156.5778958
0
ARC
8
DEFAULT_255_2_778
10
2.8471044
20
10.8055113
40
0.7606962
50
217.0299112
51
229.9986396
0
ARC
8
DEFAULT_255_2_778
10
3.2253985
20
11.2703708
40
1.3599918
50
230.379072
51
243.5824126
0
ARC
8
DEFAULT_255_2_778
10
3.7540011
20
12.2925304
40
2.5106625
50
243.1571575
51
250.5292151
0
ARC
8
DEFAULT_255_2_778
10
4.2732897
20
13.7410936
40
4.0494829
50
250.4337486
51
255.44562
0
ARC
8
DEFAULT_255_2_778
10
4.6773006
20
15.238633
40
5.6005125
50
255.295066
51
257.1171997
0
ARC
8
DEFAULT_255_2_778
10
5.0497755
20
16.9157765
40
7.3184932
50
257.2020075
51
261.1139145
0
ARC
8
DEFAULT_255_2_778
10
5.4242826
20
19.2271109
40
9.6599447
50
261.0369317
51
262.9599182
0
LINE
8
DEFAULT_255_2_778
10
13.9907244
20
154.0780958
11
13.9907244
21
154.0780958
0
LINE
8
DEFAULT_255_2_778
10
29.9980244
20
34.9197958
11
29.7954244
21
34.4281958
0
LINE
8
DEFAULT_255_2_778
10
29.7954244
20
34.4281958
11
29.6514244
21
34.0844958
0
LINE
8
DEFAULT_255_2_778
10
29.6514244
20
34.0844958
11
29.4916244
21
33.7082958
0
LINE
8
DEFAULT_255_2_778
10
29.4916244
20
33.7082958
11
29.2807244
21
33.2195958
0
LINE
8
DEFAULT_255_2_778
10
34.3409244
20
136.7216958
11
34.3409244
21
136.3766958
0
LINE
8
DEFAULT_255_2_778
10
34.7410244
20
142.2408958
11
34.7410244
21
143.7151958
0
LINE
8
DEFAULT_255_2_778
10
34.3406244
20
90.7529958
11
34.3406244
21
90.3872958
0
LINE
8
DEFAULT_255_2_778
10
34.3406244
20
102.3168958
11
34.3406244
21
102.1760958
0
LINE
8
DEFAULT_255_2_778
10
34.7407244
20
52.2409958
11
34.7407244
21
53.7152958
0
LINE
8
DEFAULT_255_2_778
10
29.9980244
20
34.9192958
11
30.0015244
21
34.9277958
0
LINE
8
DEFAULT_255_2_778
10
30.0015244
20
34.9277958
11
30.0057244
21
34.9383958
0
LINE
8
DEFAULT_255_2_778
10
30.0057244
20
34.9383958
11
30.0078244
21
34.9433958
0
LINE
8
DEFAULT_255_2_778
10
30.0078244
20
34.9433958
11
30.0081244
21
34.9441958
0
LINE
8
DEFAULT_255_2_778
10
30.0081244
20
34.9441958
11
30.0078244
21
34.9433958
0
LINE
8
DEFAULT_255_2_778
10
34.3406244
20
56.2290958
11
34.3406244
21
56.3721958
0
LINE
8
DEFAULT_255_2_778
10
34.3406244
20
56.3721958
11
34.2406244
21
56.3721958
0
LINE
8
DEFAULT_255_2_778
10
34.2406244
20
56.2290958
11
34.3406244
21
56.2290958
0
LINE
8
DEFAULT_255_2_778
10
34.3406244
20
56.2290958
11
34.3406244
21
54.8722958
0
LINE
8
DEFAULT_255_2_778
10
34.3406244
20
54.8722958
11
34.2406244
21
54.8722958
0
LINE
8
DEFAULT_255_2_778
10
34.2406244
20
52.2280958
11
34.7407244
21
52.2280958
0
LINE
8
DEFAULT_255_2_778
10
34.7407244
20
52.2280958
11
34.7407244
21
52.2409958
0
LINE
8
DEFAULT_255_2_778
10
34.7407244
20
52.2409958
11
34.2406244
21
52.2409958
0
LINE
8
DEFAULT_255_2_778
10
34.2406244
20
53.7149958
11
34.7407244
21
53.7149958
0
LINE
8
DEFAULT_255_2_778
10
34.7407244
20
53.7149958
11
34.7407244
21
53.7279958
0
LINE
8
DEFAULT_255_2_778
10
34.7407244
20
53.7279958
11
34.2406244
21
53.7279958
0
LINE
8
DEFAULT_255_2_778
10
34.4756244
20
142.2279958
11
34.7407244
21
142.2279958
0
LINE
8
DEFAULT_255_2_778
10
34.7407244
20
142.2279958
11
34.7407244
21
142.2408958
0
LINE
8
DEFAULT_255_2_778
10
34.7407244
20
142.2408958
11
34.4795244
21
142.2408958
0
LINE
8
DEFAULT_255_2_778
10
34.4795244
20
143.7151958
11
34.7407244
21
143.7151958
0
LINE
8
DEFAULT_255_2_778
10
34.7407244
20
143.7151958
11
34.7407244
21
143.7280958
0
LINE
8
DEFAULT_255_2_778
10
34.7407244
20
143.7280958
11
34.4756244
21
143.7280958
0
LINE
8
DEFAULT_255_2_778
10
34.3409244
20
124.9844958
11
34.3409244
21
123.8676958
0
LINE
8
DEFAULT_255_2_778
10
34.3409244
20
123.8676958
11
34.2409244
21
123.8676958
0
LINE
8
DEFAULT_255_2_778
10
34.3409244
20
125.1167958
11
34.3409244
21
125.3678958
0
LINE
8
DEFAULT_255_2_778
10
34.3409244
20
125.3678958
11
34.2409244
21
125.3678958
0
LINE
8
DEFAULT_255_2_778
10
34.2409244
20
125.1165958
11
34.3409244
21
125.1165958
0
LINE
8
DEFAULT_255_2_778
10
34.3409244
20
125.1165958
11
34.3409244
21
124.9844958
0
LINE
8
DEFAULT_255_2_778
10
34.3409244
20
124.9844958
11
34.2409244
21
124.9844958
0
LINE
8
DEFAULT_255_2_778
10
34.3406938
20
78.0940115
11
34.3406938
21
77.9530115
0
LINE
8
DEFAULT_255_2_778
10
34.3406938
20
77.9530115
11
34.2406938
21
77.9530115
0
LINE
8
DEFAULT_255_2_778
10
34.2406883
20
77.8576388
11
34.3406883
21
77.8576388
0
LINE
8
DEFAULT_255_2_778
10
34.3406883
20
77.8576388
11
34.3406883
21
77.8576388
0
LINE
8
DEFAULT_255_2_778
10
34.3406883
20
77.8576388
11
34.3406883
21
77.9529388
0
LINE
8
DEFAULT_255_2_778
10
34.2406883
20
78.6133388
11
34.3406883
21
78.6133388
0
LINE
8
DEFAULT_255_2_778
10
34.3406883
20
78.6133388
11
34.3406883
21
78.6940388
0
LINE
8
DEFAULT_255_2_778
10
34.3406883
20
78.6940388
11
34.3406883
21
78.5966388
0
LINE
8
DEFAULT_255_2_778
10
34.3406883
20
78.5966388
11
34.3406883
21
78.3733388
0
LINE
8
DEFAULT_255_2_778
10
34.3406883
20
78.3733388
11
34.3406883
21
78.1077388
0
LINE
8
DEFAULT_255_2_778
10
34.3406883
20
78.1077388
11
34.3406883
21
77.9965388
0
LINE
8
DEFAULT_255_2_778
10
34.3406883
20
77.9965388
11
34.3406883
21
78.0939388
0
LINE
8
DEFAULT_255_2_778
10
34.3406883
20
78.0939388
11
34.2406883
21
78.0939388
0
LINE
8
DEFAULT_255_2_778
10
34.3406883
20
78.6133388
11
34.3406883
21
79.3787388
0
LINE
8
DEFAULT_255_2_778
10
34.3406883
20
79.3787388
11
34.2406883
21
79.3787388
0
LINE
8
DEFAULT_255_2_778
10
36.2408883
20
128.1441388
11
34.3409883
21
128.1441388
0
LINE
8
DEFAULT_255_2_778
10
36.2406883
20
127.2082388
11
34.5406883
21
127.2082388
0
LINE
8
DEFAULT_255_2_778
10
34.2409883
20
126.0782388
11
36.2408883
21
126.0782388
0
LINE
8
DEFAULT_255_2_778
10
36.2408883
20
126.0782388
11
36.2408883
21
126.6182388
0
LINE
8
DEFAULT_255_2_778
10
36.2408883
20
126.6182388
11
34.5409883
21
126.6182388
0
LINE
8
DEFAULT_255_2_778
10
34.5409883
20
127.0908388
11
36.2408883
21
127.0908388
0
LINE
8
DEFAULT_255_2_778
10
36.2408883
20
127.0908388
11
36.2408883
21
134.2779388
0
LINE
8
DEFAULT_255_2_778
10
36.2408883
20
134.2779388
11
34.2409883
21
134.2779388
0
LINE
8
DEFAULT_255_2_778
10
36.2408883
20
105.1441388
11
34.3409883
21
105.1441388
0
LINE
8
DEFAULT_255_2_778
10
36.2406883
20
104.2083388
11
34.5406883
21
104.2083388
0
LINE
8
DEFAULT_255_2_778
10
34.2406883
20
103.0782388
11
36.2406883
21
103.0782388
0
LINE
8
DEFAULT_255_2_778
10
36.2406883
20
103.0782388
11
36.2406883
21
103.6182388
0
LINE
8
DEFAULT_255_2_778
10
36.2406883
20
103.6182388
11
34.5406883
21
103.6182388
0
LINE
8
DEFAULT_255_2_778
10
34.3406073
20
104.9928472
11
36.2406073
21
104.9928472
0
LINE
8
DEFAULT_255_2_778
10
36.2406073
20
104.9928472
11
36.2406073
21
111.2780472
0
LINE
8
DEFAULT_255_2_778
10
36.2406073
20
111.2780472
11
34.2406073
21
111.2780472
0
LINE
8
DEFAULT_255_2_778
10
36.2406073
20
82.1439472
11
34.3406073
21
82.1439472
0
LINE
8
DEFAULT_255_2_778
10
36.2406073
20
81.2081472
11
34.5406073
21
81.2081472
0
LINE
8
DEFAULT_255_2_778
10
34.2406073
20
80.0781472
11
36.2406073
21
80.0781472
0
LINE
8
DEFAULT_255_2_778
10
36.2406073
20
80.0781472
11
36.2406073
21
80.6181472
0
LINE
8
DEFAULT_255_2_778
10
36.2406073
20
80.6181472
11
34.5406073
21
80.6181472
0
LINE
8
DEFAULT_255_2_778
10
34.5406073
20
81.0909472
11
36.2406073
21
81.0909472
0
LINE
8
DEFAULT_255_2_778
10
36.2406073
20
81.0909472
11
36.2406073
21
88.2780472
0
LINE
8
DEFAULT_255_2_778
10
36.2406073
20
88.2780472
11
34.2406073
21
88.2780472
0
LINE
8
DEFAULT_255_2_778
10
36.2406073
20
59.1440472
11
34.3406073
21
59.1440472
0
LINE
8
DEFAULT_255_2_778
10
36.2406073
20
58.2081472
11
34.5406073
21
58.2081472
0
LINE
8
DEFAULT_255_2_778
10
34.2406073
20
57.0781472
11
36.2406073
21
57.0781472
0
LINE
8
DEFAULT_255_2_778
10
36.2406073
20
57.0781472
11
36.2406073
21
57.6181472
0
LINE
8
DEFAULT_255_2_778
10
36.2406073
20
57.6181472
11
34.5406073
21
57.6181472
0
LINE
8
DEFAULT_255_2_778
10
34.5406073
20
58.0909472
11
36.2406073
21
58.0909472
0
LINE
8
DEFAULT_255_2_778
10
36.2406073
20
58.0909472
11
36.2406073
21
65.2781472
0
LINE
8
DEFAULT_255_2_778
10
36.2406073
20
65.2781472
11
34.2406073
21
65.2781472
0
LINE
8
DEFAULT_255_2_778
10
34.3409073
20
101.7284472
11
34.3409073
21
101.5855472
0
LINE
8
DEFAULT_255_2_778
10
34.3409073
20
101.5855472
11
34.2409073
21
101.5855472
0
LINE
8
DEFAULT_255_2_778
10
34.2409073
20
102.3880472
11
34.3409073
21
102.3880472
0
LINE
8
DEFAULT_255_2_778
10
34.3409073
20
102.3880472
11
34.3409073
21
102.3168472
0
LINE
8
DEFAULT_255_2_778
10
34.3409073
20
102.3168472
11
34.2409073
21
102.3168472
0
LINE
8
DEFAULT_255_2_778
10
34.2409073
20
102.1761472
11
34.3409073
21
102.1761472
0
LINE
8
DEFAULT_255_2_778
10
34.3409073
20
102.1761472
11
34.3409073
21
102.2491472
0
LINE
8
DEFAULT_255_2_778
10
34.3409073
20
102.2491472
11
34.3409073
21
102.1835472
0
LINE
8
DEFAULT_255_2_778
10
34.3409073
20
102.1835472
11
34.3409073
21
102.0141472
0
LINE
8
DEFAULT_255_2_778
10
34.3409073
20
102.0141472
11
34.3409073
21
101.7866472
0
LINE
8
DEFAULT_255_2_778
10
34.3409073
20
101.7866472
11
34.3409073
21
101.7242472
0
LINE
8
DEFAULT_255_2_778
10
34.3409073
20
101.7242472
11
34.3409073
21
101.7287472
0
LINE
8
DEFAULT_255_2_778
10
34.3409073
20
101.7287472
11
34.2409073
21
101.7287472
0
LINE
8
DEFAULT_255_2_778
10
34.2408938
20
104.8780103
11
34.3408938
21
104.8780103
0
LINE
8
DEFAULT_255_2_778
10
34.3408938
20
104.8780103
11
34.3408938
21
109.4780103
0
LINE
8
DEFAULT_255_2_778
10
34.3408938
20
109.4780103
11
34.2408938
21
109.4780103
0
LINE
8
DEFAULT_255_2_778
10
34.3408938
20
101.5860103
11
34.3408938
21
101.5897103
0
LINE
8
DEFAULT_255_2_778
10
34.3408938
20
101.5897103
11
34.3408938
21
101.2952103
0
LINE
8
DEFAULT_255_2_778
10
34.3408938
20
101.2952103
11
34.3408938
21
101.0743103
0
LINE
8
DEFAULT_255_2_778
10
34.3408938
20
101.0743103
11
34.2408938
21
101.0743103
0
LINE
8
DEFAULT_255_2_778
10
34.3408938
20
101.0521103
11
34.3408938
21
100.9124103
0
LINE
8
DEFAULT_255_2_778
10
34.3408938
20
100.9124103
11
34.2408938
21
100.9124103
0
LINE
8
DEFAULT_255_2_778
10
34.2409167
20
100.8437249
11
34.3409167
21
100.8437249
0
LINE
8
DEFAULT_255_2_778
10
34.3409167
20
100.8437249
11
34.3409167
21
100.9125249
0
LINE
8
DEFAULT_255_2_778
10
34.3409167
20
101.0744249
11
34.3409167
21
100.9823249
0
LINE
8
DEFAULT_255_2_778
10
34.3409167
20
100.9823249
11
34.3409167
21
101.0522249
0
LINE
8
DEFAULT_255_2_778
10
34.3409167
20
101.0522249
11
34.2409167
21
101.0522249
0
LINE
8
DEFAULT_255_2_778
10
30.0080167
20
34.9450249
11
29.9001167
21
34.9450249
0
LINE
8
DEFAULT_255_2_778
10
34.3409167
20
113.7376249
11
34.2409167
21
113.7376249
0
LINE
8
DEFAULT_255_2_778
10
34.2409167
20
113.2870249
11
34.3409167
21
113.2870249
0
LINE
8
DEFAULT_255_2_778
10
34.3409167
20
113.2870249
11
34.3409167
21
113.1388249
0
LINE
8
DEFAULT_255_2_778
10
34.3409167
20
113.1388249
11
34.2409167
21
113.1388249
0
LINE
8
DEFAULT_255_2_778
10
34.3408938
20
113.3901666
11
34.3408938
21
113.7375666
0
LINE
8
DEFAULT_255_2_778
10
34.3408938
20
113.7375666
11
34.3408938
21
114.4744666
0
LINE
8
DEFAULT_255_2_778
10
34.3408938
20
114.4744666
11
34.2408938
21
114.4744666
0
LINE
8
DEFAULT_255_2_778
10
34.3408938
20
113.1380666
11
34.3408938
21
112.9925666
0
LINE
8
DEFAULT_255_2_778
10
34.3408938
20
112.9925666
11
34.3408938
21
112.7819666
0
LINE
8
DEFAULT_255_2_778
10
34.3408938
20
112.7819666
11
34.3408938
21
112.5067666
0
LINE
8
DEFAULT_255_2_778
10
34.3408938
20
112.5067666
11
34.3408938
21
112.0191666
0
LINE
8
DEFAULT_255_2_778
10
34.3408938
20
112.0191666
11
34.2408938
21
112.0191666
0
LINE
8
DEFAULT_255_2_778
10
34.3408897
20
112.0190861
11
34.3408897
21
111.8677861
0
LINE
8
DEFAULT_255_2_778
10
34.3408897
20
111.8677861
11
34.2408897
21
111.8677861
0
LINE
8
DEFAULT_255_2_778
10
34.3408897
20
113.2869861
11
34.3408897
21
113.3898861
0
LINE
8
DEFAULT_255_2_778
10
34.3408897
20
113.3898861
11
34.2408897
21
113.3898861
0
LINE
8
DEFAULT_255_2_778
10
28.3406897
20
12.0914861
11
28.4406897
21
12.0914861
0
LINE
8
DEFAULT_255_2_778
10
28.4406897
20
12.0914861
11
28.4406897
21
12.0914861
0
LINE
8
DEFAULT_255_2_778
10
28.4406897
20
12.0914861
11
28.4406897
21
12.1152861
0
LINE
8
DEFAULT_255_2_778
10
28.440722
20
13.8185128
11
28.440722
21
13.8421128
0
LINE
8
DEFAULT_255_2_778
10
28.440722
20
13.8421128
11
28.340722
21
13.8421128
0
LINE
8
DEFAULT_255_2_778
10
28.340722
20
12.9816128
11
28.440722
21
12.9816128
0
LINE
8
DEFAULT_255_2_778
10
28.440722
20
12.9816128
11
28.440722
21
12.1170128
0
LINE
8
DEFAULT_255_2_778
10
28.440722
20
12.1170128
11
28.340722
21
12.1170128
0
LINE
8
DEFAULT_255_2_778
10
28.440722
20
12.9816128
11
28.440722
21
13.8169128
0
LINE
8
DEFAULT_255_2_778
10
28.440722
20
13.8169128
11
28.340722
21
13.8169128
0
LINE
8
DEFAULT_255_2_778
10
34.340722
20
68.4846128
11
34.240622
21
68.4846128
0
LINE
8
DEFAULT_255_2_778
10
34.240622
20
68.4624128
11
34.340722
21
68.4624128
0
LINE
8
DEFAULT_255_2_778
10
34.340722
20
68.4624128
11
34.340722
21
67.7255128
0
LINE
8
DEFAULT_255_2_778
10
34.340722
20
67.7255128
11
34.240622
21
67.7255128
0
LINE
8
DEFAULT_255_2_778
10
34.240622
20
65.8520128
11
34.340722
21
65.8520128
0
LINE
8
DEFAULT_255_2_778
10
34.340722
20
65.8520128
11
34.340722
21
65.8520128
0
LINE
8
DEFAULT_255_2_778
10
34.340722
20
65.8520128
11
34.340722
21
66.0457128
0
LINE
8
DEFAULT_255_2_778
10
34.340722
20
66.0457128
11
34.340722
21
66.4724128
0
LINE
8
DEFAULT_255_2_778
10
34.340722
20
66.4724128
11
34.340722
21
67.0299128
0
LINE
8
DEFAULT_255_2_778
10
34.340722
20
67.0299128
11
34.340722
21
67.3953128
0
LINE
8
DEFAULT_255_2_778
10
34.340722
20
67.3953128
11
34.240622
21
67.3953128
0
LINE
8
DEFAULT_255_2_778
10
30.622722
20
36.7780128
11
34.240622
21
36.7780128
0
LINE
8
DEFAULT_255_2_778
10
34.240622
20
36.7780128
11
34.240622
21
45.7781128
0
LINE
8
DEFAULT_255_2_778
10
34.240622
20
45.7781128
11
33.448022
21
45.7781128
0
LINE
8
DEFAULT_255_2_778
10
34.240622
20
37.3783742
11
40.240622
21
37.3783742
0
LINE
8
DEFAULT_255_2_778
10
40.240622
20
37.3783742
11
40.240622
21
45.1782742
0
LINE
8
DEFAULT_255_2_778
10
40.240622
20
45.1782742
11
34.240622
21
45.1782742
0
LINE
8
DEFAULT_255_2_778
10
34.340922
20
91.4911742
11
34.340922
21
91.5120742
0
LINE
8
DEFAULT_255_2_778
10
34.340922
20
91.5120742
11
34.240922
21
91.5120742
0
LINE
8
DEFAULT_255_2_778
10
34.240922
20
91.4898742
11
34.340922
21
91.4898742
0
LINE
8
DEFAULT_255_2_778
10
34.340922
20
91.4898742
11
34.340922
21
90.7529742
0
LINE
8
DEFAULT_255_2_778
10
34.340922
20
90.7529742
11
34.240922
21
90.7529742
0
LINE
8
DEFAULT_255_2_778
10
34.340922
20
88.8873742
11
34.340922
21
88.8699742
0
LINE
8
DEFAULT_255_2_778
10
34.340922
20
88.8699742
11
34.240922
21
88.8699742
0
LINE
8
DEFAULT_255_2_778
10
34.3408938
20
89.3192
11
34.3408938
21
88.8874
0
LINE
8
DEFAULT_255_2_778
10
34.3408938
20
88.8874
11
34.2408938
21
88.8874
0
LINE
8
DEFAULT_255_2_778
10
34.3408938
20
89.4832722
11
34.3408938
21
89.3192722
0
LINE
8
DEFAULT_255_2_778
10
34.3408938
20
89.3192722
11
34.2408938
21
89.3192722
0
LINE
8
DEFAULT_255_2_778
10
34.2408938
20
90.3873722
11
34.3408938
21
90.3873722
0
LINE
8
DEFAULT_255_2_778
10
34.3408938
20
90.3873722
11
34.3408938
21
89.4832722
0
LINE
8
DEFAULT_255_2_778
10
34.3408938
20
89.4832722
11
34.2408938
21
89.4832722
0
LINE
8
DEFAULT_255_2_778
10
34.3408938
20
140.8756722
11
34.3408938
21
140.8965722
0
LINE
8
DEFAULT_255_2_778
10
34.3408938
20
140.8965722
11
34.2408938
21
140.8965722
0
LINE
8
DEFAULT_255_2_778
10
34.2408938
20
134.8320722
11
34.3408938
21
134.8320722
0
LINE
8
DEFAULT_255_2_778
10
34.3408938
20
134.8320722
11
34.3408938
21
134.8320722
0
LINE
8
DEFAULT_255_2_778
10
34.3408938
20
134.8320722
11
34.3408938
21
135.6048722
0
LINE
8
DEFAULT_255_2_778
10
34.3408938
20
135.6048722
11
34.3408938
21
136.1337722
0
LINE
8
DEFAULT_255_2_778
10
34.3408938
20
136.1337722
11
34.3408938
21
136.3753722
0
LINE
8
DEFAULT_255_2_778
10
34.3408938
20
136.3753722
11
34.2408938
21
136.3753722
0
ARC
8
DEFAULT_255_2_778
10
16.3136288
20
4.4737363
40
2.2044468
50
67.9790197
51
90.0922171
0
ARC
8
DEFAULT_255_2_778
10
16.31485
20
4.4833695
40
2.19506
50
10.4149564
51
67.9142911
0
ARC
8
DEFAULT_255_2_778
10
16.2799209
20
4.4792466
40
2.2301601
50
359.9700347
51
10.3569092
0
ARC
8
DEFAULT_255_2_778
10
16.3058867
20
4.4745454
40
2.2041969
50
337.9760237
51
0.0918867
0
ARC
8
DEFAULT_255_2_778
10
16.3150903
20
4.473489
40
2.1952702
50
280.410635
51
337.9115054
0
ARC
8
DEFAULT_255_2_778
10
16.3112365
20
4.5074443
40
2.2293642
50
269.9702962
51
280.3503548
0
ARC
8
DEFAULT_255_2_778
10
16.306549
20
4.4821717
40
2.2040943
50
247.9118312
51
270.0918092
0
ARC
8
DEFAULT_255_2_778
10
16.305454
20
4.473055
40
2.1952363
50
190.4358483
51
247.848837
0
ARC
8
DEFAULT_255_2_778
10
16.3394989
20
4.4769148
40
2.2294183
50
179.9700472
51
190.37492
0
ARC
8
DEFAULT_255_2_778
10
16.2554922
20
4.4822232
40
2.1454154
50
180.0000054
51
180.1106416
0
ARC
8
DEFAULT_255_2_778
10
16.3060029
20
4.4821941
40
2.195926
50
134.9988181
51
179.999246
0
ARC
8
DEFAULT_255_2_778
10
16.306215
20
4.4818988
40
2.1962847
50
89.9974662
51
134.9972829
0
ARC
8
DEFAULT_255_2_778
10
16.3063119
20
4.4587793
40
2.2194042
50
89.9027033
51
89.999995
0
ARC
8
DEFAULT_255_2_778
10
16.313614
20
4.4741138
40
2.2040693
50
67.9116074
51
90.091847
0
ARC
8
DEFAULT_255_2_778
10
16.3146681
20
4.4831879
40
2.1952663
50
10.4683794
51
67.8480432
0
ARC
8
DEFAULT_255_2_778
10
16.2804397
20
4.4792521
40
2.2296414
50
359.9698879
51
10.4080222
0
ARC
8
DEFAULT_255_2_778
10
16.3058867
20
4.4745454
40
2.2041969
50
337.9760237
51
0.0918867
0
ARC
8
DEFAULT_255_2_778
10
16.3150903
20
4.473489
40
2.1952702
50
280.410635
51
337.9115054
0
ARC
8
DEFAULT_255_2_778
10
16.3112365
20
4.5074443
40
2.2293642
50
269.9702962
51
280.3503548
0
LINE
8
DEFAULT_255_2_778
10
34.3408808
20
137.4603803
11
34.3408808
21
137.4806803
0
LINE
8
DEFAULT_255_2_778
10
34.3408808
20
137.4806803
11
34.2408808
21
137.4806803
0
LINE
8
DEFAULT_255_2_778
10
34.2408808
20
137.4584803
11
34.3408808
21
137.4584803
0
LINE
8
DEFAULT_255_2_778
10
34.3408808
20
137.4584803
11
34.3408808
21
136.7216803
0
LINE
8
DEFAULT_255_2_778
10
34.3408808
20
136.7216803
11
34.2408808
21
136.7216803
0
LINE
8
DEFAULT_255_2_778
10
34.2408808
20
139.3528803
11
34.3408808
21
139.3528803
0
LINE
8
DEFAULT_255_2_778
10
34.3408808
20
139.3528803
11
34.3408808
21
139.3528803
0
LINE
8
DEFAULT_255_2_778
10
34.3408808
20
139.3528803
11
34.3408808
21
139.3729803
0
LINE
8
DEFAULT_255_2_778
10
34.3408808
20
146.3643803
11
34.3408808
21
146.3852803
0
LINE
8
DEFAULT_255_2_778
10
34.3408808
20
146.3852803
11
34.2408808
21
146.3852803
0
LINE
8
DEFAULT_255_2_778
10
34.2408808
20
144.8419803
11
34.3408808
21
144.8419803
0
LINE
8
DEFAULT_255_2_778
10
34.3408808
20
144.8419803
11
34.3408808
21
144.8617803
0
LINE
8
DEFAULT_255_2_778
10
34.2408808
20
146.3630803
11
34.3408808
21
146.3630803
0
LINE
8
DEFAULT_255_2_778
10
34.3408808
20
146.3630803
11
34.3408808
21
144.8631803
0
LINE
8
DEFAULT_255_2_778
10
34.3408808
20
144.8631803
11
34.2408808
21
144.8631803
0
LINE
8
DEFAULT_255_2_778
10
34.2408808
20
140.8742803
11
34.3408808
21
140.8742803
0
LINE
8
DEFAULT_255_2_778
10
34.3408808
20
140.8742803
11
34.3408808
21
139.3743803
0
LINE
8
DEFAULT_255_2_778
10
34.3408808
20
139.3743803
11
34.2408808
21
139.3743803
0
LINE
8
DEFAULT_255_2_778
10
16.2709808
20
6.6778803
11
16.3100808
21
6.6781803
0
LINE
8
DEFAULT_255_2_778
10
14.1100808
20
4.4780803
11
14.1100808
21
4.4780803
0
ARC
8
DEFAULT_255_2_778
10
16.227943
20
4.4826795
40
2.204472
50
247.9792441
51
270.0921791
0
ARC
8
DEFAULT_255_2_778
10
16.2266839
20
4.4730063
40
2.1950339
50
190.4080173
51
247.9150412
0
ARC
8
DEFAULT_255_2_778
10
16.2613642
20
4.4770477
40
2.2298748
50
179.970126
51
190.3491687
0
ARC
8
DEFAULT_255_2_778
10
16.2356837
20
4.4817453
40
2.2041969
50
157.9760237
51
180.0918867
0
ARC
8
DEFAULT_255_2_778
10
16.2264801
20
4.4828017
40
2.1952702
50
100.410635
51
157.9115054
0
ARC
8
DEFAULT_255_2_778
10
16.2303339
20
4.4488464
40
2.2293642
50
89.9702962
51
100.3503548
0
ARC
8
DEFAULT_255_2_778
10
16.2350214
20
4.4741189
40
2.2040943
50
67.9118312
51
90.0918092
0
ARC
8
DEFAULT_255_2_778
10
16.2361164
20
4.4832356
40
2.1952363
50
10.4358483
51
67.848837
0
ARC
8
DEFAULT_255_2_778
10
16.2020715
20
4.4793758
40
2.2294183
50
359.9700472
51
10.37492
0
ARC
8
DEFAULT_255_2_778
10
16.2272955
20
4.4746754
40
2.2041969
50
337.9760237
51
0.0918867
0
ARC
8
DEFAULT_255_2_778
10
16.2364991
20
4.473619
40
2.1952702
50
280.410635
51
337.9115054
0
ARC
8
DEFAULT_255_2_778
10
16.2326454
20
4.5075743
40
2.2293642
50
269.9702962
51
280.3503548
0
LINE
8
DEFAULT_255_2_778
10
16.2314896
20
2.2782104
11
16.2314896
21
2.2782104
0
ARC
8
DEFAULT_255_2_778
10
16.2512261
20
4.4772217
40
2.1905374
50
205.4081262
51
211.2832588
0
ARC
8
DEFAULT_255_2_778
10
16.2932837
20
4.49524
40
2.2362585
50
199.4135586
51
205.3627785
0
ARC
8
DEFAULT_255_2_778
10
16.1924349
20
4.4685574
40
2.1314788
50
186.6900829
51
193.1997169
0
ARC
8
DEFAULT_255_2_778
10
16.0990405
20
4.4820438
40
2.0389238
50
179.9993417
51
180.4131201
0
ARC
8
DEFAULT_255_2_778
10
16.2117299
20
4.4800164
40
2.1516143
50
173.7583923
51
179.9453885
0
ARC
8
DEFAULT_255_2_778
10
16.2433321
20
4.4789961
40
2.1831415
50
167.3997587
51
173.8219462
0
ARC
8
DEFAULT_255_2_778
10
16.2048379
20
4.4960636
40
2.1413457
50
154.952542
51
161.1887841
0
LINE
8
DEFAULT_255_2_778
10
16.2423697
20
2.2784426
11
16.1378697
21
2.2821426
0
LINE
8
DEFAULT_255_2_778
10
16.1378697
20
2.2821426
11
16.0786697
21
2.2864426
0
LINE
8
DEFAULT_255_2_778
10
16.0786697
20
2.2864426
11
16.0214697
21
2.2922426
0
LINE
8
DEFAULT_255_2_778
10
16.0214697
20
2.2922426
11
15.9129697
21
2.3070426
0
LINE
8
DEFAULT_255_2_778
10
15.9129697
20
2.3070426
11
15.8608697
21
2.3163426
0
LINE
8
DEFAULT_255_2_778
10
15.8608697
20
2.3163426
11
15.8097697
21
2.3263426
0
LINE
8
DEFAULT_255_2_778
10
15.8097697
20
2.3263426
11
15.7113697
21
2.3496426
0
LINE
8
DEFAULT_255_2_778
10
15.7113697
20
2.3496426
11
15.6166697
21
2.3766426
0
LINE
8
DEFAULT_255_2_778
10
15.6166697
20
2.3766426
11
15.4351697
21
2.4414426
0
LINE
8
DEFAULT_255_2_778
10
15.4351697
20
2.4414426
11
15.2610697
21
2.5210426
0
LINE
8
DEFAULT_255_2_778
10
15.2610697
20
2.5210426
11
15.0927697
21
2.6166426
0
LINE
8
DEFAULT_255_2_778
10
15.0927697
20
2.6166426
11
15.0110697
21
2.6703426
0
LINE
8
DEFAULT_255_2_778
10
15.0110697
20
2.6703426
11
14.9313697
21
2.7279426
0
LINE
8
DEFAULT_255_2_778
10
14.9313697
20
2.7279426
11
14.7789697
21
2.8547426
0
LINE
8
DEFAULT_255_2_778
10
14.7789697
20
2.8547426
11
14.6355697
21
2.9978426
0
LINE
8
DEFAULT_255_2_778
10
14.6355697
20
2.9978426
11
14.5019697
21
3.1589426
0
LINE
8
DEFAULT_255_2_778
10
14.5019697
20
3.1589426
11
14.4389697
21
3.2468426
0
LINE
8
DEFAULT_255_2_778
10
14.4389697
20
3.2468426
11
14.4085697
21
3.2928426
0
LINE
8
DEFAULT_255_2_778
10
14.4085697
20
3.2928426
11
14.3791697
21
3.3397426
0
LINE
8
DEFAULT_255_2_778
10
14.1841697
20
3.7519426
11
14.1651697
21
3.8085426
0
LINE
8
DEFAULT_255_2_778
10
14.1651697
20
3.8085426
11
14.1476697
21
3.8657426
0
LINE
8
DEFAULT_255_2_778
10
14.1476697
20
3.8657426
11
14.1172697
21
3.9818426
0
LINE
8
DEFAULT_255_2_778
10
14.0754697
20
4.2202426
11
14.0643697
21
4.3427426
0
LINE
8
DEFAULT_255_2_778
10
14.0643697
20
4.3427426
11
14.0614697
21
4.4049426
0
LINE
8
DEFAULT_255_2_778
10
14.0614697
20
4.4049426
11
14.0601697
21
4.4673426
0
LINE
8
DEFAULT_255_2_778
10
14.1127697
20
4.9552426
11
14.1267697
21
5.0145426
0
LINE
8
DEFAULT_255_2_778
10
14.1267697
20
5.0145426
11
14.1423697
21
5.0727426
0
LINE
8
DEFAULT_255_2_778
10
14.1423697
20
5.0727426
11
14.1778697
21
5.1865426
0
LINE
8
DEFAULT_255_2_778
10
14.2648697
20
5.4026426
11
14.3159697
21
5.5053426
0
LINE
8
DEFAULT_255_2_778
10
14.3159697
20
5.5053426
11
14.3709697
21
5.6029426
0
LINE
8
DEFAULT_255_2_778
10
14.3709697
20
5.6029426
11
14.4916697
21
5.7839426
0
LINE
8
DEFAULT_255_2_778
10
14.4916697
20
5.7839426
11
14.6252697
21
5.9474426
0
LINE
8
DEFAULT_255_2_778
10
14.6252697
20
5.9474426
11
14.6607697
21
5.9858426
0
LINE
8
DEFAULT_255_2_778
10
14.6607697
20
5.9858426
11
14.6966697
21
6.0231426
0
LINE
8
DEFAULT_255_2_778
10
14.6966697
20
6.0231426
11
14.7702697
21
6.0942426
0
LINE
8
DEFAULT_255_2_778
10
14.7702697
20
6.0942426
11
14.9231697
21
6.2226426
0
LINE
8
DEFAULT_255_2_778
10
14.9231697
20
6.2226426
11
15.0832697
21
6.3342426
0
LINE
8
DEFAULT_255_2_778
10
15.0832697
20
6.3342426
11
15.2504697
21
6.4303426
0
LINE
8
DEFAULT_255_2_778
10
15.2504697
20
6.4303426
11
15.3369697
21
6.4729426
0
LINE
8
DEFAULT_255_2_778
10
15.3369697
20
6.4729426
11
15.4256697
21
6.5117426
0
LINE
8
DEFAULT_255_2_778
10
15.4256697
20
6.5117426
11
15.6087697
21
6.5779426
0
LINE
8
DEFAULT_255_2_778
10
15.6087697
20
6.5779426
11
15.7039697
21
6.6054426
0
LINE
8
DEFAULT_255_2_778
10
15.7039697
20
6.6054426
11
15.8021697
21
6.6290426
0
LINE
8
DEFAULT_255_2_778
10
15.8021697
20
6.6290426
11
15.9039697
21
6.6485426
0
LINE
8
DEFAULT_255_2_778
10
15.9039697
20
6.6485426
11
16.0114697
21
6.6639426
0
LINE
8
DEFAULT_255_2_778
10
16.0114697
20
6.6639426
11
16.0680697
21
6.6697426
0
LINE
8
DEFAULT_255_2_778
10
16.0680697
20
6.6697426
11
16.0973697
21
6.6721426
0
LINE
8
DEFAULT_255_2_778
10
16.0973697
20
6.6721426
11
16.1272697
21
6.6742426
0
LINE
8
DEFAULT_255_2_778
10
16.1272697
20
6.6742426
11
16.2497697
21
6.6787426
0
LINE
8
DEFAULT_255_2_778
10
16.2497697
20
6.6787426
11
16.2675697
21
6.6787426
0
ARC
8
DEFAULT_255_2_778
10
16.2908085
20
4.4777599
40
2.2101357
50
148.9712716
51
154.7935864
0
ARC
8
DEFAULT_255_2_778
10
16.3543862
20
4.4493018
40
2.2797794
50
154.8269667
51
160.6623944
0
ARC
8
DEFAULT_255_2_778
10
16.29782
20
4.4774925
40
2.2173717
50
167.0524747
51
173.3151216
0
ARC
8
DEFAULT_255_2_778
10
16.278937
20
4.4805017
40
2.1982281
50
179.791172
51
180.0014154
0
ARC
8
DEFAULT_255_2_778
10
16.3386617
20
4.4811995
40
2.257953
50
180.0190853
51
186.0833252
0
ARC
8
DEFAULT_255_2_778
10
16.2949008
20
4.480196
40
2.2143354
50
186.1775023
51
192.5082826
0
ARC
8
DEFAULT_255_2_778
10
16.2976166
20
4.4800808
40
2.2168895
50
198.6973698
51
204.7228187
0
LINE
8
DEFAULT_255_2_778
10
16.2604235
20
6.6782137
11
16.2426235
21
6.6779137
0
LINE
8
DEFAULT_255_2_778
10
16.2426235
20
6.6779137
11
16.2117235
21
6.6774137
0
LINE
8
DEFAULT_255_2_778
10
16.2117235
20
6.6774137
11
16.1508235
21
6.6748137
0
LINE
8
DEFAULT_255_2_778
10
16.1508235
20
6.6748137
11
16.1209235
21
6.6729137
0
LINE
8
DEFAULT_255_2_778
10
16.1209235
20
6.6729137
11
16.0913235
21
6.6705137
0
LINE
8
DEFAULT_255_2_778
10
16.0913235
20
6.6705137
11
16.0339235
21
6.6650137
0
LINE
8
DEFAULT_255_2_778
10
16.0339235
20
6.6650137
11
15.9251235
21
6.6502137
0
LINE
8
DEFAULT_255_2_778
10
15.9251235
20
6.6502137
11
15.8730235
21
6.6412137
0
LINE
8
DEFAULT_255_2_778
10
15.8730235
20
6.6412137
11
15.8219235
21
6.6311137
0
LINE
8
DEFAULT_255_2_778
10
15.8219235
20
6.6311137
11
15.7235235
21
6.6081137
0
LINE
8
DEFAULT_255_2_778
10
15.7235235
20
6.6081137
11
15.6291235
21
6.5814137
0
LINE
8
DEFAULT_255_2_778
10
15.6291235
20
6.5814137
11
15.4478235
21
6.5168137
0
LINE
8
DEFAULT_255_2_778
10
15.4478235
20
6.5168137
11
15.2743235
21
6.4372137
0
LINE
8
DEFAULT_255_2_778
10
15.2743235
20
6.4372137
11
15.1065235
21
6.3416137
0
LINE
8
DEFAULT_255_2_778
10
15.1065235
20
6.3416137
11
15.0250235
21
6.2877137
0
LINE
8
DEFAULT_255_2_778
10
15.0250235
20
6.2877137
11
14.9459235
21
6.2300137
0
LINE
8
DEFAULT_255_2_778
10
14.9459235
20
6.2300137
11
14.7943235
21
6.1030137
0
LINE
8
DEFAULT_255_2_778
10
14.7943235
20
6.1030137
11
14.6517235
21
5.9596137
0
LINE
8
DEFAULT_255_2_778
10
14.6517235
20
5.9596137
11
14.5186235
21
5.7982137
0
LINE
8
DEFAULT_255_2_778
10
14.5186235
20
5.7982137
11
14.4562235
21
5.7098137
0
LINE
8
DEFAULT_255_2_778
10
14.4562235
20
5.7098137
11
14.3969235
21
5.6170137
0
LINE
8
DEFAULT_255_2_778
10
14.2032235
20
5.2042137
11
14.1844235
21
5.1476137
0
LINE
8
DEFAULT_255_2_778
10
14.1844235
20
5.1476137
11
14.1670235
21
5.0904137
0
LINE
8
DEFAULT_255_2_778
10
14.1670235
20
5.0904137
11
14.1368235
21
4.9743137
0
LINE
8
DEFAULT_255_2_778
10
14.0955235
20
4.7356137
11
14.0847235
21
4.6131137
0
LINE
8
DEFAULT_255_2_778
10
14.0847235
20
4.6131137
11
14.0818235
21
4.5509137
0
LINE
8
DEFAULT_255_2_778
10
14.0818235
20
4.5509137
11
14.0807235
21
4.4885137
0
LINE
8
DEFAULT_255_2_778
10
14.1331235
20
4.0006137
11
14.1471235
21
3.9413137
0
LINE
8
DEFAULT_255_2_778
10
14.1471235
20
3.9413137
11
14.1625235
21
3.8831137
0
LINE
8
DEFAULT_255_2_778
10
14.1625235
20
3.8831137
11
14.1977235
21
3.7694137
0
LINE
8
DEFAULT_255_2_778
10
14.2839235
20
3.5529137
11
14.3347235
21
3.4503137
0
LINE
8
DEFAULT_255_2_778
10
14.3347235
20
3.4503137
11
14.3892235
21
3.3527137
0
LINE
8
DEFAULT_255_2_778
10
14.3892235
20
3.3527137
11
14.5091235
21
3.1717137
0
LINE
8
DEFAULT_255_2_778
10
14.5091235
20
3.1717137
11
14.6419235
21
3.0079137
0
LINE
8
DEFAULT_255_2_778
10
14.6419235
20
3.0079137
11
14.6771235
21
2.9695137
0
LINE
8
DEFAULT_255_2_778
10
14.6771235
20
2.9695137
11
14.7131235
21
2.9322137
0
LINE
8
DEFAULT_255_2_778
10
14.7131235
20
2.9322137
11
14.7864235
21
2.8611137
0
LINE
8
DEFAULT_255_2_778
10
14.7864235
20
2.8611137
11
14.9385235
21
2.7325137
0
LINE
8
DEFAULT_255_2_778
10
14.9385235
20
2.7325137
11
15.0978235
21
2.6208137
0
LINE
8
DEFAULT_255_2_778
10
15.0978235
20
2.6208137
11
15.2645235
21
2.5248137
0
LINE
8
DEFAULT_255_2_778
10
15.2645235
20
2.5248137
11
15.3507235
21
2.4824137
0
LINE
8
DEFAULT_255_2_778
10
15.3507235
20
2.4824137
11
15.4391235
21
2.4438137
0
LINE
8
DEFAULT_255_2_778
10
15.4391235
20
2.4438137
11
15.6217235
21
2.3779137
0
LINE
8
DEFAULT_255_2_778
10
15.6217235
20
2.3779137
11
15.7166235
21
2.3507137
0
LINE
8
DEFAULT_255_2_778
10
15.7166235
20
2.3507137
11
15.8148235
21
2.3274137
0
LINE
8
DEFAULT_255_2_778
10
15.8148235
20
2.3274137
11
15.9169235
21
2.3081137
0
LINE
8
DEFAULT_255_2_778
10
15.9169235
20
2.3081137
11
16.0249235
21
2.2930137
0
LINE
8
DEFAULT_255_2_778
10
16.0249235
20
2.2930137
11
16.0820235
21
2.2872137
0
LINE
8
DEFAULT_255_2_778
10
16.0820235
20
2.2872137
11
16.1418235
21
2.2827137
0
LINE
8
DEFAULT_255_2_778
10
16.1418235
20
2.2827137
11
16.2434235
21
2.2790137
0
LINE
8
DEFAULT_255_2_778
10
34.3407235
20
67.7252137
11
34.3407235
21
67.3966137
0
LINE
8
DEFAULT_255_2_778
10
34.3407235
20
68.4846137
11
34.3407235
21
68.4640137
0
LINE
8
DEFAULT_255_2_778
10
29.2808235
20
33.2196137
11
29.2705235
21
33.1955137
0
ENDSEC
0
EOF