0
SECTION
2
HEADER
9
$MEASUREMENT
70
1
0
ENDSEC
0
SECTION
2
TABLES
0
TABLE
2
LTYPE
0
LTYPE
72
65
70
64
2
CONTINUOUS
3
______
73
0
40
0
0
ENDTAB
0
TABLE
2
LAYER
0
LAYER
2
DEFAULT_255_2_778
70
0
62
255
6
CONTINUOUS
0
LAYER
2
DEFAULT_255_1_234
70
0
62
255
6
CONTINUOUS
0
ENDTAB
0
ENDSEC
0
SECTION
2
ENTITIES
0
ARC
8
DEFAULT_255_2_778
10
3.5695693
20
91.6802028
40
0.7914215
50
129.1312896
51
180.1450914
0
ARC
8
DEFAULT_255_2_778
10
3.5698345
20
91.6806899
40
0.7912112
50
89.854026
51
129.1684493
0
ARC
8
DEFAULT_255_2_778
10
25.7988937
20
91.6803765
40
0.7915249
50
39.4792447
51
90.147911
0
ARC
8
DEFAULT_255_2_778
10
25.7994935
20
91.6802231
40
0.7911595
50
359.8533901
51
39.5154338
0
ARC
8
DEFAULT_255_2_778
10
25.7991693
20
-1.9863495
40
0.7914836
50
309.4761667
51
0.1482649
0
ARC
8
DEFAULT_255_2_778
10
25.798898
20
-1.9867805
40
0.7913235
50
269.8517415
51
309.511178
0
ARC
8
DEFAULT_255_2_778
10
3.569842
20
-1.9867224
40
0.7913815
50
219.1282118
51
270.1454017
0
ARC
8
DEFAULT_255_2_778
10
3.5695247
20
-1.9863399
40
0.7913769
50
179.8524075
51
219.1641908
0
LINE
8
DEFAULT_255_2_778
10
3.5718503
20
92.4718987
11
25.7968503
21
92.4718987
0
LINE
8
DEFAULT_255_2_778
10
26.5906503
20
91.6781987
11
26.5906503
21
-1.9843013
0
LINE
8
DEFAULT_255_2_778
10
25.7968503
20
-2.7781013
11
3.5718503
21
-2.7781013
0
LINE
8
DEFAULT_255_2_778
10
2.7781503
20
-1.9843013
11
2.7781503
21
91.6781987
0
LINE
8
DEFAULT_255_1_234
10
6.6614835
20
0.5189243
11
6.6879882
21
0.5189243
0
LINE
8
DEFAULT_255_1_234
10
6.6879882
20
0.5189243
11
6.6879882
21
0.392826
0
LINE
8
DEFAULT_255_1_234
10
6.6879882
20
0.392826
11
6.6606803
21
0.392826
0
LINE
8
DEFAULT_255_1_234
10
6.1137189
20
-0.2063417
11
6.1137189
21
-0.1493164
0
LINE
8
DEFAULT_255_1_234
10
6.2631093
20
-0.1685925
11
6.2631093
21
-0.2232083
0
ARC
8
DEFAULT_255_1_234
10
6.6659151
20
-0.1069545
40
0.4998079
50
90.6001036
51
104.514704
0
ARC
8
DEFAULT_255_1_234
10
6.6270667
20
0.0375131
40
0.3502176
50
104.2855254
51
133.862935
0
ARC
8
DEFAULT_255_1_234
10
6.6434424
20
0.026683
40
0.3693984
50
134.5302688
51
161.6210873
0
ARC
8
DEFAULT_255_1_234
10
6.8087613
20
-0.0316105
40
0.5446739
50
161.2849839
51
174.2076652
0
ARC
8
DEFAULT_255_1_234
10
6.949455
20
-0.0510213
40
0.6866274
50
173.7810589
51
174.9254635
0
ARC
8
DEFAULT_255_1_234
10
6.4944382
20
-0.1893161
40
0.3033419
50
95.8330959
51
138.9954921
0
ARC
8
DEFAULT_255_1_234
10
6.5167738
20
-0.3171625
40
0.4328947
50
89.8753725
51
97.0544009
0
ARC
8
DEFAULT_255_1_234
10
6.5215204
20
-0.2336252
40
0.3493769
50
71.6407809
51
90.6240094
0
ARC
8
DEFAULT_255_1_234
10
6.5365777
20
-0.1781918
40
0.2920396
50
39.6367836
51
71.019018
0
ARC
8
DEFAULT_255_1_234
10
6.472925
20
-0.2332002
40
0.3761538
50
10.658731
51
39.9043955
0
ARC
8
DEFAULT_255_1_234
10
6.3181333
20
-0.2668314
40
0.5345136
50
359.682601
51
11.132623
0
ARC
8
DEFAULT_255_1_234
10
6.3141464
20
-0.273899
40
0.5385081
50
347.2486944
51
0.4369317
0
ARC
8
DEFAULT_255_1_234
10
6.4808941
20
-0.3140193
40
0.3670249
50
318.1409698
51
347.6118597
0
ARC
8
DEFAULT_255_1_234
10
6.5133934
20
-0.3407298
40
0.3250007
50
275.6342139
51
317.8248465
0
ARC
8
DEFAULT_255_1_234
10
6.4913045
20
-0.2107781
40
0.4565864
50
269.8874292
51
276.7917694
0
ARC
8
DEFAULT_255_1_234
10
6.4858116
20
-0.3133257
40
0.3540676
50
246.9140195
51
270.7437342
0
ARC
8
DEFAULT_255_1_234
10
6.4864506
20
-0.3275616
40
0.3412781
50
218.1665114
51
245.878116
0
ARC
8
DEFAULT_255_1_234
10
6.5743967
20
-0.2539721
40
0.455911
50
191.4115814
51
218.6077802
0
ARC
8
DEFAULT_255_1_234
10
6.7682056
20
-0.2105167
40
0.6545001
50
179.6345085
51
191.7836486
0
ARC
8
DEFAULT_255_1_234
10
7.3264393
20
-0.1426303
40
1.2127388
50
171.4525249
51
180.3158839
0
ARC
8
DEFAULT_255_1_234
10
6.8869269
20
-0.0742392
40
0.7679464
50
157.9802646
51
171.6246686
0
ARC
8
DEFAULT_255_1_234
10
6.665529
20
0.0140421
40
0.5296008
50
141.4298019
51
157.854097
0
ARC
8
DEFAULT_255_1_234
10
6.601361
20
0.0594381
40
0.4511509
50
102.8715806
51
140.8564722
0
ARC
8
DEFAULT_255_1_234
10
6.6661226
20
-0.1845448
40
0.7034845
50
90.3778349
51
103.5869322
0
ARC
8
DEFAULT_255_1_234
10
6.4923002
20
-0.245027
40
0.2370698
50
89.8751008
51
126.2071704
0
ARC
8
DEFAULT_255_1_234
10
6.4968792
20
-0.2604697
40
0.2522934
50
124.9745049
51
144.895901
0
ARC
8
DEFAULT_255_1_234
10
6.4792982
20
-0.246144
40
0.2296779
50
145.2974905
51
160.2660252
0
ARC
8
DEFAULT_255_1_234
10
6.7865521
20
-0.2263929
40
0.5234525
50
179.6514266
51
190.2855912
0
ARC
8
DEFAULT_255_1_234
10
6.6171658
20
-0.2583214
40
0.3510893
50
190.0945431
51
207.5098196
0
ARC
8
DEFAULT_255_1_234
10
6.5605928
20
-0.2852377
40
0.288489
50
207.9583163
51
216.3251085
0
ARC
8
DEFAULT_255_1_234
10
6.5266036
20
-0.3131895
40
0.2445587
50
215.7661442
51
232.5456785
0
ARC
8
DEFAULT_255_1_234
10
6.4883019
20
-0.3618518
40
0.1826382
50
232.8005391
51
270.6605633
0
ARC
8
DEFAULT_255_1_234
10
6.492872
20
-0.3254388
40
0.2190529
50
269.35537
51
288.4744281
0
ARC
8
DEFAULT_255_1_234
10
6.5021617
20
-0.3603882
40
0.1829749
50
289.1833337
51
322.9683818
0
ARC
8
DEFAULT_255_1_234
10
6.4410139
20
-0.3121609
40
0.2608399
50
322.6007884
51
346.5182367
0
ARC
8
DEFAULT_255_1_234
10
6.3252735
20
-0.2826384
40
0.3802777
50
346.2582162
51
358.7741648
0
ARC
8
DEFAULT_255_1_234
10
6.2234404
20
-0.2771035
40
0.4822176
50
358.3755224
51
0.0098023
0
ARC
8
DEFAULT_255_1_234
10
6.2990591
20
-0.2743343
40
0.4066078
50
359.6214041
51
11.2839074
0
ARC
8
DEFAULT_255_1_234
10
6.4267738
20
-0.2476934
40
0.2761514
50
11.0482309
51
31.8146458
0
ARC
8
DEFAULT_255_1_234
10
6.4576781
20
-0.2309416
40
0.2410679
50
32.3035391
51
38.082671
0
ARC
8
DEFAULT_255_1_234
10
6.4997441
20
-0.1928338
40
0.1844966
50
36.825067
51
85.7415724
0
ARC
8
DEFAULT_255_1_234
10
6.4930274
20
-0.2428699
40
0.2349122
50
85.0140713
51
90.0513278
0
LINE
8
DEFAULT_255_1_234
10
7.7280983
20
0.0153343
11
7.7280983
21
-0.110764
0
LINE
8
DEFAULT_255_1_234
10
7.7280983
20
-0.110764
11
7.2212957
21
-0.110764
0
LINE
8
DEFAULT_255_1_234
10
7.2212957
20
-0.110764
11
7.2212957
21
-0.5252017
0
LINE
8
DEFAULT_255_1_234
10
7.2212957
20
-0.5252017
11
7.8100221
21
-0.5252017
0
LINE
8
DEFAULT_255_1_234
10
7.8100221
20
-0.5252017
11
7.8100221
21
-0.6513
0
LINE
8
DEFAULT_255_1_234
10
7.8100221
20
-0.6513
11
7.0670863
21
-0.6513
0
LINE
8
DEFAULT_255_1_234
10
7.0670863
20
-0.6513
11
7.0670863
21
0.5181211
0
LINE
8
DEFAULT_255_1_234
10
7.0670863
20
0.5181211
11
7.8019903
21
0.5181211
0
LINE
8
DEFAULT_255_1_234
10
7.8019903
20
0.5181211
11
7.8019903
21
0.3912196
0
LINE
8
DEFAULT_255_1_234
10
7.8019903
20
0.3912196
11
7.2212957
21
0.3912196
0
LINE
8
DEFAULT_255_1_234
10
7.2212957
20
0.3912196
11
7.2212957
21
0.0153343
0
LINE
8
DEFAULT_255_1_234
10
7.2212957
20
0.0153343
11
7.7280983
21
0.0153343
0
LINE
8
DEFAULT_255_1_234
10
8.7778465
20
0.1799849
11
8.622834
21
0.1799849
0
LINE
8
DEFAULT_255_1_234
10
7.9304981
20
-0.3123606
11
8.0855107
21
-0.3123606
0
ARC
8
DEFAULT_255_1_234
10
8.6887153
20
1.0746768
40
1.252368
50
248.9199003
51
254.1439814
0
ARC
8
DEFAULT_255_1_234
10
8.5206648
20
0.6420234
40
0.788226
50
241.633709
51
249.0064503
0
ARC
8
DEFAULT_255_1_234
10
8.3678042
20
0.3619317
40
0.4691427
50
230.498225
51
241.8087113
0
ARC
8
DEFAULT_255_1_234
10
8.2893616
20
0.2619906
40
0.3421437
50
227.4064532
51
229.9881192
0
ARC
8
DEFAULT_255_1_234
10
8.2406137
20
0.2144088
40
0.2741476
50
200.6781896
51
228.1763934
0
ARC
8
DEFAULT_255_1_234
10
8.2478447
20
0.2129077
40
0.2804109
50
179.5061581
51
199.8694617
0
ARC
8
DEFAULT_255_1_234
10
8.2469199
20
0.220321
40
0.2795204
50
132.4834203
51
181.0242172
0
ARC
8
DEFAULT_255_1_234
10
8.3064782
20
0.1640704
40
0.3612768
50
129.2532479
51
133.4242687
0
ARC
8
DEFAULT_255_1_234
10
8.3211231
20
0.1420965
40
0.3875675
50
101.98776
51
128.8742646
0
ARC
8
DEFAULT_255_1_234
10
8.3609842
20
-0.0300259
40
0.5642249
50
89.5906553
51
102.3169264
0
ARC
8
DEFAULT_255_1_234
10
8.3680334
20
0.0018148
40
0.5323783
50
77.2360837
51
90.3248275
0
ARC
8
DEFAULT_255_1_234
10
8.3887413
20
0.09854
40
0.4334697
50
63.837784
51
77.0809408
0
ARC
8
DEFAULT_255_1_234
10
8.4165175
20
0.1502911
40
0.3747796
50
45.9864267
51
64.1607727
0
ARC
8
DEFAULT_255_1_234
10
8.4426056
20
0.1800866
40
0.3352302
50
32.2747395
51
45.6547121
0
ARC
8
DEFAULT_255_1_234
10
8.4492497
20
0.181988
40
0.328603
50
359.6507365
51
32.6130309
0
ARC
8
DEFAULT_255_1_234
10
8.3549592
20
0.182466
40
0.2678863
50
359.469343
51
14.9832209
0
ARC
8
DEFAULT_255_1_234
10
8.4254654
20
0.2013539
40
0.1948938
50
14.9781179
51
48.2004265
0
ARC
8
DEFAULT_255_1_234
10
8.4090299
20
0.1806983
40
0.2212521
50
48.5927837
51
74.1241538
0
ARC
8
DEFAULT_255_1_234
10
8.3756788
20
0.0706248
40
0.3362561
50
73.7888341
51
86.6652678
0
ARC
8
DEFAULT_255_1_234
10
8.3654354
20
-0.0501119
40
0.4573953
50
86.2640471
51
90.0526343
0
ARC
8
DEFAULT_255_1_234
10
8.3626066
20
-0.0105808
40
0.4178709
50
89.6697524
51
99.2309573
0
ARC
8
DEFAULT_255_1_234
10
8.3383517
20
0.1338964
40
0.2713749
50
99.069534
51
113.7658566
0
ARC
8
DEFAULT_255_1_234
10
8.3109708
20
0.1984677
40
0.2012469
50
114.0401004
51
127.9850673
0
ARC
8
DEFAULT_255_1_234
10
8.2869272
20
0.228073
40
0.1631167
50
127.7287463
51
176.7105154
0
ARC
8
DEFAULT_255_1_234
10
8.354799
20
0.2179693
40
0.2315392
50
175.1779447
51
180.0581938
0
ARC
8
DEFAULT_255_1_234
10
8.2704836
20
0.2167428
40
0.1472271
50
179.6142195
51
228.1246017
0
ARC
8
DEFAULT_255_1_234
10
8.3146505
20
0.2576308
40
0.2072299
50
226.5779593
51
230.8800004
0
ARC
8
DEFAULT_255_1_234
10
8.3617584
20
0.3201636
40
0.2854818
50
231.4635071
51
241.9260842
0
ARC
8
DEFAULT_255_1_234
10
8.4814762
20
0.54048
40
0.53622
50
241.7178533
51
248.3259551
0
ARC
8
DEFAULT_255_1_234
10
8.6200134
20
0.8837064
40
0.9063478
50
248.2007737
51
252.4528373
0
ARC
8
DEFAULT_255_1_234
10
8.7403858
20
1.2558441
40
1.2974635
50
252.3391078
51
254.3469452
0
ARC
8
DEFAULT_255_1_234
10
7.9861561
20
-1.4418852
40
1.5037162
50
71.0197183
51
74.4087047
0
ARC
8
DEFAULT_255_1_234
10
8.1556246
20
-0.9526889
40
0.9859993
50
66.1847285
51
71.086374
0
ARC
8
DEFAULT_255_1_234
10
8.3112559
20
-0.60228
40
0.6025855
50
59.3536294
51
66.2691831
0
ARC
8
DEFAULT_255_1_234
10
8.4001211
20
-0.4519391
40
0.4279449
50
49.1020879
51
59.3293958
0
ARC
8
DEFAULT_255_1_234
10
8.4819951
20
-0.3586166
40
0.3038015
50
32.7919921
51
49.2505539
0
ARC
8
DEFAULT_255_1_234
10
8.5141041
20
-0.3357809
40
0.264448
50
31.1181161
51
32.4005348
0
ARC
8
DEFAULT_255_1_234
10
8.5052579
20
-0.3393221
40
0.2738556
50
8.1116974
51
30.7958831
0
ARC
8
DEFAULT_255_1_234
10
8.4242247
20
-0.3531247
40
0.3560327
50
359.8389159
51
8.4706516
0
ARC
8
DEFAULT_255_1_234
10
8.4868038
20
-0.3579863
40
0.2934776
50
337.4731098
51
0.7537279
0
ARC
8
DEFAULT_255_1_234
10
8.5046733
20
-0.3599613
40
0.2762607
50
307.5917067
51
336.4315538
0
ARC
8
DEFAULT_255_1_234
10
8.4586561
20
-0.3086898
40
0.3449979
50
307.6551545
51
308.4529766
0
ARC
8
DEFAULT_255_1_234
10
8.435628
20
-0.273175
40
0.3871988
50
284.3734338
51
307.1424381
0
ARC
8
DEFAULT_255_1_234
10
8.386111
20
-0.0910068
40
0.5759636
50
272.4382747
51
284.646547
0
ARC
8
DEFAULT_255_1_234
10
8.3734319
20
0.0889893
40
0.7563528
50
269.9708387
51
272.8178037
0
ARC
8
DEFAULT_255_1_234
10
8.3691358
20
-0.1148284
40
0.5525489
50
248.2707594
51
270.4055579
0
ARC
8
DEFAULT_255_1_234
10
8.36371
20
-0.1338808
40
0.5328452
50
246.1383403
51
248.0542782
0
ARC
8
DEFAULT_255_1_234
10
8.3218478
20
-0.2218157
40
0.4355005
50
233.1670131
51
246.4950969
0
ARC
8
DEFAULT_255_1_234
10
8.2664383
20
-0.2966188
40
0.3424126
50
215.3403242
51
233.0843104
0
ARC
8
DEFAULT_255_1_234
10
8.2391815
20
-0.3164451
40
0.3087104
50
179.2419209
51
215.2648451
0
ARC
8
DEFAULT_255_1_234
10
8.3159409
20
-0.3150334
40
0.2304457
50
179.335461
51
199.1045811
0
ARC
8
DEFAULT_255_1_234
10
8.2827085
20
-0.3237234
40
0.1962176
50
199.8828939
51
232.7063202
0
ARC
8
DEFAULT_255_1_234
10
8.3299353
20
-0.2643212
40
0.2720938
50
232.3738199
51
255.5136649
0
ARC
8
DEFAULT_255_1_234
10
8.364022
20
-0.1399165
40
0.4010747
50
255.2446292
51
267.5320849
0
ARC
8
DEFAULT_255_1_234
10
8.3727843
20
-0.0166298
40
0.5246356
50
267.1557994
51
270.0286766
0
ARC
8
DEFAULT_255_1_234
10
8.3755616
20
-0.061005
40
0.4802668
50
269.7000017
51
278.1660162
0
ARC
8
DEFAULT_255_1_234
10
8.401162
20
-0.2340485
40
0.3053425
50
278.0231263
51
290.625471
0
ARC
8
DEFAULT_255_1_234
10
8.4359308
20
-0.3267975
40
0.206291
50
290.6619762
51
307.0370976
0
ARC
8
DEFAULT_255_1_234
10
8.4659697
20
-0.3636496
40
0.1587906
50
306.3943566
51
355.3030547
0
ARC
8
DEFAULT_255_1_234
10
8.4147628
20
-0.3559887
40
0.2104809
50
354.3660432
51
0.0698737
0
ARC
8
DEFAULT_255_1_234
10
8.4289973
20
-0.3537383
40
0.1962563
50
359.417946
51
16.1971788
0
ARC
8
DEFAULT_255_1_234
10
8.4745284
20
-0.3412582
40
0.149053
50
16.4723299
51
52.6262157
0
ARC
8
DEFAULT_255_1_234
10
8.3924338
20
-0.4496567
40
0.2850296
50
52.7386432
51
62.4979148
0
ARC
8
DEFAULT_255_1_234
10
8.2539415
20
-0.7102717
40
0.5801521
50
62.2515216
51
68.1220564
0
ARC
8
DEFAULT_255_1_234
10
8.0819325
20
-1.1330128
40
1.0365451
50
68.0062803
51
71.8053402
0
ARC
8
DEFAULT_255_1_234
10
7.9023697
20
-1.6715242
40
1.6042013
50
71.7183119
51
73.9258742
0
LINE
8
DEFAULT_255_1_234
10
9.6942679
20
0.5181211
11
9.6942679
21
0.434591
0
LINE
8
DEFAULT_255_1_234
10
9.6942679
20
0.434591
11
9.2099541
21
-0.6513
0
LINE
8
DEFAULT_255_1_234
10
9.2099541
20
-0.6513
11
9.0541383
21
-0.6513
0
LINE
8
DEFAULT_255_1_234
10
9.0541383
20
-0.6513
11
9.5368458
21
0.3960387
0
LINE
8
DEFAULT_255_1_234
10
9.5368458
20
0.3960387
11
8.9039448
21
0.3960387
0
LINE
8
DEFAULT_255_1_234
10
8.9039448
20
0.3960387
11
8.9039448
21
0.5181211
0
LINE
8
DEFAULT_255_1_234
10
8.9039448
20
0.5181211
11
9.6942679
21
0.5181211
0
LINE
8
DEFAULT_255_1_234
10
10.3512641
20
0.5237433
11
10.3512641
21
-0.6513
0
LINE
8
DEFAULT_255_1_234
10
10.3512641
20
-0.6513
11
10.2018737
21
-0.6513
0
LINE
8
DEFAULT_255_1_234
10
10.2018737
20
-0.6513
11
10.2018737
21
0.3390133
0
LINE
8
DEFAULT_255_1_234
10
10.2018737
20
0.3390133
11
9.9022899
21
0.2289785
0
LINE
8
DEFAULT_255_1_234
10
9.9022899
20
0.2289785
11
9.9022899
21
0.3639117
0
LINE
8
DEFAULT_255_1_234
10
9.9022899
20
0.3639117
11
10.327972
21
0.5237433
0
LINE
8
DEFAULT_255_1_234
10
10.327972
20
0.5237433
11
10.3512641
21
0.5237433
0
LINE
8
DEFAULT_255_1_234
10
11.413863
20
0.5181211
11
11.413863
21
-0.258548
0
LINE
8
DEFAULT_255_1_234
10
11.413863
20
-0.258548
11
11.5761042
21
-0.258548
0
LINE
8
DEFAULT_255_1_234
10
11.5761042
20
-0.258548
11
11.5761042
21
-0.3798272
0
LINE
8
DEFAULT_255_1_234
10
11.5761042
20
-0.3798272
11
11.413863
21
-0.3798272
0
LINE
8
DEFAULT_255_1_234
10
11.413863
20
-0.3798272
11
11.413863
21
-0.6513
0
LINE
8
DEFAULT_255_1_234
10
11.413863
20
-0.6513
11
11.2644727
21
-0.6513
0
LINE
8
DEFAULT_255_1_234
10
11.2644727
20
-0.6513
11
11.2644727
21
-0.3798272
0
LINE
8
DEFAULT_255_1_234
10
11.2644727
20
-0.3798272
11
10.7319685
21
-0.3798272
0
LINE
8
DEFAULT_255_1_234
10
10.7319685
20
-0.3798272
11
10.7319685
21
-0.2922813
0
LINE
8
DEFAULT_255_1_234
10
10.7319685
20
-0.2922813
11
11.2556378
21
0.5181211
0
LINE
8
DEFAULT_255_1_234
10
11.2556378
20
0.5181211
11
11.413863
21
0.5181211
0
LINE
8
DEFAULT_255_1_234
10
11.2468029
20
0.2827912
11
10.900635
21
-0.258548
0
LINE
8
DEFAULT_255_1_234
10
10.900635
20
-0.258548
11
11.2644727
21
-0.258548
0
LINE
8
DEFAULT_255_1_234
10
11.2644727
20
-0.258548
11
11.2644727
21
0.3149181
0
LINE
8
DEFAULT_255_1_234
10
11.2644727
20
0.3149181
11
11.2468029
21
0.2827912
0
LINE
8
DEFAULT_255_1_234
10
12.1985639
20
0.5237433
11
12.1985639
21
-0.6513
0
LINE
8
DEFAULT_255_1_234
10
12.1985639
20
-0.6513
11
12.0491735
21
-0.6513
0
LINE
8
DEFAULT_255_1_234
10
12.0491735
20
-0.6513
11
12.0491735
21
0.3390133
0
LINE
8
DEFAULT_255_1_234
10
12.0491735
20
0.3390133
11
11.7495897
21
0.2289785
0
LINE
8
DEFAULT_255_1_234
10
11.7495897
20
0.2289785
11
11.7495897
21
0.3639117
0
LINE
8
DEFAULT_255_1_234
10
11.7495897
20
0.3639117
11
12.1752718
21
0.5237433
0
LINE
8
DEFAULT_255_1_234
10
12.1752718
20
0.5237433
11
12.1985639
21
0.5237433
0
LINE
8
DEFAULT_255_1_234
10
12.9583663
20
-0.0938974
11
12.9583663
21
-0.2151766
0
LINE
8
DEFAULT_255_1_234
10
12.9583663
20
-0.2151766
11
12.5664175
21
-0.2151766
0
LINE
8
DEFAULT_255_1_234
10
12.5664175
20
-0.2151766
11
12.5664175
21
-0.0938974
0
LINE
8
DEFAULT_255_1_234
10
12.5664175
20
-0.0938974
11
12.9583663
21
-0.0938974
0
LINE
8
DEFAULT_255_1_234
10
13.6442768
20
0.5189243
11
13.6707815
21
0.5189243
0
LINE
8
DEFAULT_255_1_234
10
13.6707815
20
0.5189243
11
13.6707815
21
0.392826
0
LINE
8
DEFAULT_255_1_234
10
13.6707815
20
0.392826
11
13.6434736
21
0.392826
0
LINE
8
DEFAULT_255_1_234
10
13.0965122
20
-0.2063417
11
13.0965122
21
-0.1493164
0
LINE
8
DEFAULT_255_1_234
10
13.2459025
20
-0.1685925
11
13.2459025
21
-0.2232083
0
ARC
8
DEFAULT_255_1_234
10
13.6487084
20
-0.1069545
40
0.4998079
50
90.6001036
51
104.514704
0
ARC
8
DEFAULT_255_1_234
10
13.6098599
20
0.0375131
40
0.3502176
50
104.2855254
51
133.862935
0
ARC
8
DEFAULT_255_1_234
10
13.6262357
20
0.026683
40
0.3693984
50
134.5302688
51
161.6210873
0
ARC
8
DEFAULT_255_1_234
10
13.7915545
20
-0.0316105
40
0.5446739
50
161.2849839
51
174.2076652
0
ARC
8
DEFAULT_255_1_234
10
13.9322482
20
-0.0510213
40
0.6866274
50
173.7810589
51
174.9254635
0
ARC
8
DEFAULT_255_1_234
10
13.4772314
20
-0.1893161
40
0.3033419
50
95.8330959
51
138.9954921
0
ARC
8
DEFAULT_255_1_234
10
13.499567
20
-0.3171625
40
0.4328947
50
89.8753725
51
97.0544009
0
ARC
8
DEFAULT_255_1_234
10
13.5043136
20
-0.2336252
40
0.3493769
50
71.6407809
51
90.6240094
0
ARC
8
DEFAULT_255_1_234
10
13.519371
20
-0.1781918
40
0.2920396
50
39.6367836
51
71.019018
0
ARC
8
DEFAULT_255_1_234
10
13.4557183
20
-0.2332002
40
0.3761538
50
10.658731
51
39.9043955
0
ARC
8
DEFAULT_255_1_234
10
13.3009266
20
-0.2668314
40
0.5345136
50
359.682601
51
11.132623
0
ARC
8
DEFAULT_255_1_234
10
13.2969397
20
-0.273899
40
0.5385081
50
347.2486944
51
0.4369317
0
ARC
8
DEFAULT_255_1_234
10
13.4636874
20
-0.3140193
40
0.3670249
50
318.1409698
51
347.6118597
0
ARC
8
DEFAULT_255_1_234
10
13.4961867
20
-0.3407298
40
0.3250007
50
275.6342139
51
317.8248465
0
ARC
8
DEFAULT_255_1_234
10
13.4740978
20
-0.2107781
40
0.4565864
50
269.8874292
51
276.7917694
0
ARC
8
DEFAULT_255_1_234
10
13.4686048
20
-0.3133257
40
0.3540676
50
246.9140195
51
270.7437342
0
ARC
8
DEFAULT_255_1_234
10
13.4692439
20
-0.3275616
40
0.3412781
50
218.1665114
51
245.878116
0
ARC
8
DEFAULT_255_1_234
10
13.55719
20
-0.2539721
40
0.455911
50
191.4115814
51
218.6077802
0
ARC
8
DEFAULT_255_1_234
10
13.7509989
20
-0.2105167
40
0.6545001
50
179.6345085
51
191.7836486
0
ARC
8
DEFAULT_255_1_234
10
14.3092326
20
-0.1426303
40
1.2127388
50
171.4525249
51
180.3158839
0
ARC
8
DEFAULT_255_1_234
10
13.8697201
20
-0.0742392
40
0.7679464
50
157.9802646
51
171.6246686
0
ARC
8
DEFAULT_255_1_234
10
13.6483222
20
0.0140421
40
0.5296008
50
141.4298019
51
157.854097
0
ARC
8
DEFAULT_255_1_234
10
13.5841543
20
0.0594381
40
0.4511509
50
102.8715806
51
140.8564722
0
ARC
8
DEFAULT_255_1_234
10
13.6489158
20
-0.1845448
40
0.7034845
50
90.3778349
51
103.5869322
0
ARC
8
DEFAULT_255_1_234
10
13.4750935
20
-0.245027
40
0.2370698
50
89.8751008
51
126.2071704
0
ARC
8
DEFAULT_255_1_234
10
13.4796724
20
-0.2604697
40
0.2522934
50
124.9745049
51
144.895901
0
ARC
8
DEFAULT_255_1_234
10
13.4620915
20
-0.246144
40
0.2296779
50
145.2974905
51
160.2660252
0
ARC
8
DEFAULT_255_1_234
10
13.7693454
20
-0.2263929
40
0.5234525
50
179.6514266
51
190.2855912
0
ARC
8
DEFAULT_255_1_234
10
13.5999591
20
-0.2583214
40
0.3510893
50
190.0945431
51
207.5098196
0
ARC
8
DEFAULT_255_1_234
10
13.5433861
20
-0.2852377
40
0.288489
50
207.9583163
51
216.3251085
0
ARC
8
DEFAULT_255_1_234
10
13.5093969
20
-0.3131895
40
0.2445587
50
215.7661442
51
232.5456785
0
ARC
8
DEFAULT_255_1_234
10
13.4710951
20
-0.3618518
40
0.1826382
50
232.8005391
51
270.6605633
0
ARC
8
DEFAULT_255_1_234
10
13.4756652
20
-0.3254388
40
0.2190529
50
269.35537
51
288.4744281
0
ARC
8
DEFAULT_255_1_234
10
13.4849549
20
-0.3603882
40
0.1829749
50
289.1833337
51
322.9683818
0
ARC
8
DEFAULT_255_1_234
10
13.4238072
20
-0.3121609
40
0.2608399
50
322.6007884
51
346.5182367
0
ARC
8
DEFAULT_255_1_234
10
13.3080668
20
-0.2826384
40
0.3802777
50
346.2582162
51
358.7741648
0
ARC
8
DEFAULT_255_1_234
10
13.2062337
20
-0.2771035
40
0.4822176
50
358.3755224
51
0.0098023
0
ARC
8
DEFAULT_255_1_234
10
13.2818524
20
-0.2743343
40
0.4066078
50
359.6214041
51
11.2839074
0
ARC
8
DEFAULT_255_1_234
10
13.4095671
20
-0.2476934
40
0.2761514
50
11.0482309
51
31.8146458
0
ARC
8
DEFAULT_255_1_234
10
13.4404714
20
-0.2309416
40
0.2410679
50
32.3035391
51
38.082671
0
ARC
8
DEFAULT_255_1_234
10
13.4825373
20
-0.1928338
40
0.1844966
50
36.825067
51
85.7415724
0
ARC
8
DEFAULT_255_1_234
10
13.4758207
20
-0.2428699
40
0.2349122
50
85.0140713
51
90.0513278
0
LINE
8
DEFAULT_255_1_234
10
14.4554823
20
-0.6513
11
14.0498795
21
-0.6513
0
LINE
8
DEFAULT_255_1_234
10
14.0498795
20
-0.6513
11
14.0498795
21
0.5181211
0
LINE
8
DEFAULT_255_1_234
10
14.0498795
20
0.5181211
11
14.4321903
21
0.5181211
0
LINE
8
DEFAULT_255_1_234
10
14.4611045
20
-0.1043386
11
14.2040889
21
-0.1043386
0
LINE
8
DEFAULT_255_1_234
10
14.2040889
20
-0.1043386
11
14.2040889
21
-0.5252017
0
LINE
8
DEFAULT_255_1_234
10
14.2040889
20
-0.5252017
11
14.458695
21
-0.5252017
0
LINE
8
DEFAULT_255_1_234
10
14.2040889
20
0.3912196
11
14.2040889
21
0.0193501
0
LINE
8
DEFAULT_255_1_234
10
14.2040889
20
0.0193501
11
14.4370093
21
0.0193501
0
LINE
8
DEFAULT_255_1_234
10
14.4321903
20
0.3912196
11
14.2040889
21
0.3912196
0
ARC
8
DEFAULT_255_1_234
10
14.4359612
20
-0.2186099
40
0.7367406
50
82.1257326
51
90.2932599
0
ARC
8
DEFAULT_255_1_234
10
14.4748566
20
0.0532013
40
0.4621653
50
69.9044149
51
82.2857423
0
ARC
8
DEFAULT_255_1_234
10
14.5319244
20
0.2074637
40
0.2976871
50
51.1838526
51
70.0181538
0
ARC
8
DEFAULT_255_1_234
10
14.557421
20
0.244524
40
0.2528517
50
12.1017251
51
50.4214761
0
ARC
8
DEFAULT_255_1_234
10
14.4190084
20
0.2097676
40
0.3955061
50
359.5251267
51
12.8211707
0
ARC
8
DEFAULT_255_1_234
10
14.5770011
20
0.2028344
40
0.2375281
50
323.4908128
51
0.8817314
0
ARC
8
DEFAULT_255_1_234
10
14.5351698
20
0.235155
40
0.2903817
50
298.6825083
51
323.2756573
0
ARC
8
DEFAULT_255_1_234
10
14.4990061
20
0.2952649
40
0.3604842
50
293.1999386
51
299.1396394
0
ARC
8
DEFAULT_255_1_234
10
14.5663033
20
-0.3132874
40
0.2871098
50
54.0011765
51
74.9167975
0
ARC
8
DEFAULT_255_1_234
10
14.5779393
20
-0.2935668
40
0.2643248
50
36.3580696
51
53.5291921
0
ARC
8
DEFAULT_255_1_234
10
14.5652635
20
-0.3026002
40
0.2798884
50
4.8189881
51
36.3089977
0
ARC
8
DEFAULT_255_1_234
10
14.487347
20
-0.313573
40
0.358478
50
359.9370252
51
5.5204067
0
ARC
8
DEFAULT_255_1_234
10
14.4548991
20
-0.3176333
40
0.3909429
50
344.7478609
51
0.5373281
0
ARC
8
DEFAULT_255_1_234
10
14.5539963
20
-0.3443456
40
0.2883093
50
311.1786488
51
344.6886812
0
ARC
8
DEFAULT_255_1_234
10
14.524801
20
-0.3080013
40
0.3348923
50
286.0418249
51
310.8441291
0
ARC
8
DEFAULT_255_1_234
10
14.4740842
20
-0.1433193
40
0.5071869
50
274.1042341
51
286.4071509
0
ARC
8
DEFAULT_255_1_234
10
14.4564098
20
0.0450229
40
0.6963234
50
269.9236873
51
274.445647
0
ARC
8
DEFAULT_255_1_234
10
14.4610098
20
-0.1889463
40
0.3362634
50
269.6055768
51
281.3740047
0
ARC
8
DEFAULT_255_1_234
10
14.4840736
20
-0.2982647
40
0.224546
50
281.1055983
51
302.5132223
0
ARC
8
DEFAULT_255_1_234
10
14.4987636
20
-0.3246177
40
0.1944357
50
303.0368945
51
311.8811219
0
ARC
8
DEFAULT_255_1_234
10
14.5059042
20
-0.333111
40
0.1833454
50
311.9916004
51
351.7143462
0
ARC
8
DEFAULT_255_1_234
10
14.4242272
20
-0.316607
40
0.2665871
50
350.7339597
51
0.2221581
0
ARC
8
DEFAULT_255_1_234
10
14.4134718
20
-0.3109533
40
0.2773789
50
359.0456241
51
17.2296242
0
ARC
8
DEFAULT_255_1_234
10
14.5173836
20
-0.2800837
40
0.1689915
50
17.6685481
51
78.9940892
0
ARC
8
DEFAULT_255_1_234
10
14.4656999
20
-0.4655776
40
0.3612658
50
76.5635957
51
90.6980921
0
LINE
8
DEFAULT_255_1_234
10
14.4612984
20
-0.1043387
11
14.4611045
21
-0.1043386
0
ARC
8
DEFAULT_255_1_234
10
14.439266
20
0.3479036
40
0.3285612
50
269.6064736
51
281.4533503
0
ARC
8
DEFAULT_255_1_234
10
14.4615479
20
0.2427688
40
0.2210975
50
281.2041486
51
302.5148063
0
ARC
8
DEFAULT_255_1_234
10
14.4752329
20
0.2181241
40
0.1929674
50
303.021671
51
309.8369575
0
ARC
8
DEFAULT_255_1_234
10
14.4935791
20
0.1975488
40
0.1654181
50
309.5228395
51
356.9509836
0
ARC
8
DEFAULT_255_1_234
10
14.4272373
20
0.2070932
40
0.2322512
50
355.4701227
51
0.0492546
0
ARC
8
DEFAULT_255_1_234
10
14.3993465
20
0.2093094
40
0.2601498
50
359.5558597
51
11.2096359
0
ARC
8
DEFAULT_255_1_234
10
14.4950754
20
0.229123
40
0.1623975
50
10.9182341
51
31.3230275
0
ARC
8
DEFAULT_255_1_234
10
14.5236488
20
0.2450214
40
0.1297302
50
31.8852677
51
52.1412565
0
ARC
8
DEFAULT_255_1_234
10
14.4962221
20
0.206275
40
0.1771663
50
52.8285564
51
71.9850297
0
ARC
8
DEFAULT_255_1_234
10
14.4586397
20
0.0956664
40
0.2939794
50
71.6863486
51
82.8455995
0
ARC
8
DEFAULT_255_1_234
10
14.4346933
20
-0.0852851
40
0.476506
50
82.6984714
51
90.1729175
0
ARC
8
DEFAULT_255_1_234
10
14.4324568
20
0.0370623
40
0.3541573
50
89.8708275
51
90.0431131
0
LINE
8
DEFAULT_255_1_234
10
15.937338
20
-0.068999
11
15.937338
21
-0.4978938
0
LINE
8
DEFAULT_255_1_234
10
15.036177
20
-0.1228116
11
15.036177
21
-0.0208085
0
LINE
8
DEFAULT_255_1_234
10
15.937338
20
0.1751659
11
15.7831287
21
0.1751659
0
LINE
8
DEFAULT_255_1_234
10
15.1911896
20
-0.0167927
11
15.1911896
21
-0.1123704
0
LINE
8
DEFAULT_255_1_234
10
15.7839318
20
-0.4569319
11
15.7839318
21
-0.1942941
0
LINE
8
DEFAULT_255_1_234
10
15.7839318
20
-0.1942941
11
15.5132623
21
-0.1942941
0
LINE
8
DEFAULT_255_1_234
10
15.5132623
20
-0.1942941
11
15.5132623
21
-0.068999
0
LINE
8
DEFAULT_255_1_234
10
15.5132623
20
-0.068999
11
15.937338
21
-0.068999
0
ARC
8
DEFAULT_255_1_234
10
15.6541887
20
-0.2985604
40
0.3462765
50
295.8437914
51
324.8549609
0
ARC
8
DEFAULT_255_1_234
10
15.6125854
20
-0.2232433
40
0.4322211
50
291.5695085
51
296.4549398
0
ARC
8
DEFAULT_255_1_234
10
15.5615105
20
-0.0867725
40
0.5779178
50
278.6622409
51
291.3045483
0
ARC
8
DEFAULT_255_1_234
10
15.5275597
20
0.1280408
40
0.7953952
50
270.020006
51
278.7494541
0
ARC
8
DEFAULT_255_1_234
10
15.5237521
20
0.2597036
40
0.927067
50
269.9969998
51
270.2524872
0
ARC
8
DEFAULT_255_1_234
10
15.5199234
20
-0.1486411
40
0.5187361
50
253.5786322
51
270.4175299
0
ARC
8
DEFAULT_255_1_234
10
15.502589
20
-0.2157764
40
0.4494451
50
238.8203306
51
253.2788235
0
ARC
8
DEFAULT_255_1_234
10
15.5006263
20
-0.2208769
40
0.4440665
50
206.7883783
51
238.6962764
0
ARC
8
DEFAULT_255_1_234
10
15.5780173
20
-0.1744595
40
0.5341121
50
206.1129412
51
207.4916643
0
ARC
8
DEFAULT_255_1_234
10
15.6377088
20
-0.1490512
40
0.5989041
50
188.6921119
51
205.7821245
0
ARC
8
DEFAULT_255_1_234
10
15.823345
20
-0.117477
40
0.7871862
50
180.3882829
51
188.9219216
0
ARC
8
DEFAULT_255_1_234
10
15.9461264
20
-0.0151536
40
0.909967
50
170.2024264
51
180.3560651
0
ARC
8
DEFAULT_255_1_234
10
15.6297782
20
0.0414237
40
0.5886083
50
154.2857445
51
170.3893044
0
ARC
8
DEFAULT_255_1_234
10
15.5015985
20
0.100095
40
0.4476743
50
139.8401567
51
153.9332699
0
ARC
8
DEFAULT_255_1_234
10
15.4656721
20
0.1288577
40
0.4016697
50
98.4190291
51
139.6707122
0
ARC
8
DEFAULT_255_1_234
10
15.5036239
20
-0.0556672
40
0.5898566
50
89.7659205
51
99.4415478
0
ARC
8
DEFAULT_255_1_234
10
15.5101488
20
-0.0491156
40
0.5833147
50
78.0551672
51
90.4042112
0
ARC
8
DEFAULT_255_1_234
10
15.5505998
20
0.1327644
40
0.3970055
50
54.6380464
51
78.3339173
0
ARC
8
DEFAULT_255_1_234
10
15.5696054
20
0.1647795
40
0.3599102
50
50.031736
51
54.1558201
0
ARC
8
DEFAULT_255_1_234
10
15.5588842
20
0.1551766
40
0.3741624
50
18.1092409
51
49.7180913
0
ARC
8
DEFAULT_255_1_234
10
15.4132042
20
0.1018089
40
0.5292424
50
7.9672797
51
18.6984571
0
ARC
8
DEFAULT_255_1_234
10
15.428252
20
0.1141504
40
0.3600838
50
9.7557294
51
27.3215714
0
ARC
8
DEFAULT_255_1_234
10
15.5409992
20
0.1704912
40
0.2340608
50
27.7361077
51
84.5257964
0
ARC
8
DEFAULT_255_1_234
10
15.5082379
20
0.006164
40
0.4011215
50
82.106034
51
90.2001166
0
ARC
8
DEFAULT_255_1_234
10
15.5032596
20
0.0569215
40
0.3503799
50
89.4150119
51
105.5823402
0
ARC
8
DEFAULT_255_1_234
10
15.4775593
20
0.1504867
40
0.2533503
50
105.6678618
51
144.2648758
0
ARC
8
DEFAULT_255_1_234
10
15.5668849
20
0.0869289
40
0.3629787
50
144.3561283
51
162.8564086
0
ARC
8
DEFAULT_255_1_234
10
15.7752758
20
0.0200017
40
0.5818441
50
162.6076014
51
173.6780284
0
ARC
8
DEFAULT_255_1_234
10
16.0813902
20
-0.017211
40
0.8902007
50
173.4670142
51
179.9730753
0
ARC
8
DEFAULT_255_1_234
10
15.8905573
20
-0.116574
40
0.6993804
50
179.6556203
51
190.0080463
0
ARC
8
DEFAULT_255_1_234
10
15.6589402
20
-0.1590625
40
0.4639066
50
189.8116607
51
206.6796816
0
ARC
8
DEFAULT_255_1_234
10
15.5744554
20
-0.1984497
40
0.3707421
50
207.1031645
51
217.7074368
0
ARC
8
DEFAULT_255_1_234
10
15.5110243
20
-0.2536441
40
0.2868417
50
216.7345547
51
265.6812148
0
ARC
8
DEFAULT_255_1_234
10
15.5241034
20
-0.1632145
40
0.3780509
50
264.7366618
51
270.0611241
0
ARC
8
DEFAULT_255_1_234
10
15.5264297
20
0.1208111
40
0.662079
50
269.8335834
51
276.0539546
0
ARC
8
DEFAULT_255_1_234
10
15.5471302
20
-0.069344
40
0.4708016
50
275.9894168
51
284.4615085
0
ARC
8
DEFAULT_255_1_234
10
15.5669309
20
-0.1526337
40
0.3852094
50
284.7034461
51
286.4953897
0
ARC
8
DEFAULT_255_1_234
10
15.6076322
20
-0.2837035
40
0.2479842
50
286.0770838
51
304.2625829
0
ARC
8
DEFAULT_255_1_234
10
15.6209736
20
-0.3055406
40
0.2224291
50
304.5891602
51
317.1073298
0
LINE
8
DEFAULT_255_1_234
10
16.889099
20
0.0402327
11
16.889099
21
-0.1525291
0
LINE
8
DEFAULT_255_1_234
10
16.1509823
20
-0.1726084
11
16.1509823
21
0.0257755
0
LINE
8
DEFAULT_255_1_234
10
16.7405119
20
-0.1926877
11
16.7405119
21
0.0506739
0
LINE
8
DEFAULT_255_1_234
10
16.2995694
20
0.0619184
11
16.2995694
21
-0.1758211
0
ARC
8
DEFAULT_255_1_234
10
15.664388
20
-0.1574195
40
1.2247208
50
353.8441951
51
0.2287902
0
ARC
8
DEFAULT_255_1_234
10
16.1283383
20
-0.2092194
40
0.7578929
50
344.4934747
51
353.9765454
0
ARC
8
DEFAULT_255_1_234
10
16.4275974
20
-0.2943019
40
0.4467846
50
329.2803592
51
344.7472793
0
ARC
8
DEFAULT_255_1_234
10
16.5268799
20
-0.3487982
40
0.3336173
50
324.9352394
51
328.6160465
0
ARC
8
DEFAULT_255_1_234
10
16.5645907
20
-0.3751573
40
0.2876076
50
280.580143
51
324.9173126
0
ARC
8
DEFAULT_255_1_234
10
16.52447
20
-0.2080901
40
0.4592847
50
269.5977311
51
281.6734359
0
ARC
8
DEFAULT_255_1_234
10
16.5172605
20
-0.2200827
40
0.4472986
50
256.6228859
51
270.51044
0
ARC
8
DEFAULT_255_1_234
10
16.4770583
20
-0.3749123
40
0.2873874
50
215.8618325
51
257.2788573
0
ARC
8
DEFAULT_255_1_234
10
16.5791615
20
-0.3064023
40
0.4102928
50
197.9693508
51
215.2623606
0
ARC
8
DEFAULT_255_1_234
10
16.827673
20
-0.2225291
40
0.6725652
50
187.8816417
51
198.2346507
0
ARC
8
DEFAULT_255_1_234
10
17.2234939
20
-0.1653921
40
1.0724845
50
180.8976217
51
188.0055519
0
ARC
8
DEFAULT_255_1_234
10
17.5035127
20
-0.1550223
40
1.3526448
50
180.7449369
51
181.1510016
0
ARC
8
DEFAULT_255_1_234
10
17.3457856
20
0.0306042
40
1.1948131
50
173.7675579
51
180.231553
0
ARC
8
DEFAULT_255_1_234
10
16.8940003
20
0.0816666
40
0.7401564
50
164.3058563
51
173.9002247
0
ARC
8
DEFAULT_255_1_234
10
16.6028071
20
0.1655656
40
0.4371288
50
148.7922025
51
164.568378
0
ARC
8
DEFAULT_255_1_234
10
16.5076524
20
0.2186929
40
0.3282386
50
144.5883898
51
148.1176286
0
ARC
8
DEFAULT_255_1_234
10
16.4733421
20
0.2426315
40
0.2864044
50
101.6440918
51
144.514236
0
ARC
8
DEFAULT_255_1_234
10
16.5158488
20
0.0737069
40
0.4604934
50
89.5284041
51
102.5819763
0
ARC
8
DEFAULT_255_1_234
10
16.5237576
20
0.0698018
40
0.464401
50
77.0437873
51
90.5081339
0
ARC
8
DEFAULT_255_1_234
10
16.5639578
20
0.2340615
40
0.2953195
50
48.2778575
51
77.4994676
0
ARC
8
DEFAULT_255_1_234
10
16.5712209
20
0.2469746
40
0.2808655
50
36.3142134
51
47.6305865
0
ARC
8
DEFAULT_255_1_234
10
16.4843516
20
0.1884515
40
0.3855453
50
18.2931786
51
35.6769206
0
ARC
8
DEFAULT_255_1_234
10
16.2300275
20
0.1011593
40
0.654423
50
8.024666
51
18.5605216
0
ARC
8
DEFAULT_255_1_234
10
15.8137195
20
0.0396792
40
1.0752407
50
1.1274072
51
8.1718305
0
ARC
8
DEFAULT_255_1_234
10
15.4901385
20
0.0269885
40
1.3990231
50
0.5424119
51
1.3863029
0
ARC
8
DEFAULT_255_1_234
10
15.6722763
20
0.0542342
40
1.0682415
50
359.8090433
51
4.9407866
0
ARC
8
DEFAULT_255_1_234
10
16.0932777
20
0.0918113
40
0.6455691
50
4.8362157
51
12.2904523
0
ARC
8
DEFAULT_255_1_234
10
16.3687892
20
0.1531965
40
0.3633074
50
12.0805627
51
23.8173984
0
ARC
8
DEFAULT_255_1_234
10
16.4861597
20
0.2028919
40
0.2358723
50
24.2871213
51
31.3935614
0
ARC
8
DEFAULT_255_1_234
10
16.5386295
20
0.2372233
40
0.1732111
50
30.7407893
51
82.4657128
0
ARC
8
DEFAULT_255_1_234
10
16.5206429
20
0.1488691
40
0.263235
50
81.1060089
51
90.2184952
0
ARC
8
DEFAULT_255_1_234
10
16.5170728
20
0.1746924
40
0.2374236
50
89.3806855
51
105.6762551
0
ARC
8
DEFAULT_255_1_234
10
16.4987358
20
0.2413567
40
0.1682847
50
105.7981136
51
149.7388061
0
ARC
8
DEFAULT_255_1_234
10
16.6051437
20
0.177395
40
0.2924306
50
149.4208916
51
163.6286378
0
ARC
8
DEFAULT_255_1_234
10
16.8142325
20
0.113625
40
0.5110213
50
163.3763315
51
172.1410975
0
ARC
8
DEFAULT_255_1_234
10
17.1443044
20
0.0663518
40
0.8444586
50
172.0259487
51
178.0703232
0
ARC
8
DEFAULT_255_1_234
10
17.4473133
20
0.0519906
40
1.1477868
50
177.8631668
51
179.5044149
0
ARC
8
DEFAULT_255_1_234
10
17.3400538
20
-0.1794611
40
1.0404907
50
179.7995573
51
185.2460446
0
ARC
8
DEFAULT_255_1_234
10
16.9357577
20
-0.2177487
40
0.6343885
50
185.1411642
51
193.0079639
0
ARC
8
DEFAULT_255_1_234
10
16.671405
20
-0.2802359
40
0.3627568
50
192.7897626
51
205.2507664
0
ARC
8
DEFAULT_255_1_234
10
16.5667597
20
-0.3269585
40
0.2481908
50
205.8005384
51
211.2537509
0
ARC
8
DEFAULT_255_1_234
10
16.5144037
20
-0.362042
40
0.1852521
50
210.3789793
51
238.4008143
0
ARC
8
DEFAULT_255_1_234
10
16.5124559
20
-0.3573624
40
0.1882621
50
239.6520629
51
265.9793761
0
ARC
8
DEFAULT_255_1_234
10
16.5209759
20
-0.2901573
40
0.2559272
50
265.1315437
51
270.060332
0
ARC
8
DEFAULT_255_1_234
10
16.5238538
20
-0.3225466
40
0.2235528
50
269.3314664
51
287.2178029
0
ARC
8
DEFAULT_255_1_234
10
16.537639
20
-0.3728721
40
0.1714108
50
287.7958004
51
329.080874
0
ARC
8
DEFAULT_255_1_234
10
16.4418847
20
-0.313107
40
0.2842745
50
328.6634704
51
343.3325132
0
ARC
8
DEFAULT_255_1_234
10
16.2245867
20
-0.2454137
40
0.5118644
50
343.0499468
51
351.9393422
0
ARC
8
DEFAULT_255_1_234
10
15.8779167
20
-0.1943051
40
0.8622784
50
351.8069023
51
357.7959224
0
ARC
8
DEFAULT_255_1_234
10
15.5543723
20
-0.1775279
40
1.1862365
50
357.5871873
51
359.2677531
0
LINE
8
DEFAULT_255_1_234
10
17.8127489
20
0.0402327
11
17.8127489
21
-0.1525291
0
LINE
8
DEFAULT_255_1_234
10
17.0746322
20
-0.1726084
11
17.0746322
21
0.0257755
0
LINE
8
DEFAULT_255_1_234
10
17.6641618
20
-0.1926877
11
17.6641618
21
0.0506739
0
LINE
8
DEFAULT_255_1_234
10
17.2232193
20
0.0619184
11
17.2232193
21
-0.1758211
0
ARC
8
DEFAULT_255_1_234
10
16.5880379
20
-0.1574195
40
1.2247208
50
353.8441951
51
0.2287902
0
ARC
8
DEFAULT_255_1_234
10
17.0519882
20
-0.2092194
40
0.7578929
50
344.4934747
51
353.9765454
0
ARC
8
DEFAULT_255_1_234
10
17.3512473
20
-0.2943019
40
0.4467846
50
329.2803592
51
344.7472793
0
ARC
8
DEFAULT_255_1_234
10
17.4505298
20
-0.3487982
40
0.3336173
50
324.9352394
51
328.6160465
0
ARC
8
DEFAULT_255_1_234
10
17.4882406
20
-0.3751573
40
0.2876076
50
280.580143
51
324.9173126
0
ARC
8
DEFAULT_255_1_234
10
17.4481199
20
-0.2080901
40
0.4592847
50
269.5977311
51
281.6734359
0
ARC
8
DEFAULT_255_1_234
10
17.4409104
20
-0.2200827
40
0.4472986
50
256.6228859
51
270.51044
0
ARC
8
DEFAULT_255_1_234
10
17.4007082
20
-0.3749123
40
0.2873874
50
215.8618325
51
257.2788573
0
ARC
8
DEFAULT_255_1_234
10
17.5028114
20
-0.3064023
40
0.4102928
50
197.9693508
51
215.2623606
0
ARC
8
DEFAULT_255_1_234
10
17.751323
20
-0.2225291
40
0.6725652
50
187.8816417
51
198.2346507
0
ARC
8
DEFAULT_255_1_234
10
18.1471438
20
-0.1653921
40
1.0724845
50
180.8976217
51
188.0055519
0
ARC
8
DEFAULT_255_1_234
10
18.4271626
20
-0.1550223
40
1.3526448
50
180.7449369
51
181.1510016
0
ARC
8
DEFAULT_255_1_234
10
18.2694355
20
0.0306042
40
1.1948131
50
173.7675579
51
180.231553
0
ARC
8
DEFAULT_255_1_234
10
17.8176502
20
0.0816666
40
0.7401564
50
164.3058563
51
173.9002247
0
ARC
8
DEFAULT_255_1_234
10
17.526457
20
0.1655656
40
0.4371288
50
148.7922025
51
164.568378
0
ARC
8
DEFAULT_255_1_234
10
17.4313023
20
0.2186929
40
0.3282386
50
144.5883898
51
148.1176286
0
ARC
8
DEFAULT_255_1_234
10
17.396992
20
0.2426315
40
0.2864044
50
101.6440918
51
144.514236
0
ARC
8
DEFAULT_255_1_234
10
17.4394987
20
0.0737069
40
0.4604934
50
89.5284041
51
102.5819763
0
ARC
8
DEFAULT_255_1_234
10
17.4474075
20
0.0698018
40
0.464401
50
77.0437873
51
90.5081339
0
ARC
8
DEFAULT_255_1_234
10
17.4876077
20
0.2340615
40
0.2953195
50
48.2778575
51
77.4994676
0
ARC
8
DEFAULT_255_1_234
10
17.4948708
20
0.2469746
40
0.2808655
50
36.3142134
51
47.6305865
0
ARC
8
DEFAULT_255_1_234
10
17.4080015
20
0.1884515
40
0.3855453
50
18.2931786
51
35.6769206
0
ARC
8
DEFAULT_255_1_234
10
17.1536774
20
0.1011593
40
0.654423
50
8.024666
51
18.5605216
0
ARC
8
DEFAULT_255_1_234
10
16.7373694
20
0.0396792
40
1.0752407
50
1.1274072
51
8.1718305
0
ARC
8
DEFAULT_255_1_234
10
16.4137884
20
0.0269885
40
1.3990231
50
0.5424119
51
1.3863029
0
ARC
8
DEFAULT_255_1_234
10
16.5959262
20
0.0542342
40
1.0682415
50
359.8090433
51
4.9407866
0
ARC
8
DEFAULT_255_1_234
10
17.0169276
20
0.0918113
40
0.6455691
50
4.8362157
51
12.2904523
0
ARC
8
DEFAULT_255_1_234
10
17.2924391
20
0.1531965
40
0.3633074
50
12.0805627
51
23.8173984
0
ARC
8
DEFAULT_255_1_234
10
17.4098096
20
0.2028919
40
0.2358723
50
24.2871213
51
31.3935614
0
ARC
8
DEFAULT_255_1_234
10
17.4622794
20
0.2372233
40
0.1732111
50
30.7407893
51
82.4657128
0
ARC
8
DEFAULT_255_1_234
10
17.4442928
20
0.1488691
40
0.263235
50
81.1060089
51
90.2184952
0
ARC
8
DEFAULT_255_1_234
10
17.4407227
20
0.1746924
40
0.2374236
50
89.3806855
51
105.6762551
0
ARC
8
DEFAULT_255_1_234
10
17.4223857
20
0.2413567
40
0.1682847
50
105.7981136
51
149.7388061
0
ARC
8
DEFAULT_255_1_234
10
17.5287936
20
0.177395
40
0.2924306
50
149.4208916
51
163.6286378
0
ARC
8
DEFAULT_255_1_234
10
17.7378824
20
0.113625
40
0.5110213
50
163.3763315
51
172.1410975
0
ARC
8
DEFAULT_255_1_234
10
18.0679543
20
0.0663518
40
0.8444586
50
172.0259487
51
178.0703232
0
ARC
8
DEFAULT_255_1_234
10
18.3709632
20
0.0519906
40
1.1477868
50
177.8631668
51
179.5044149
0
ARC
8
DEFAULT_255_1_234
10
18.2637037
20
-0.1794611
40
1.0404907
50
179.7995573
51
185.2460446
0
ARC
8
DEFAULT_255_1_234
10
17.8594076
20
-0.2177487
40
0.6343885
50
185.1411642
51
193.0079639
0
ARC
8
DEFAULT_255_1_234
10
17.5950549
20
-0.2802359
40
0.3627568
50
192.7897626
51
205.2507664
0
ARC
8
DEFAULT_255_1_234
10
17.4904096
20
-0.3269585
40
0.2481908
50
205.8005384
51
211.2537509
0
ARC
8
DEFAULT_255_1_234
10
17.4380536
20
-0.362042
40
0.1852521
50
210.3789793
51
238.4008143
0
ARC
8
DEFAULT_255_1_234
10
17.4361058
20
-0.3573624
40
0.1882621
50
239.6520629
51
265.9793761
0
ARC
8
DEFAULT_255_1_234
10
17.4446258
20
-0.2901573
40
0.2559272
50
265.1315437
51
270.060332
0
ARC
8
DEFAULT_255_1_234
10
17.4475037
20
-0.3225466
40
0.2235528
50
269.3314664
51
287.2178029
0
ARC
8
DEFAULT_255_1_234
10
17.4612889
20
-0.3728721
40
0.1714108
50
287.7958004
51
329.080874
0
ARC
8
DEFAULT_255_1_234
10
17.3655346
20
-0.313107
40
0.2842745
50
328.6634704
51
343.3325132
0
ARC
8
DEFAULT_255_1_234
10
17.1482366
20
-0.2454137
40
0.5118644
50
343.0499468
51
351.9393422
0
ARC
8
DEFAULT_255_1_234
10
16.8015666
20
-0.1943051
40
0.8622784
50
351.8069023
51
357.7959224
0
ARC
8
DEFAULT_255_1_234
10
16.4780222
20
-0.1775279
40
1.1862365
50
357.5871873
51
359.2677531
0
LINE
8
DEFAULT_255_1_234
10
18.3275833
20
-0.0938974
11
18.3275833
21
-0.2151766
0
LINE
8
DEFAULT_255_1_234
10
18.3275833
20
-0.2151766
11
17.9356345
21
-0.2151766
0
LINE
8
DEFAULT_255_1_234
10
17.9356345
20
-0.2151766
11
17.9356345
21
-0.0938974
0
LINE
8
DEFAULT_255_1_234
10
17.9356345
20
-0.0938974
11
18.3275833
21
-0.0938974
0
LINE
8
DEFAULT_255_1_234
10
19.190192
20
0.0402327
11
19.190192
21
-0.1525291
0
LINE
8
DEFAULT_255_1_234
10
18.4520753
20
-0.1726084
11
18.4520753
21
0.0257755
0
LINE
8
DEFAULT_255_1_234
10
19.0416049
20
-0.1926877
11
19.0416049
21
0.0506739
0
LINE
8
DEFAULT_255_1_234
10
18.6006625
20
0.0619184
11
18.6006625
21
-0.1758211
0
ARC
8
DEFAULT_255_1_234
10
17.965481
20
-0.1574195
40
1.2247208
50
353.8441951
51
0.2287902
0
ARC
8
DEFAULT_255_1_234
10
18.4294314
20
-0.2092194
40
0.7578929
50
344.4934747
51
353.9765454
0
ARC
8
DEFAULT_255_1_234
10
18.7286904
20
-0.2943019
40
0.4467846
50
329.2803592
51
344.7472793
0
ARC
8
DEFAULT_255_1_234
10
18.8279729
20
-0.3487982
40
0.3336173
50
324.9352394
51
328.6160465
0
ARC
8
DEFAULT_255_1_234
10
18.8656837
20
-0.3751573
40
0.2876076
50
280.580143
51
324.9173126
0
ARC
8
DEFAULT_255_1_234
10
18.825563
20
-0.2080901
40
0.4592847
50
269.5977311
51
281.6734359
0
ARC
8
DEFAULT_255_1_234
10
18.8183536
20
-0.2200827
40
0.4472986
50
256.6228859
51
270.51044
0
ARC
8
DEFAULT_255_1_234
10
18.7781513
20
-0.3749123
40
0.2873874
50
215.8618325
51
257.2788573
0
ARC
8
DEFAULT_255_1_234
10
18.8802545
20
-0.3064023
40
0.4102928
50
197.9693508
51
215.2623606
0
ARC
8
DEFAULT_255_1_234
10
19.1287661
20
-0.2225291
40
0.6725652
50
187.8816417
51
198.2346507
0
ARC
8
DEFAULT_255_1_234
10
19.5245869
20
-0.1653921
40
1.0724845
50
180.8976217
51
188.0055519
0
ARC
8
DEFAULT_255_1_234
10
19.8046057
20
-0.1550223
40
1.3526448
50
180.7449369
51
181.1510016
0
ARC
8
DEFAULT_255_1_234
10
19.6468786
20
0.0306042
40
1.1948131
50
173.7675579
51
180.231553
0
ARC
8
DEFAULT_255_1_234
10
19.1950933
20
0.0816666
40
0.7401564
50
164.3058563
51
173.9002247
0
ARC
8
DEFAULT_255_1_234
10
18.9039002
20
0.1655656
40
0.4371288
50
148.7922025
51
164.568378
0
ARC
8
DEFAULT_255_1_234
10
18.8087454
20
0.2186929
40
0.3282386
50
144.5883898
51
148.1176286
0
ARC
8
DEFAULT_255_1_234
10
18.7744352
20
0.2426315
40
0.2864044
50
101.6440918
51
144.514236
0
ARC
8
DEFAULT_255_1_234
10
18.8169418
20
0.0737069
40
0.4604934
50
89.5284041
51
102.5819763
0
ARC
8
DEFAULT_255_1_234
10
18.8248506
20
0.0698018
40
0.464401
50
77.0437873
51
90.5081339
0
ARC
8
DEFAULT_255_1_234
10
18.8650508
20
0.2340615
40
0.2953195
50
48.2778575
51
77.4994676
0
ARC
8
DEFAULT_255_1_234
10
18.8723139
20
0.2469746
40
0.2808655
50
36.3142134
51
47.6305865
0
ARC
8
DEFAULT_255_1_234
10
18.7854446
20
0.1884515
40
0.3855453
50
18.2931786
51
35.6769206
0
ARC
8
DEFAULT_255_1_234
10
18.5311205
20
0.1011593
40
0.654423
50
8.024666
51
18.5605216
0
ARC
8
DEFAULT_255_1_234
10
18.1148125
20
0.0396792
40
1.0752407
50
1.1274072
51
8.1718305
0
ARC
8
DEFAULT_255_1_234
10
17.7912316
20
0.0269885
40
1.3990231
50
0.5424119
51
1.3863029
0
ARC
8
DEFAULT_255_1_234
10
17.9733693
20
0.0542342
40
1.0682415
50
359.8090433
51
4.9407866
0
ARC
8
DEFAULT_255_1_234
10
18.3943707
20
0.0918113
40
0.6455691
50
4.8362157
51
12.2904523
0
ARC
8
DEFAULT_255_1_234
10
18.6698822
20
0.1531965
40
0.3633074
50
12.0805627
51
23.8173984
0
ARC
8
DEFAULT_255_1_234
10
18.7872528
20
0.2028919
40
0.2358723
50
24.2871213
51
31.3935614
0
ARC
8
DEFAULT_255_1_234
10
18.8397225
20
0.2372233
40
0.1732111
50
30.7407893
51
82.4657128
0
ARC
8
DEFAULT_255_1_234
10
18.8217359
20
0.1488691
40
0.263235
50
81.1060089
51
90.2184952
0
ARC
8
DEFAULT_255_1_234
10
18.8181658
20
0.1746924
40
0.2374236
50
89.3806855
51
105.6762551
0
ARC
8
DEFAULT_255_1_234
10
18.7998289
20
0.2413567
40
0.1682847
50
105.7981136
51
149.7388061
0
ARC
8
DEFAULT_255_1_234
10
18.9062367
20
0.177395
40
0.2924306
50
149.4208916
51
163.6286378
0
ARC
8
DEFAULT_255_1_234
10
19.1153255
20
0.113625
40
0.5110213
50
163.3763315
51
172.1410975
0
ARC
8
DEFAULT_255_1_234
10
19.4453974
20
0.0663518
40
0.8444586
50
172.0259487
51
178.0703232
0
ARC
8
DEFAULT_255_1_234
10
19.7484064
20
0.0519906
40
1.1477868
50
177.8631668
51
179.5044149
0
ARC
8
DEFAULT_255_1_234
10
19.6411468
20
-0.1794611
40
1.0404907
50
179.7995573
51
185.2460446
0
ARC
8
DEFAULT_255_1_234
10
19.2368507
20
-0.2177487
40
0.6343885
50
185.1411642
51
193.0079639
0
ARC
8
DEFAULT_255_1_234
10
18.972498
20
-0.2802359
40
0.3627568
50
192.7897626
51
205.2507664
0
ARC
8
DEFAULT_255_1_234
10
18.8678527
20
-0.3269585
40
0.2481908
50
205.8005384
51
211.2537509
0
ARC
8
DEFAULT_255_1_234
10
18.8154967
20
-0.362042
40
0.1852521
50
210.3789793
51
238.4008143
0
ARC
8
DEFAULT_255_1_234
10
18.8135489
20
-0.3573624
40
0.1882621
50
239.6520629
51
265.9793761
0
ARC
8
DEFAULT_255_1_234
10
18.8220689
20
-0.2901573
40
0.2559272
50
265.1315437
51
270.060332
0
ARC
8
DEFAULT_255_1_234
10
18.8249468
20
-0.3225466
40
0.2235528
50
269.3314664
51
287.2178029
0
ARC
8
DEFAULT_255_1_234
10
18.838732
20
-0.3728721
40
0.1714108
50
287.7958004
51
329.080874
0
ARC
8
DEFAULT_255_1_234
10
18.7429777
20
-0.313107
40
0.2842745
50
328.6634704
51
343.3325132
0
ARC
8
DEFAULT_255_1_234
10
18.5256797
20
-0.2454137
40
0.5118644
50
343.0499468
51
351.9393422
0
ARC
8
DEFAULT_255_1_234
10
18.1790097
20
-0.1943051
40
0.8622784
50
351.8069023
51
357.7959224
0
ARC
8
DEFAULT_255_1_234
10
17.8554653
20
-0.1775279
40
1.1862365
50
357.5871873
51
359.2677531
0
LINE
8
DEFAULT_255_1_234
10
20.1764895
20
-0.6513
11
20.0648483
21
-0.3460939
0
LINE
8
DEFAULT_255_1_234
10
20.0648483
20
-0.3460939
11
19.5749123
21
-0.3460939
0
LINE
8
DEFAULT_255_1_234
10
19.5749123
20
-0.3460939
11
19.4648775
21
-0.6513
0
LINE
8
DEFAULT_255_1_234
10
19.4648775
20
-0.6513
11
19.3058491
21
-0.6513
0
LINE
8
DEFAULT_255_1_234
10
19.3058491
20
-0.6513
11
19.7524137
21
0.5181211
0
LINE
8
DEFAULT_255_1_234
10
19.7524137
20
0.5181211
11
19.8873469
21
0.5181211
0
LINE
8
DEFAULT_255_1_234
10
19.8873469
20
0.5181211
11
20.3347147
21
-0.6513
0
LINE
8
DEFAULT_255_1_234
10
20.3347147
20
-0.6513
11
20.1764895
21
-0.6513
0
LINE
8
DEFAULT_255_1_234
10
19.8198803
20
0.3277689
11
19.6214964
21
-0.2191925
0
LINE
8
DEFAULT_255_1_234
10
19.6214964
20
-0.2191925
11
20.0190674
21
-0.2191925
0
LINE
8
DEFAULT_255_1_234
10
20.0190674
20
-0.2191925
11
19.8198803
21
0.3277689
0
LINE
8
DEFAULT_255_1_234
10
20.8977396
20
-0.6513
11
20.4921368
21
-0.6513
0
LINE
8
DEFAULT_255_1_234
10
20.4921368
20
-0.6513
11
20.4921368
21
0.5181211
0
LINE
8
DEFAULT_255_1_234
10
20.4921368
20
0.5181211
11
20.8744476
21
0.5181211
0
LINE
8
DEFAULT_255_1_234
10
20.9033618
20
-0.1043386
11
20.6463462
21
-0.1043386
0
LINE
8
DEFAULT_255_1_234
10
20.6463462
20
-0.1043386
11
20.6463462
21
-0.5252017
0
LINE
8
DEFAULT_255_1_234
10
20.6463462
20
-0.5252017
11
20.9009523
21
-0.5252017
0
LINE
8
DEFAULT_255_1_234
10
20.6463462
20
0.3912196
11
20.6463462
21
0.0193501
0
LINE
8
DEFAULT_255_1_234
10
20.6463462
20
0.0193501
11
20.8792666
21
0.0193501
0
LINE
8
DEFAULT_255_1_234
10
20.8744476
20
0.3912196
11
20.6463462
21
0.3912196
0
ARC
8
DEFAULT_255_1_234
10
20.8782184
20
-0.2186099
40
0.7367406
50
82.1257326
51
90.2932599
0
ARC
8
DEFAULT_255_1_234
10
20.9171139
20
0.0532013
40
0.4621653
50
69.9044149
51
82.2857423
0
ARC
8
DEFAULT_255_1_234
10
20.9741817
20
0.2074637
40
0.2976871
50
51.1838526
51
70.0181538
0
ARC
8
DEFAULT_255_1_234
10
20.9996783
20
0.244524
40
0.2528517
50
12.1017251
51
50.4214761
0
ARC
8
DEFAULT_255_1_234
10
20.8612657
20
0.2097676
40
0.3955061
50
359.5251267
51
12.8211707
0
ARC
8
DEFAULT_255_1_234
10
21.0192584
20
0.2028344
40
0.2375281
50
323.4908128
51
0.8817314
0
ARC
8
DEFAULT_255_1_234
10
20.977427
20
0.235155
40
0.2903817
50
298.6825083
51
323.2756573
0
ARC
8
DEFAULT_255_1_234
10
20.9412633
20
0.2952649
40
0.3604842
50
293.1999386
51
299.1396394
0
ARC
8
DEFAULT_255_1_234
10
21.0085606
20
-0.3132874
40
0.2871098
50
54.0011765
51
74.9167975
0
ARC
8
DEFAULT_255_1_234
10
21.0201965
20
-0.2935668
40
0.2643248
50
36.3580696
51
53.5291921
0
ARC
8
DEFAULT_255_1_234
10
21.0075208
20
-0.3026002
40
0.2798884
50
4.8189881
51
36.3089977
0
ARC
8
DEFAULT_255_1_234
10
20.9296043
20
-0.313573
40
0.358478
50
359.9370252
51
5.5204067
0
ARC
8
DEFAULT_255_1_234
10
20.8971564
20
-0.3176333
40
0.3909429
50
344.7478609
51
0.5373281
0
ARC
8
DEFAULT_255_1_234
10
20.9962535
20
-0.3443456
40
0.2883093
50
311.1786488
51
344.6886812
0
ARC
8
DEFAULT_255_1_234
10
20.9670583
20
-0.3080013
40
0.3348923
50
286.0418249
51
310.8441291
0
ARC
8
DEFAULT_255_1_234
10
20.9163414
20
-0.1433193
40
0.5071869
50
274.1042341
51
286.4071509
0
ARC
8
DEFAULT_255_1_234
10
20.898667
20
0.0450229
40
0.6963234
50
269.9236873
51
274.445647
0
ARC
8
DEFAULT_255_1_234
10
20.9032671
20
-0.1889463
40
0.3362634
50
269.6055768
51
281.3740047
0
ARC
8
DEFAULT_255_1_234
10
20.9263309
20
-0.2982647
40
0.224546
50
281.1055983
51
302.5132223
0
ARC
8
DEFAULT_255_1_234
10
20.9410209
20
-0.3246177
40
0.1944357
50
303.0368945
51
311.8811219
0
ARC
8
DEFAULT_255_1_234
10
20.9481615
20
-0.333111
40
0.1833454
50
311.9916004
51
351.7143462
0
ARC
8
DEFAULT_255_1_234
10
20.8664845
20
-0.316607
40
0.2665871
50
350.7339597
51
0.2221581
0
ARC
8
DEFAULT_255_1_234
10
20.8557291
20
-0.3109533
40
0.2773789
50
359.0456241
51
17.2296242
0
ARC
8
DEFAULT_255_1_234
10
20.9596408
20
-0.2800837
40
0.1689915
50
17.6685481
51
78.9940892
0
ARC
8
DEFAULT_255_1_234
10
20.9079572
20
-0.4655776
40
0.3612658
50
76.5635957
51
90.6980921
0
LINE
8
DEFAULT_255_1_234
10
20.9035557
20
-0.1043387
11
20.9033618
21
-0.1043386
0
ARC
8
DEFAULT_255_1_234
10
20.8815233
20
0.3479036
40
0.3285612
50
269.6064736
51
281.4533503
0
ARC
8
DEFAULT_255_1_234
10
20.9038052
20
0.2427688
40
0.2210975
50
281.2041486
51
302.5148063
0
ARC
8
DEFAULT_255_1_234
10
20.9174902
20
0.2181241
40
0.1929674
50
303.021671
51
309.8369575
0
ARC
8
DEFAULT_255_1_234
10
20.9358364
20
0.1975488
40
0.1654181
50
309.5228395
51
356.9509836
0
ARC
8
DEFAULT_255_1_234
10
20.8694946
20
0.2070932
40
0.2322512
50
355.4701227
51
0.0492546
0
ARC
8
DEFAULT_255_1_234
10
20.8416037
20
0.2093094
40
0.2601498
50
359.5558597
51
11.2096359
0
ARC
8
DEFAULT_255_1_234
10
20.9373327
20
0.229123
40
0.1623975
50
10.9182341
51
31.3230275
0
ARC
8
DEFAULT_255_1_234
10
20.9659061
20
0.2450214
40
0.1297302
50
31.8852677
51
52.1412565
0
ARC
8
DEFAULT_255_1_234
10
20.9384793
20
0.206275
40
0.1771663
50
52.8285564
51
71.9850297
0
ARC
8
DEFAULT_255_1_234
10
20.900897
20
0.0956664
40
0.2939794
50
71.6863486
51
82.8455995
0
ARC
8
DEFAULT_255_1_234
10
20.8769506
20
-0.0852851
40
0.476506
50
82.6984714
51
90.1729175
0
ARC
8
DEFAULT_255_1_234
10
20.874714
20
0.0370623
40
0.3541573
50
89.8708275
51
90.0431131
0
LINE
8
DEFAULT_255_1_234
10
22.2109288
20
0.0402327
11
22.2109288
21
-0.1525291
0
LINE
8
DEFAULT_255_1_234
10
21.4728121
20
-0.1726084
11
21.4728121
21
0.0257755
0
LINE
8
DEFAULT_255_1_234
10
22.0623417
20
-0.1926877
11
22.0623417
21
0.0506739
0
LINE
8
DEFAULT_255_1_234
10
21.6213992
20
0.0619184
11
21.6213992
21
-0.1758211
0
ARC
8
DEFAULT_255_1_234
10
20.9862178
20
-0.1574195
40
1.2247208
50
353.8441951
51
0.2287902
0
ARC
8
DEFAULT_255_1_234
10
21.4501681
20
-0.2092194
40
0.7578929
50
344.4934747
51
353.9765454
0
ARC
8
DEFAULT_255_1_234
10
21.7494272
20
-0.2943019
40
0.4467846
50
329.2803592
51
344.7472793
0
ARC
8
DEFAULT_255_1_234
10
21.8487096
20
-0.3487982
40
0.3336173
50
324.9352394
51
328.6160465
0
ARC
8
DEFAULT_255_1_234
10
21.8864205
20
-0.3751573
40
0.2876076
50
280.580143
51
324.9173126
0
ARC
8
DEFAULT_255_1_234
10
21.8462998
20
-0.2080901
40
0.4592847
50
269.5977311
51
281.6734359
0
ARC
8
DEFAULT_255_1_234
10
21.8390903
20
-0.2200827
40
0.4472986
50
256.6228859
51
270.51044
0
ARC
8
DEFAULT_255_1_234
10
21.7988881
20
-0.3749123
40
0.2873874
50
215.8618325
51
257.2788573
0
ARC
8
DEFAULT_255_1_234
10
21.9009913
20
-0.3064023
40
0.4102928
50
197.9693508
51
215.2623606
0
ARC
8
DEFAULT_255_1_234
10
22.1495028
20
-0.2225291
40
0.6725652
50
187.8816417
51
198.2346507
0
ARC
8
DEFAULT_255_1_234
10
22.5453237
20
-0.1653921
40
1.0724845
50
180.8976217
51
188.0055519
0
ARC
8
DEFAULT_255_1_234
10
22.8253425
20
-0.1550223
40
1.3526448
50
180.7449369
51
181.1510016
0
ARC
8
DEFAULT_255_1_234
10
22.6676154
20
0.0306042
40
1.1948131
50
173.7675579
51
180.231553
0
ARC
8
DEFAULT_255_1_234
10
22.21583
20
0.0816666
40
0.7401564
50
164.3058563
51
173.9002247
0
ARC
8
DEFAULT_255_1_234
10
21.9246369
20
0.1655656
40
0.4371288
50
148.7922025
51
164.568378
0
ARC
8
DEFAULT_255_1_234
10
21.8294821
20
0.2186929
40
0.3282386
50
144.5883898
51
148.1176286
0
ARC
8
DEFAULT_255_1_234
10
21.7951719
20
0.2426315
40
0.2864044
50
101.6440918
51
144.514236
0
ARC
8
DEFAULT_255_1_234
10
21.8376786
20
0.0737069
40
0.4604934
50
89.5284041
51
102.5819763
0
ARC
8
DEFAULT_255_1_234
10
21.8455874
20
0.0698018
40
0.464401
50
77.0437873
51
90.5081339
0
ARC
8
DEFAULT_255_1_234
10
21.8857876
20
0.2340615
40
0.2953195
50
48.2778575
51
77.4994676
0
ARC
8
DEFAULT_255_1_234
10
21.8930507
20
0.2469746
40
0.2808655
50
36.3142134
51
47.6305865
0
ARC
8
DEFAULT_255_1_234
10
21.8061814
20
0.1884515
40
0.3855453
50
18.2931786
51
35.6769206
0
ARC
8
DEFAULT_255_1_234
10
21.5518573
20
0.1011593
40
0.654423
50
8.024666
51
18.5605216
0
ARC
8
DEFAULT_255_1_234
10
21.1355493
20
0.0396792
40
1.0752407
50
1.1274072
51
8.1718305
0
ARC
8
DEFAULT_255_1_234
10
20.8119683
20
0.0269885
40
1.3990231
50
0.5424119
51
1.3863029
0
ARC
8
DEFAULT_255_1_234
10
20.9941061
20
0.0542342
40
1.0682415
50
359.8090433
51
4.9407866
0
ARC
8
DEFAULT_255_1_234
10
21.4151075
20
0.0918113
40
0.6455691
50
4.8362157
51
12.2904523
0
ARC
8
DEFAULT_255_1_234
10
21.690619
20
0.1531965
40
0.3633074
50
12.0805627
51
23.8173984
0
ARC
8
DEFAULT_255_1_234
10
21.8079895
20
0.2028919
40
0.2358723
50
24.2871213
51
31.3935614
0
ARC
8
DEFAULT_255_1_234
10
21.8604592
20
0.2372233
40
0.1732111
50
30.7407893
51
82.4657128
0
ARC
8
DEFAULT_255_1_234
10
21.8424727
20
0.1488691
40
0.263235
50
81.1060089
51
90.2184952
0
ARC
8
DEFAULT_255_1_234
10
21.8389026
20
0.1746924
40
0.2374236
50
89.3806855
51
105.6762551
0
ARC
8
DEFAULT_255_1_234
10
21.8205656
20
0.2413567
40
0.1682847
50
105.7981136
51
149.7388061
0
ARC
8
DEFAULT_255_1_234
10
21.9269735
20
0.177395
40
0.2924306
50
149.4208916
51
163.6286378
0
ARC
8
DEFAULT_255_1_234
10
22.1360623
20
0.113625
40
0.5110213
50
163.3763315
51
172.1410975
0
ARC
8
DEFAULT_255_1_234
10
22.4661342
20
0.0663518
40
0.8444586
50
172.0259487
51
178.0703232
0
ARC
8
DEFAULT_255_1_234
10
22.7691431
20
0.0519906
40
1.1477868
50
177.8631668
51
179.5044149
0
ARC
8
DEFAULT_255_1_234
10
22.6618836
20
-0.1794611
40
1.0404907
50
179.7995573
51
185.2460446
0
ARC
8
DEFAULT_255_1_234
10
22.2575875
20
-0.2177487
40
0.6343885
50
185.1411642
51
193.0079639
0
ARC
8
DEFAULT_255_1_234
10
21.9932347
20
-0.2802359
40
0.3627568
50
192.7897626
51
205.2507664
0
ARC
8
DEFAULT_255_1_234
10
21.8885894
20
-0.3269585
40
0.2481908
50
205.8005384
51
211.2537509
0
ARC
8
DEFAULT_255_1_234
10
21.8362335
20
-0.362042
40
0.1852521
50
210.3789793
51
238.4008143
0
ARC
8
DEFAULT_255_1_234
10
21.8342857
20
-0.3573624
40
0.1882621
50
239.6520629
51
265.9793761
0
ARC
8
DEFAULT_255_1_234
10
21.8428057
20
-0.2901573
40
0.2559272
50
265.1315437
51
270.060332
0
ARC
8
DEFAULT_255_1_234
10
21.8456836
20
-0.3225466
40
0.2235528
50
269.3314664
51
287.2178029
0
ARC
8
DEFAULT_255_1_234
10
21.8594688
20
-0.3728721
40
0.1714108
50
287.7958004
51
329.080874
0
ARC
8
DEFAULT_255_1_234
10
21.7637144
20
-0.313107
40
0.2842745
50
328.6634704
51
343.3325132
0
ARC
8
DEFAULT_255_1_234
10
21.5464165
20
-0.2454137
40
0.5118644
50
343.0499468
51
351.9393422
0
ARC
8
DEFAULT_255_1_234
10
21.1997465
20
-0.1943051
40
0.8622784
50
351.8069023
51
357.7959224
0
ARC
8
DEFAULT_255_1_234
10
20.8762021
20
-0.1775279
40
1.1862365
50
357.5871873
51
359.2677531
0
ARC
8
DEFAULT_255_2_778
10
7.7537338
20
92.0262992
40
3.0484709
50
251.6854144
51
258.6071955
0
ARC
8
DEFAULT_255_2_778
10
7.539521
20
90.9446738
40
1.9458471
50
258.4992492
51
268.3986479
0
ARC
8
DEFAULT_255_2_778
10
7.5172314
20
90.5144206
40
1.5151737
50
268.7865272
51
269.9950384
0
ARC
8
DEFAULT_255_2_778
10
7.5277432
20
90.0632355
40
1.0640417
50
269.426895
51
279.6711067
0
ARC
8
DEFAULT_255_2_778
10
7.6417753
20
89.4336746
40
0.4243233
50
278.7731084
51
300.3324923
0
ARC
8
DEFAULT_255_2_778
10
7.760746
20
89.2310552
40
0.1893587
50
300.2240287
51
1.9041213
0
ARC
8
DEFAULT_255_2_778
10
7.7452705
20
89.2402089
40
0.2047497
50
359.1991369
51
359.99965
0
ARC
8
DEFAULT_255_2_778
10
7.7523233
20
89.2410378
40
0.1976988
50
359.7594145
51
47.1793976
0
ARC
8
DEFAULT_255_2_778
10
7.6187277
20
89.092431
40
0.3975169
50
47.6144502
51
60.8366176
0
ARC
8
DEFAULT_255_2_778
10
7.0190958
20
88.0764865
40
1.5771337
50
59.799464
51
64.8885807
0
ARC
8
DEFAULT_255_2_778
10
6.0948833
20
86.1474682
40
3.7160912
50
64.6076081
51
66.8386974
0
ARC
8
DEFAULT_255_2_778
10
9.6419609
20
94.5105052
40
5.368109
50
244.3032309
51
247.1393781
0
ARC
8
DEFAULT_255_2_778
10
8.5507088
20
92.250518
40
2.8584574
50
240.2323579
51
244.3709759
0
ARC
8
DEFAULT_255_2_778
10
7.7800475
20
90.9136591
40
1.315392
50
233.2209971
51
240.4606284
0
ARC
8
DEFAULT_255_2_778
10
7.3561477
20
90.3425187
40
0.6041399
50
225.6990744
51
232.9899679
0
ARC
8
DEFAULT_255_2_778
10
7.3965073
20
90.3669214
40
0.6499005
50
178.2783416
51
224.6550883
0
ARC
8
DEFAULT_255_2_778
10
7.5059624
20
90.4002974
40
0.7591885
50
157.033673
51
181.0453383
0
ARC
8
DEFAULT_255_2_778
10
7.378439
20
90.4411396
40
0.6259551
50
124.9113017
51
155.9211516
0
ARC
8
DEFAULT_255_2_778
10
7.5960466
20
90.1325681
40
1.0035357
50
100.4079723
51
125.0168617
0
ARC
8
DEFAULT_255_2_778
10
7.6991199
20
89.6385046
40
1.5081396
50
89.6483922
51
100.8684975
0
ARC
8
DEFAULT_255_2_778
10
7.7083242
20
89.2862988
40
1.8603169
50
89.5079487
51
89.9984402
0
ARC
8
DEFAULT_255_2_778
10
7.7099573
20
89.2210694
40
1.9255311
50
83.9170631
51
89.5732113
0
ARC
8
DEFAULT_255_2_778
10
7.5071517
20
87.2134957
40
3.9433074
50
80.7325723
51
84.0779772
0
ARC
8
DEFAULT_255_2_778
10
7.0208457
20
84.190582
40
7.0050837
50
78.5086351
51
80.7886813
0
ARC
8
DEFAULT_255_2_778
10
7.6620177
20
88.7900544
40
1.9415426
50
67.135818
51
78.0934208
0
ARC
8
DEFAULT_255_2_778
10
7.7851814
20
89.3604809
40
1.3579807
50
78.2126325
51
89.7333975
0
ARC
8
DEFAULT_255_2_778
10
7.7793853
20
89.7756211
40
0.9429038
50
89.2638155
51
100.5666868
0
ARC
8
DEFAULT_255_2_778
10
7.6660949
20
90.3454419
40
0.362036
50
99.4784875
51
124.329414
0
ARC
8
DEFAULT_255_2_778
10
7.5705593
20
90.493551
40
0.1859067
50
125.7571195
51
182.2824883
0
ARC
8
DEFAULT_255_2_778
10
7.5493239
20
90.4868629
40
0.1645253
50
180.2492993
51
239.8144161
0
ARC
8
DEFAULT_255_2_778
10
7.932718
20
91.0869128
40
0.876484
50
237.8725734
51
242.8068846
0
ARC
8
DEFAULT_255_2_778
10
9.4175857
20
93.9034958
40
4.0604642
50
242.3328458
51
244.031083
0
ARC
8
DEFAULT_255_2_778
10
12.3804066
20
99.9519314
40
10.7955807
50
243.950624
51
244.8024316
0
ARC
8
DEFAULT_255_2_778
10
15.4009918
20
106.3359175
40
17.8580926
50
244.7535425
51
244.9563234
0
ARC
8
DEFAULT_255_2_778
10
5.8652927
20
85.8343264
40
4.7527588
50
62.2505456
51
65.4301556
0
ARC
8
DEFAULT_255_2_778
10
6.9275435
20
87.8424172
40
2.4810291
50
57.2951304
51
62.3684211
0
ARC
8
DEFAULT_255_2_778
10
7.6807233
20
89.0057235
40
1.0952081
50
48.7345704
51
57.5685367
0
ARC
8
DEFAULT_255_2_778
10
8.0117486
20
89.3932722
40
0.5856147
50
44.3236031
51
48.0704418
0
ARC
8
DEFAULT_255_2_778
10
7.9783002
20
89.3732468
40
0.6236013
50
1.3523843
51
43.4925744
0
ARC
8
DEFAULT_255_2_778
10
7.7103531
20
89.3403151
40
0.8926473
50
359.9763756
51
3.0599076
0
ARC
8
DEFAULT_255_2_778
10
7.8645343
20
89.3252407
40
0.7386124
50
333.0361889
51
1.1408766
0
ARC
8
DEFAULT_255_2_778
10
7.8947908
20
89.3321919
40
0.7150741
50
300.8430083
51
331.4403095
0
ARC
8
DEFAULT_255_2_778
10
7.694568
20
89.6457162
40
1.0869673
50
281.4258583
51
301.4316118
0
ARC
8
DEFAULT_255_2_778
10
7.5632666
20
90.2539414
40
1.7091691
50
270.2273513
51
281.7010805
0
ARC
8
DEFAULT_255_2_778
10
7.5453797
20
90.7306043
40
2.1859577
50
269.9983113
51
270.6466065
0
LINE
8
DEFAULT_255_2_778
10
7.5453153
20
88.5446465
11
7.5438002
21
88.544647
0
ARC
8
DEFAULT_255_2_778
10
7.5509161
20
91.7275969
40
3.1829579
50
256.2431122
51
269.871909
0
ARC
8
DEFAULT_255_2_778
10
21.7538511
20
91.9521629
40
2.9720345
50
251.5709223
51
258.7508181
0
ARC
8
DEFAULT_255_2_778
10
21.5538128
20
90.9289385
40
1.9294488
50
258.6495077
51
268.8281511
0
ARC
8
DEFAULT_255_2_778
10
21.5355488
20
90.5341193
40
1.5343723
50
269.2085037
51
269.9981866
0
ARC
8
DEFAULT_255_2_778
10
21.5473849
20
90.0657184
40
1.0660376
50
269.3612297
51
279.5899087
0
ARC
8
DEFAULT_255_2_778
10
21.6608439
20
89.4342324
40
0.424527
50
278.6895227
51
300.2363944
0
ARC
8
DEFAULT_255_2_778
10
21.7799083
20
89.2307793
40
0.188796
50
300.1108484
51
1.9024905
0
ARC
8
DEFAULT_255_2_778
10
21.7439577
20
89.2414221
40
0.2246851
50
358.8842611
51
0.0019649
0
ARC
8
DEFAULT_255_2_778
10
21.7769791
20
89.2453385
40
0.1917038
50
358.831716
51
47.0900458
0
ARC
8
DEFAULT_255_2_778
10
21.6364654
20
89.085984
40
0.4041259
50
47.8812665
51
61.174665
0
ARC
8
DEFAULT_255_2_778
10
21.0418848
20
88.0660117
40
1.5846568
50
60.1210877
51
65.1917015
0
ARC
8
DEFAULT_255_2_778
10
20.1415278
20
86.1604122
40
3.6922188
50
64.9168629
51
67.1565628
0
ARC
8
DEFAULT_255_2_778
10
23.6275467
20
94.4319888
40
5.2839333
50
244.2656926
51
247.1407051
0
ARC
8
DEFAULT_255_2_778
10
22.5594997
20
92.223765
40
2.8309849
50
240.1545061
51
244.3326325
0
ARC
8
DEFAULT_255_2_778
10
21.7856548
20
90.8877346
40
1.2870531
50
232.697515
51
240.4357497
0
ARC
8
DEFAULT_255_2_778
10
21.3705506
20
90.3367218
40
0.5972006
50
225.5850892
51
232.3393736
0
ARC
8
DEFAULT_255_2_778
10
21.4133941
20
90.3662933
40
0.6483829
50
178.7795739
51
224.7095916
0
ARC
8
DEFAULT_255_2_778
10
21.6669319
20
90.3903135
40
0.9018316
50
179.997867
51
180.6487041
0
ARC
8
DEFAULT_255_2_778
10
21.5167738
20
90.4041249
40
0.7517998
50
156.9195758
51
181.050088
0
ARC
8
DEFAULT_255_2_778
10
21.3928482
20
90.4435712
40
0.6224513
50
124.7111133
51
155.7879672
0
ARC
8
DEFAULT_255_2_778
10
21.6055459
20
90.1516942
40
0.9835402
50
101.7934503
51
125.2143527
0
ARC
8
DEFAULT_255_2_778
10
21.729848
20
89.5991326
40
1.5498677
50
89.5248728
51
102.1166783
0
ARC
8
DEFAULT_255_2_778
10
21.7283109
20
89.0455834
40
2.1034129
50
83.2889725
51
89.6080411
0
ARC
8
DEFAULT_255_2_778
10
21.529975
20
87.2777668
40
3.8823067
50
79.4764054
51
83.4308492
0
ARC
8
DEFAULT_255_2_778
10
21.2186357
20
85.5245673
40
5.6628977
50
78.2224868
51
79.6190915
0
ARC
8
DEFAULT_255_2_778
10
21.6838473
20
88.8020715
40
1.9311543
50
67.1323814
51
78.3148813
0
ARC
8
DEFAULT_255_2_778
10
21.801359
20
89.3535614
40
1.3672981
50
78.4565774
51
89.7552271
0
ARC
8
DEFAULT_255_2_778
10
21.7951366
20
89.784447
40
0.9364778
50
89.2619009
51
100.5950934
0
ARC
8
DEFAULT_255_2_778
10
21.6824182
20
90.3499169
40
0.3599879
50
99.5087086
51
124.406715
0
ARC
8
DEFAULT_255_2_778
10
21.5878565
20
90.496343
40
0.1858061
50
125.8630185
51
182.2986975
0
ARC
8
DEFAULT_255_2_778
10
21.5497296
20
90.4888047
40
0.1475296
50
179.9666559
51
180.100057
0
ARC
8
DEFAULT_255_2_778
10
21.566185
20
90.488793
40
0.163985
50
180.0859454
51
239.8819968
0
ARC
8
DEFAULT_255_2_778
10
21.9379018
20
91.0755619
40
0.8584853
50
238.072871
51
243.0442008
0
ARC
8
DEFAULT_255_2_778
10
23.4872034
20
94.0405845
40
4.2038426
50
242.5409111
51
244.1884903
0
ARC
8
DEFAULT_255_2_778
10
26.6463384
20
100.535196
40
11.4260319
50
244.1076525
51
244.9219574
0
ARC
8
DEFAULT_255_2_778
10
29.9038827
20
107.458855
40
19.0777309
50
244.8743531
51
245.066969
0
ARC
8
DEFAULT_255_2_778
10
19.8865272
20
85.8666274
40
4.7250654
50
62.0340028
51
65.293009
0
ARC
8
DEFAULT_255_2_778
10
20.9507744
20
87.8615758
40
2.464003
50
57.1127289
51
62.13736
0
ARC
8
DEFAULT_255_2_778
10
21.7037139
20
89.0152906
40
1.0863604
50
48.3695509
51
57.4197129
0
ARC
8
DEFAULT_255_2_778
10
22.0286268
20
89.3920419
40
0.5889589
50
44.472493
51
47.6467012
0
ARC
8
DEFAULT_255_2_778
10
21.9979457
20
89.3749032
40
0.6229283
50
1.2061613
51
43.6203607
0
ARC
8
DEFAULT_255_2_778
10
21.7312413
20
89.3424903
40
0.890659
50
359.9779196
51
2.9299178
0
ARC
8
DEFAULT_255_2_778
10
21.8802547
20
89.3273837
40
0.7417924
50
333.172934
51
1.140392
0
ARC
8
DEFAULT_255_2_778
10
21.9146167
20
89.3320736
40
0.7135172
50
300.9808035
51
331.5913995
0
ARC
8
DEFAULT_255_2_778
10
21.7182603
20
89.6419862
40
1.0803281
50
281.9040909
51
301.4483918
0
ARC
8
DEFAULT_255_2_778
10
21.5848425
20
90.2405518
40
1.6935565
50
270.5796874
51
282.1436175
0
ARC
8
DEFAULT_255_2_778
10
21.5636722
20
90.7354735
40
2.1887267
50
269.9959074
51
271.0027751
0
LINE
8
DEFAULT_255_2_778
10
21.5635158
20
88.5467468
11
21.5625002
21
88.546747
0
ARC
8
DEFAULT_255_2_778
10
21.5700221
20
91.7355174
40
3.1887792
50
256.2556596
51
269.8648469
0
LINE
8
DEFAULT_255_2_778
10
6.7958002
20
88.637547
11
6.7958002
21
89.132247
0
LINE
8
DEFAULT_255_2_778
10
8.4164002
20
91.055247
11
8.4164002
21
90.579047
0
LINE
8
DEFAULT_255_2_778
10
6.7940002
20
88.635947
11
6.7958002
21
88.637547
0
LINE
8
DEFAULT_255_2_778
10
8.9866002
20
91.104747
11
9.6629002
21
91.104747
0
LINE
8
DEFAULT_255_2_778
10
9.6629002
20
91.104747
11
9.6629002
21
88.597347
0
LINE
8
DEFAULT_255_2_778
10
9.6629002
20
88.597347
11
8.9866002
21
88.597347
0
LINE
8
DEFAULT_255_2_778
10
8.9866002
20
88.597347
11
8.9866002
21
91.104747
0
LINE
8
DEFAULT_255_2_778
10
10.2809002
20
88.597347
11
10.2809002
21
91.104747
0
LINE
8
DEFAULT_255_2_778
10
10.2809002
20
91.104747
11
12.0132002
21
91.104747
0
LINE
8
DEFAULT_255_2_778
10
12.0132002
20
91.104747
11
12.0132002
21
90.651047
0
LINE
8
DEFAULT_255_2_778
10
12.0132002
20
90.651047
11
10.9321002
21
90.651047
0
LINE
8
DEFAULT_255_2_778
10
10.9321002
20
90.651047
11
10.9321002
21
90.084747
0
LINE
8
DEFAULT_255_2_778
10
10.9321002
20
90.084747
11
11.8735002
21
90.084747
0
LINE
8
DEFAULT_255_2_778
10
11.8735002
20
90.084747
11
11.8735002
21
89.671247
0
LINE
8
DEFAULT_255_2_778
10
11.8735002
20
89.671247
11
10.9321002
21
89.671247
0
LINE
8
DEFAULT_255_2_778
10
10.9321002
20
89.671247
11
10.9321002
21
89.075947
0
LINE
8
DEFAULT_255_2_778
10
10.9321002
20
89.075947
11
12.0412002
21
89.075947
0
LINE
8
DEFAULT_255_2_778
10
12.0412002
20
89.075947
11
12.0412002
21
88.595747
0
LINE
8
DEFAULT_255_2_778
10
12.0412002
20
88.595747
11
10.2809002
21
88.597347
0
LINE
8
DEFAULT_255_2_778
10
12.4817002
20
88.597347
11
12.4817002
21
91.104747
0
LINE
8
DEFAULT_255_2_778
10
12.4817002
20
91.104747
11
13.3575002
21
91.104747
0
LINE
8
DEFAULT_255_2_778
10
13.3575002
20
91.104747
11
13.9671002
21
89.502447
0
LINE
8
DEFAULT_255_2_778
10
13.9671002
20
89.502447
11
14.5897002
21
91.104747
0
LINE
8
DEFAULT_255_2_778
10
14.5897002
20
91.104747
11
15.4215002
21
91.104747
0
LINE
8
DEFAULT_255_2_778
10
15.4215002
20
91.104747
11
15.4215002
21
88.597347
0
LINE
8
DEFAULT_255_2_778
10
15.4215002
20
88.597347
11
14.7812002
21
88.597347
0
LINE
8
DEFAULT_255_2_778
10
14.7812002
20
88.597347
11
14.7812002
21
90.373147
0
LINE
8
DEFAULT_255_2_778
10
14.7812002
20
90.373147
11
14.0724002
21
88.572947
0
LINE
8
DEFAULT_255_2_778
10
14.0724002
20
88.572947
11
13.6515002
21
88.572947
0
LINE
8
DEFAULT_255_2_778
10
13.6515002
20
88.572947
11
12.9559002
21
90.373147
0
LINE
8
DEFAULT_255_2_778
10
12.9559002
20
90.373147
11
12.9559002
21
88.597047
0
LINE
8
DEFAULT_255_2_778
10
12.9559002
20
88.597047
11
12.4817002
21
88.597347
0
LINE
8
DEFAULT_255_2_778
10
16.0409002
20
88.597347
11
16.0409002
21
91.104747
0
LINE
8
DEFAULT_255_2_778
10
16.0409002
20
91.104747
11
17.7731002
21
91.104747
0
LINE
8
DEFAULT_255_2_778
10
17.7731002
20
91.104747
11
17.7731002
21
90.651047
0
LINE
8
DEFAULT_255_2_778
10
17.7731002
20
90.651047
11
16.6921002
21
90.651047
0
LINE
8
DEFAULT_255_2_778
10
16.6921002
20
90.651047
11
16.6921002
21
90.084747
0
LINE
8
DEFAULT_255_2_778
10
16.6921002
20
90.084747
11
17.6334002
21
90.084747
0
LINE
8
DEFAULT_255_2_778
10
17.6334002
20
90.084747
11
17.6334002
21
89.671247
0
LINE
8
DEFAULT_255_2_778
10
17.6334002
20
89.671247
11
16.6921002
21
89.671247
0
LINE
8
DEFAULT_255_2_778
10
16.6921002
20
89.671247
11
16.6921002
21
89.075947
0
LINE
8
DEFAULT_255_2_778
10
16.6921002
20
89.075947
11
17.8030002
21
89.075947
0
LINE
8
DEFAULT_255_2_778
10
17.8030002
20
89.075947
11
17.8030002
21
88.595747
0
LINE
8
DEFAULT_255_2_778
10
17.8030002
20
88.595747
11
16.0409002
21
88.597347
0
LINE
8
DEFAULT_255_2_778
10
18.2454002
20
88.597347
11
18.2454002
21
91.104747
0
LINE
8
DEFAULT_255_2_778
10
18.2454002
20
91.104747
11
19.0283002
21
91.104747
0
LINE
8
DEFAULT_255_2_778
10
19.0283002
20
91.104747
11
19.8586002
21
89.425947
0
LINE
8
DEFAULT_255_2_778
10
19.8586002
20
89.425947
11
19.8586002
21
91.104747
0
LINE
8
DEFAULT_255_2_778
10
19.8586002
20
91.104747
11
20.3343002
21
91.104747
0
LINE
8
DEFAULT_255_2_778
10
20.3343002
20
91.104747
11
20.3343002
21
88.597347
0
LINE
8
DEFAULT_255_2_778
10
20.3343002
20
88.597347
11
19.5739002
21
88.597347
0
LINE
8
DEFAULT_255_2_778
10
19.5739002
20
88.597347
11
18.7214002
21
90.298547
0
LINE
8
DEFAULT_255_2_778
10
18.7214002
20
90.298547
11
18.7214002
21
88.597347
0
LINE
8
DEFAULT_255_2_778
10
18.7214002
20
88.597347
11
18.2454002
21
88.597347
0
LINE
8
DEFAULT_255_2_778
10
20.8143002
20
88.637747
11
20.8143002
21
89.132547
0
LINE
8
DEFAULT_255_2_778
10
22.3745002
20
91.068247
11
22.4343002
21
91.057647
0
LINE
8
DEFAULT_255_2_778
10
22.4343002
20
91.057647
11
22.4343002
21
90.581447
0
LINE
8
DEFAULT_255_2_778
10
20.8124002
20
88.638047
11
20.8143002
21
88.637747
0
LINE
8
DEFAULT_255_1_234
10
6.4629023
20
86.8309849
11
6.3078897
21
86.8309849
0
LINE
8
DEFAULT_255_1_234
10
5.6155539
20
86.3386394
11
5.7705665
21
86.3386394
0
ARC
8
DEFAULT_255_1_234
10
6.373771
20
87.7256768
40
1.252368
50
248.9199003
51
254.1439814
0
ARC
8
DEFAULT_255_1_234
10
6.2057205
20
87.2930234
40
0.788226
50
241.633709
51
249.0064503
0
ARC
8
DEFAULT_255_1_234
10
6.05286
20
87.0129317
40
0.4691427
50
230.498225
51
241.8087113
0
ARC
8
DEFAULT_255_1_234
10
5.9744174
20
86.9129906
40
0.3421437
50
227.4064532
51
229.9881192
0
ARC
8
DEFAULT_255_1_234
10
5.9256694
20
86.8654088
40
0.2741476
50
200.6781896
51
228.1763934
0
ARC
8
DEFAULT_255_1_234
10
5.9329005
20
86.8639077
40
0.2804109
50
179.5061581
51
199.8694617
0
ARC
8
DEFAULT_255_1_234
10
5.9319757
20
86.871321
40
0.2795204
50
132.4834203
51
181.0242172
0
ARC
8
DEFAULT_255_1_234
10
5.9915339
20
86.8150704
40
0.3612768
50
129.2532479
51
133.4242687
0
ARC
8
DEFAULT_255_1_234
10
6.0061789
20
86.7930965
40
0.3875675
50
101.98776
51
128.8742646
0
ARC
8
DEFAULT_255_1_234
10
6.0460399
20
86.6209741
40
0.5642249
50
89.5906553
51
102.3169264
0
ARC
8
DEFAULT_255_1_234
10
6.0530891
20
86.6528148
40
0.5323783
50
77.2360837
51
90.3248275
0
ARC
8
DEFAULT_255_1_234
10
6.0737971
20
86.74954
40
0.4334697
50
63.837784
51
77.0809408
0
ARC
8
DEFAULT_255_1_234
10
6.1015732
20
86.8012911
40
0.3747796
50
45.9864267
51
64.1607727
0
ARC
8
DEFAULT_255_1_234
10
6.1276614
20
86.8310866
40
0.3352302
50
32.2747395
51
45.6547121
0
ARC
8
DEFAULT_255_1_234
10
6.1343054
20
86.832988
40
0.328603
50
359.6507365
51
32.6130309
0
ARC
8
DEFAULT_255_1_234
10
6.040015
20
86.833466
40
0.2678863
50
359.469343
51
14.9832209
0
ARC
8
DEFAULT_255_1_234
10
6.1105212
20
86.8523539
40
0.1948938
50
14.9781179
51
48.2004265
0
ARC
8
DEFAULT_255_1_234
10
6.0940856
20
86.8316983
40
0.2212521
50
48.5927837
51
74.1241538
0
ARC
8
DEFAULT_255_1_234
10
6.0607346
20
86.7216248
40
0.3362561
50
73.7888341
51
86.6652678
0
ARC
8
DEFAULT_255_1_234
10
6.0504911
20
86.6008881
40
0.4573953
50
86.2640471
51
90.0526343
0
ARC
8
DEFAULT_255_1_234
10
6.0476624
20
86.6404192
40
0.4178709
50
89.6697524
51
99.2309573
0
ARC
8
DEFAULT_255_1_234
10
6.0234075
20
86.7848964
40
0.2713749
50
99.069534
51
113.7658566
0
ARC
8
DEFAULT_255_1_234
10
5.9960266
20
86.8494677
40
0.2012469
50
114.0401004
51
127.9850673
0
ARC
8
DEFAULT_255_1_234
10
5.971983
20
86.879073
40
0.1631167
50
127.7287463
51
176.7105154
0
ARC
8
DEFAULT_255_1_234
10
6.0398547
20
86.8689693
40
0.2315392
50
175.1779447
51
180.0581938
0
ARC
8
DEFAULT_255_1_234
10
5.9555394
20
86.8677428
40
0.1472271
50
179.6142195
51
228.1246017
0
ARC
8
DEFAULT_255_1_234
10
5.9997063
20
86.9086308
40
0.2072299
50
226.5779593
51
230.8800004
0
ARC
8
DEFAULT_255_1_234
10
6.0468141
20
86.9711636
40
0.2854818
50
231.4635071
51
241.9260842
0
ARC
8
DEFAULT_255_1_234
10
6.1665319
20
87.19148
40
0.53622
50
241.7178533
51
248.3259551
0
ARC
8
DEFAULT_255_1_234
10
6.3050691
20
87.5347064
40
0.9063478
50
248.2007737
51
252.4528373
0
ARC
8
DEFAULT_255_1_234
10
6.4254416
20
87.9068441
40
1.2974635
50
252.3391078
51
254.3469452
0
ARC
8
DEFAULT_255_1_234
10
5.6712119
20
85.2091148
40
1.5037162
50
71.0197183
51
74.4087047
0
ARC
8
DEFAULT_255_1_234
10
5.8406804
20
85.6983111
40
0.9859993
50
66.1847285
51
71.086374
0
ARC
8
DEFAULT_255_1_234
10
5.9963116
20
86.04872
40
0.6025855
50
59.3536294
51
66.2691831
0
ARC
8
DEFAULT_255_1_234
10
6.0851769
20
86.1990609
40
0.4279449
50
49.1020879
51
59.3293958
0
ARC
8
DEFAULT_255_1_234
10
6.1670509
20
86.2923834
40
0.3038015
50
32.7919921
51
49.2505539
0
ARC
8
DEFAULT_255_1_234
10
6.1991599
20
86.3152191
40
0.264448
50
31.1181161
51
32.4005348
0
ARC
8
DEFAULT_255_1_234
10
6.1903136
20
86.3116779
40
0.2738556
50
8.1116974
51
30.7958831
0
ARC
8
DEFAULT_255_1_234
10
6.1092804
20
86.2978753
40
0.3560327
50
359.8389159
51
8.4706516
0
ARC
8
DEFAULT_255_1_234
10
6.1718596
20
86.2930137
40
0.2934776
50
337.4731098
51
0.7537279
0
ARC
8
DEFAULT_255_1_234
10
6.1897291
20
86.2910387
40
0.2762607
50
307.5917067
51
336.4315538
0
ARC
8
DEFAULT_255_1_234
10
6.1437119
20
86.3423102
40
0.3449979
50
307.6551545
51
308.4529766
0
ARC
8
DEFAULT_255_1_234
10
6.1206838
20
86.377825
40
0.3871988
50
284.3734338
51
307.1424381
0
ARC
8
DEFAULT_255_1_234
10
6.0711668
20
86.5599932
40
0.5759636
50
272.4382747
51
284.646547
0
ARC
8
DEFAULT_255_1_234
10
6.0584876
20
86.7399893
40
0.7563528
50
269.9708387
51
272.8178037
0
ARC
8
DEFAULT_255_1_234
10
6.0541916
20
86.5361716
40
0.5525489
50
248.2707594
51
270.4055579
0
ARC
8
DEFAULT_255_1_234
10
6.0487657
20
86.5171192
40
0.5328452
50
246.1383403
51
248.0542782
0
ARC
8
DEFAULT_255_1_234
10
6.0069036
20
86.4291843
40
0.4355005
50
233.1670131
51
246.4950969
0
ARC
8
DEFAULT_255_1_234
10
5.9514941
20
86.3543812
40
0.3424126
50
215.3403242
51
233.0843104
0
ARC
8
DEFAULT_255_1_234
10
5.9242372
20
86.3345549
40
0.3087104
50
179.2419209
51
215.2648451
0
ARC
8
DEFAULT_255_1_234
10
6.0009966
20
86.3359666
40
0.2304457
50
179.335461
51
199.1045811
0
ARC
8
DEFAULT_255_1_234
10
5.9677643
20
86.3272766
40
0.1962176
50
199.8828939
51
232.7063202
0
ARC
8
DEFAULT_255_1_234
10
6.0149911
20
86.3866788
40
0.2720938
50
232.3738199
51
255.5136649
0
ARC
8
DEFAULT_255_1_234
10
6.0490778
20
86.5110835
40
0.4010747
50
255.2446292
51
267.5320849
0
ARC
8
DEFAULT_255_1_234
10
6.0578401
20
86.6343702
40
0.5246356
50
267.1557994
51
270.0286766
0
ARC
8
DEFAULT_255_1_234
10
6.0606173
20
86.589995
40
0.4802668
50
269.7000017
51
278.1660162
0
ARC
8
DEFAULT_255_1_234
10
6.0862178
20
86.4169515
40
0.3053425
50
278.0231263
51
290.625471
0
ARC
8
DEFAULT_255_1_234
10
6.1209865
20
86.3242025
40
0.206291
50
290.6619762
51
307.0370976
0
ARC
8
DEFAULT_255_1_234
10
6.1510254
20
86.2873504
40
0.1587906
50
306.3943566
51
355.3030547
0
ARC
8
DEFAULT_255_1_234
10
6.0998186
20
86.2950113
40
0.2104809
50
354.3660432
51
0.0698737
0
ARC
8
DEFAULT_255_1_234
10
6.1140531
20
86.2972617
40
0.1962563
50
359.417946
51
16.1971788
0
ARC
8
DEFAULT_255_1_234
10
6.1595841
20
86.3097418
40
0.149053
50
16.4723299
51
52.6262157
0
ARC
8
DEFAULT_255_1_234
10
6.0774895
20
86.2013433
40
0.2850296
50
52.7386432
51
62.4979148
0
ARC
8
DEFAULT_255_1_234
10
5.9389972
20
85.9407283
40
0.5801521
50
62.2515216
51
68.1220564
0
ARC
8
DEFAULT_255_1_234
10
5.7669883
20
85.5179872
40
1.0365451
50
68.0062803
51
71.8053402
0
ARC
8
DEFAULT_255_1_234
10
5.5874255
20
84.9794758
40
1.6042013
50
71.7183119
51
73.9258742
0
LINE
8
DEFAULT_255_1_234
10
6.8283464
20
87.1691211
11
6.8283464
21
85.9997
0
LINE
8
DEFAULT_255_1_234
10
6.8283464
20
85.9997
11
6.674137
21
85.9997
0
LINE
8
DEFAULT_255_1_234
10
6.674137
20
85.9997
11
6.674137
21
87.1691211
0
LINE
8
DEFAULT_255_1_234
10
6.674137
20
87.1691211
11
6.8283464
21
87.1691211
0
LINE
8
DEFAULT_255_1_234
10
7.1102604
20
87.1691211
11
7.3094475
21
87.1691211
0
LINE
8
DEFAULT_255_1_234
10
7.3094475
20
87.1691211
11
7.6917583
21
86.2149506
0
LINE
8
DEFAULT_255_1_234
10
7.6917583
20
86.2149506
11
8.074069
21
87.1691211
0
LINE
8
DEFAULT_255_1_234
10
8.074069
20
87.1691211
11
8.2740593
21
87.1691211
0
LINE
8
DEFAULT_255_1_234
10
8.2740593
20
87.1691211
11
8.2740593
21
85.9997
0
LINE
8
DEFAULT_255_1_234
10
8.2740593
20
85.9997
11
8.1198499
21
85.9997
0
LINE
8
DEFAULT_255_1_234
10
8.1198499
20
85.9997
11
8.1198499
21
86.4550996
0
LINE
8
DEFAULT_255_1_234
10
8.1198499
20
86.4550996
11
8.134307
21
86.9466419
0
LINE
8
DEFAULT_255_1_234
10
8.134307
20
86.9466419
11
7.7503899
21
85.9997
0
LINE
8
DEFAULT_255_1_234
10
7.7503899
20
85.9997
11
7.6323234
21
85.9997
0
LINE
8
DEFAULT_255_1_234
10
7.6323234
20
85.9997
11
7.2492095
21
86.9442324
0
LINE
8
DEFAULT_255_1_234
10
7.2492095
20
86.9442324
11
7.2644698
21
86.4550996
0
LINE
8
DEFAULT_255_1_234
10
7.2644698
20
86.4550996
11
7.2644698
21
85.9997
0
LINE
8
DEFAULT_255_1_234
10
7.2644698
20
85.9997
11
7.1102604
21
85.9997
0
LINE
8
DEFAULT_255_1_234
10
7.1102604
20
85.9997
11
7.1102604
21
87.1691211
0
LINE
8
DEFAULT_255_1_234
10
9.3181853
20
85.9997
11
9.2065441
21
86.3049061
0
LINE
8
DEFAULT_255_1_234
10
9.2065441
20
86.3049061
11
8.7166081
21
86.3049061
0
LINE
8
DEFAULT_255_1_234
10
8.7166081
20
86.3049061
11
8.6065732
21
85.9997
0
LINE
8
DEFAULT_255_1_234
10
8.6065732
20
85.9997
11
8.4475448
21
85.9997
0
LINE
8
DEFAULT_255_1_234
10
8.4475448
20
85.9997
11
8.8941095
21
87.1691211
0
LINE
8
DEFAULT_255_1_234
10
8.8941095
20
87.1691211
11
9.0290427
21
87.1691211
0
LINE
8
DEFAULT_255_1_234
10
9.0290427
20
87.1691211
11
9.4764105
21
85.9997
0
LINE
8
DEFAULT_255_1_234
10
9.4764105
20
85.9997
11
9.3181853
21
85.9997
0
LINE
8
DEFAULT_255_1_234
10
8.9615761
20
86.9787689
11
8.7631921
21
86.4318075
0
LINE
8
DEFAULT_255_1_234
10
8.7631921
20
86.4318075
11
9.1607632
21
86.4318075
0
LINE
8
DEFAULT_255_1_234
10
9.1607632
20
86.4318075
11
8.9615761
21
86.9787689
0
LINE
8
DEFAULT_255_1_234
10
10.338216
20
87.1691211
11
10.338216
21
87.0422196
0
LINE
8
DEFAULT_255_1_234
10
10.338216
20
87.0422196
11
9.9623307
21
87.0422196
0
LINE
8
DEFAULT_255_1_234
10
9.9623307
20
87.0422196
11
9.9623307
21
85.9997
0
LINE
8
DEFAULT_255_1_234
10
9.9623307
20
85.9997
11
9.8089245
21
85.9997
0
LINE
8
DEFAULT_255_1_234
10
9.8089245
20
85.9997
11
9.8089245
21
87.0422196
0
LINE
8
DEFAULT_255_1_234
10
9.8089245
20
87.0422196
11
9.4338423
21
87.0422196
0
LINE
8
DEFAULT_255_1_234
10
9.4338423
20
87.0422196
11
9.4338423
21
87.1691211
0
LINE
8
DEFAULT_255_1_234
10
9.4338423
20
87.1691211
11
10.338216
21
87.1691211
0
LINE
8
DEFAULT_255_1_234
10
10.6771554
20
87.1691211
11
10.6771554
21
85.9997
0
LINE
8
DEFAULT_255_1_234
10
10.6771554
20
85.9997
11
10.522946
21
85.9997
0
LINE
8
DEFAULT_255_1_234
10
10.522946
20
85.9997
11
10.522946
21
87.1691211
0
LINE
8
DEFAULT_255_1_234
10
10.522946
20
87.1691211
11
10.6771554
21
87.1691211
0
LINE
8
DEFAULT_255_1_234
10
11.664256
20
86.3707663
11
11.8192686
21
86.3707663
0
LINE
8
DEFAULT_255_1_234
10
10.9189107
20
86.5297947
11
10.9189107
21
86.6422391
0
LINE
8
DEFAULT_255_1_234
10
11.8192686
20
86.7932357
11
11.664256
21
86.7932357
0
LINE
8
DEFAULT_255_1_234
10
11.0739232
20
86.6382232
11
11.0739232
21
86.5249757
0
ARC
8
DEFAULT_255_1_234
10
11.2712072
20
86.4304846
40
0.5513052
50
340.1774281
51
353.7814284
0
ARC
8
DEFAULT_255_1_234
10
11.4283425
20
86.3719582
40
0.3836379
50
311.4558989
51
340.4421614
0
ARC
8
DEFAULT_255_1_234
10
11.4250093
20
86.3830528
40
0.3941894
50
282.4333181
51
310.7513653
0
ARC
8
DEFAULT_255_1_234
10
11.3810832
20
86.5645679
40
0.5809175
50
269.9358511
51
282.809604
0
ARC
8
DEFAULT_255_1_234
10
11.3758899
20
86.7103212
40
0.7266847
50
270.0021091
51
270.3581957
0
ARC
8
DEFAULT_255_1_234
10
11.3706315
20
86.4502585
40
0.4666519
50
250.7884749
51
270.6489167
0
ARC
8
DEFAULT_255_1_234
10
11.353815
20
86.3865319
40
0.4009729
50
219.3627325
51
250.0611886
0
ARC
8
DEFAULT_255_1_234
10
11.4367361
20
86.4570042
40
0.5097822
50
193.5479632
51
219.5756669
0
ARC
8
DEFAULT_255_1_234
10
11.6738982
20
86.5185919
40
0.7547848
50
181.1218675
51
193.87563
0
ARC
8
DEFAULT_255_1_234
10
11.8809163
20
86.529658
40
0.9620055
50
179.9918545
51
181.5394234
0
ARC
8
DEFAULT_255_1_234
10
11.6958265
20
86.6459788
40
0.7769248
50
169.5837241
51
180.2757934
0
ARC
8
DEFAULT_255_1_234
10
11.5121203
20
86.6799229
40
0.590109
50
155.0365899
51
169.6003176
0
ARC
8
DEFAULT_255_1_234
10
11.3985667
20
86.7346677
40
0.4640625
50
136.783148
51
155.2472683
0
ARC
8
DEFAULT_255_1_234
10
11.3596144
20
86.7677562
40
0.4130255
50
121.7633186
51
136.428115
0
ARC
8
DEFAULT_255_1_234
10
11.3731106
20
86.7428227
40
0.4413323
50
95.6459699
51
121.5490577
0
ARC
8
DEFAULT_255_1_234
10
11.3888388
20
86.6319949
40
0.55319
50
89.924208
51
96.1377933
0
ARC
8
DEFAULT_255_1_234
10
11.3938821
20
86.6438542
40
0.5413475
50
76.6779277
51
90.4563316
0
ARC
8
DEFAULT_255_1_234
10
11.4332444
20
86.8029114
40
0.3775041
50
47.485847
51
76.9287264
0
ARC
8
DEFAULT_255_1_234
10
11.4185417
20
86.7929159
40
0.3948286
50
16.5424086
51
46.8933463
0
ARC
8
DEFAULT_255_1_234
10
11.2577574
20
86.7400861
40
0.564021
50
5.4072051
51
17.0365086
0
ARC
8
DEFAULT_255_1_234
10
11.1138591
20
86.7169679
40
0.5556559
50
7.8891745
51
15.9239216
0
ARC
8
DEFAULT_255_1_234
10
11.3125605
20
86.7746631
40
0.3487515
50
15.7653144
51
27.9410532
0
ARC
8
DEFAULT_255_1_234
10
11.4229822
20
86.833779
40
0.2235026
50
27.8166557
51
46.4008329
0
ARC
8
DEFAULT_255_1_234
10
11.4279465
20
86.8332082
40
0.2205286
50
47.4371857
51
75.0698205
0
ARC
8
DEFAULT_255_1_234
10
11.397086
20
86.7257765
40
0.3322915
50
74.7008593
51
87.8124495
0
ARC
8
DEFAULT_255_1_234
10
11.3897547
20
86.6201844
40
0.4380987
50
87.3814673
51
90.0240855
0
ARC
8
DEFAULT_255_1_234
10
11.3859091
20
86.7379291
40
0.3203749
50
89.3451631
51
108.5745436
0
ARC
8
DEFAULT_255_1_234
10
11.3722196
20
86.7892908
40
0.2673494
50
109.2998449
51
143.3037509
0
ARC
8
DEFAULT_255_1_234
10
11.4484268
20
86.7306881
40
0.3634757
50
143.0753173
51
163.1916937
0
ARC
8
DEFAULT_255_1_234
10
11.6435996
20
86.6690967
40
0.5681262
50
162.9373603
51
174.6208611
0
ARC
8
DEFAULT_255_1_234
10
11.9062038
20
86.640301
40
0.8322832
50
174.3419979
51
180.1430411
0
ARC
8
DEFAULT_255_1_234
10
11.8131194
20
86.5208698
40
0.7392076
50
179.6817502
51
189.150529
0
ARC
8
DEFAULT_255_1_234
10
11.5630443
20
86.479219
40
0.4856932
50
188.9910863
51
203.5773039
0
ARC
8
DEFAULT_255_1_234
10
11.4550775
20
86.4344211
40
0.3688271
50
203.9077269
51
215.1312379
0
ARC
8
DEFAULT_255_1_234
10
11.3627869
20
86.3628941
40
0.2522457
50
213.9071664
51
263.8849284
0
ARC
8
DEFAULT_255_1_234
10
11.3753198
20
86.4413518
40
0.3316174
50
263.1758525
51
270.1031083
0
ARC
8
DEFAULT_255_1_234
10
11.378529
20
86.5660365
40
0.4563091
50
269.6719807
51
279.0609165
0
ARC
8
DEFAULT_255_1_234
10
11.4052058
20
86.4047907
40
0.2928759
50
278.8750225
51
293.6346586
0
ARC
8
DEFAULT_255_1_234
10
11.4372266
20
86.32959
40
0.2111472
50
293.8553404
51
310.0518804
0
ARC
8
DEFAULT_255_1_234
10
11.437712
20
86.3233516
40
0.2060917
50
311.0646779
51
332.0108348
0
ARC
8
DEFAULT_255_1_234
10
11.3184847
20
86.3890978
40
0.3422352
50
331.6588543
51
343.2878891
0
ARC
8
DEFAULT_255_1_234
10
11.1122362
20
86.4524798
40
0.5580003
50
343.1446044
51
351.010618
0
ARC
8
DEFAULT_255_1_234
10
10.9581008
20
86.4805871
40
0.7146438
50
350.7157277
51
351.1602153
0
LINE
8
DEFAULT_255_1_234
10
13.0979213
20
86.6663343
11
13.0979213
21
86.540236
0
LINE
8
DEFAULT_255_1_234
10
13.0979213
20
86.540236
11
12.5911186
21
86.540236
0
LINE
8
DEFAULT_255_1_234
10
12.5911186
20
86.540236
11
12.5911186
21
86.1257983
0
LINE
8
DEFAULT_255_1_234
10
12.5911186
20
86.1257983
11
13.179845
21
86.1257983
0
LINE
8
DEFAULT_255_1_234
10
13.179845
20
86.1257983
11
13.179845
21
85.9997
0
LINE
8
DEFAULT_255_1_234
10
13.179845
20
85.9997
11
12.4369092
21
85.9997
0
LINE
8
DEFAULT_255_1_234
10
12.4369092
20
85.9997
11
12.4369092
21
87.1691211
0
LINE
8
DEFAULT_255_1_234
10
12.4369092
20
87.1691211
11
13.1718133
21
87.1691211
0
LINE
8
DEFAULT_255_1_234
10
13.1718133
20
87.1691211
11
13.1718133
21
87.0422196
0
LINE
8
DEFAULT_255_1_234
10
13.1718133
20
87.0422196
11
12.5911186
21
87.0422196
0
LINE
8
DEFAULT_255_1_234
10
12.5911186
20
87.0422196
11
12.5911186
21
86.6663343
0
LINE
8
DEFAULT_255_1_234
10
12.5911186
20
86.6663343
11
13.0979213
21
86.6663343
0
LINE
8
DEFAULT_255_1_234
10
14.1958599
20
87.1691211
11
14.1958599
21
87.0422196
0
LINE
8
DEFAULT_255_1_234
10
14.1958599
20
87.0422196
11
13.8199746
21
87.0422196
0
LINE
8
DEFAULT_255_1_234
10
13.8199746
20
87.0422196
11
13.8199746
21
85.9997
0
LINE
8
DEFAULT_255_1_234
10
13.8199746
20
85.9997
11
13.6665684
21
85.9997
0
LINE
8
DEFAULT_255_1_234
10
13.6665684
20
85.9997
11
13.6665684
21
87.0422196
0
LINE
8
DEFAULT_255_1_234
10
13.6665684
20
87.0422196
11
13.2914862
21
87.0422196
0
LINE
8
DEFAULT_255_1_234
10
13.2914862
20
87.0422196
11
13.2914862
21
87.1691211
0
LINE
8
DEFAULT_255_1_234
10
13.2914862
20
87.1691211
11
14.1958599
21
87.1691211
0
LINE
8
DEFAULT_255_1_234
10
15.0970209
20
86.1209792
11
15.0970209
21
85.9997
0
LINE
8
DEFAULT_255_1_234
10
15.0970209
20
85.9997
11
14.3307931
21
85.9997
0
LINE
8
DEFAULT_255_1_234
10
14.3307931
20
85.9997
11
14.3307931
21
86.1065221
0
LINE
8
DEFAULT_255_1_234
10
14.3307931
20
86.1065221
11
14.7355927
21
86.5562995
0
LINE
8
DEFAULT_255_1_234
10
14.4568914
20
86.8245595
11
14.3083042
21
86.8245595
0
LINE
8
DEFAULT_255_1_234
10
14.8231387
20
86.4607218
11
14.5099009
21
86.1209792
0
LINE
8
DEFAULT_255_1_234
10
14.5099009
20
86.1209792
11
15.0970209
21
86.1209792
0
ARC
8
DEFAULT_255_1_234
10
13.3865761
20
87.7492527
40
1.8008286
50
318.5132453
51
320.7828378
0
ARC
8
DEFAULT_255_1_234
10
13.9152735
20
87.3189426
40
1.1191493
50
320.7372736
51
323.9737074
0
ARC
8
DEFAULT_255_1_234
10
14.3072591
20
87.0349361
40
0.6350923
50
323.8961724
51
328.6421089
0
ARC
8
DEFAULT_255_1_234
10
14.5119187
20
86.9087031
40
0.3946393
50
328.8299013
51
331.789948
0
ARC
8
DEFAULT_255_1_234
10
14.6116365
20
86.8572509
40
0.2824501
50
331.4255242
51
352.9364833
0
ARC
8
DEFAULT_255_1_234
10
14.6252866
20
86.8541976
40
0.2685315
50
353.2248685
51
0.0169286
0
ARC
8
DEFAULT_255_1_234
10
14.6462743
20
86.856495
40
0.2475536
50
359.4866256
51
15.9339782
0
ARC
8
DEFAULT_255_1_234
10
14.6969728
20
86.8701286
40
0.1950618
50
16.1714718
51
43.5284424
0
ARC
8
DEFAULT_255_1_234
10
14.7047037
20
86.8778573
40
0.184134
50
43.4415429
51
83.1661404
0
ARC
8
DEFAULT_255_1_234
10
14.6912955
20
86.8041771
40
0.258926
50
82.160215
51
90.1505798
0
ARC
8
DEFAULT_255_1_234
10
14.6881382
20
86.7504865
40
0.3126255
50
89.5460705
51
102.5418777
0
ARC
8
DEFAULT_255_1_234
10
14.6638468
20
86.8535665
40
0.2067346
50
102.1739365
51
129.2061916
0
ARC
8
DEFAULT_255_1_234
10
14.655954
20
86.8660094
40
0.1921118
50
129.7279328
51
135.7542026
0
ARC
8
DEFAULT_255_1_234
10
14.6681068
20
86.8563045
40
0.2075944
50
136.175737
51
166.3674722
0
ARC
8
DEFAULT_255_1_234
10
14.7687987
20
86.8293182
40
0.3118201
50
165.9092917
51
178.8683903
0
ARC
8
DEFAULT_255_1_234
10
14.8552848
20
86.8246179
40
0.3983935
50
178.438168
51
180.0083905
0
ARC
8
DEFAULT_255_1_234
10
14.715145
20
86.8285231
40
0.4068601
50
163.2878735
51
180.5581814
0
ARC
8
DEFAULT_255_1_234
10
14.6349712
20
86.850584
40
0.3237344
50
133.454115
51
162.9470031
0
ARC
8
DEFAULT_255_1_234
10
14.6528253
20
86.8316
40
0.349795
50
100.7869394
51
133.4384016
0
ARC
8
DEFAULT_255_1_234
10
14.6876024
20
86.6767319
40
0.5084616
50
89.6605301
51
101.3704185
0
ARC
8
DEFAULT_255_1_234
10
14.6942363
20
86.6828496
40
0.502348
50
78.2171172
51
90.4130393
0
ARC
8
DEFAULT_255_1_234
10
14.7297442
20
86.8452637
40
0.3361092
50
55.9268222
51
78.4888551
0
ARC
8
DEFAULT_255_1_234
10
14.7493882
20
86.8791324
40
0.2970617
50
47.9292255
51
55.4054003
0
ARC
8
DEFAULT_255_1_234
10
14.7595442
20
86.8894502
40
0.2825983
50
4.3347696
51
48.0560701
0
ARC
8
DEFAULT_255_1_234
10
14.6499836
20
86.8724601
40
0.393225
50
359.925209
51
5.5967654
0
ARC
8
DEFAULT_255_1_234
10
14.6928728
20
86.8780816
40
0.3503892
50
337.8914096
51
358.9967724
0
ARC
8
DEFAULT_255_1_234
10
14.421514
20
86.9827706
40
0.6412172
50
326.9135351
51
338.3505194
0
ARC
8
DEFAULT_255_1_234
10
14.0229444
20
87.2382284
40
1.1146189
50
319.6472867
51
327.095818
0
ARC
8
DEFAULT_255_1_234
10
13.6396447
20
87.5544
40
1.6114559
50
317.2586784
51
319.9046139
0
LINE
8
DEFAULT_255_1_234
10
15.9877407
20
86.6912327
11
15.9877407
21
86.4984709
0
LINE
8
DEFAULT_255_1_234
10
15.249624
20
86.4783916
11
15.249624
21
86.6767755
0
LINE
8
DEFAULT_255_1_234
10
15.8391536
20
86.4583123
11
15.8391536
21
86.7016739
0
LINE
8
DEFAULT_255_1_234
10
15.3982111
20
86.7129184
11
15.3982111
21
86.4751789
0
ARC
8
DEFAULT_255_1_234
10
14.7630297
20
86.4935805
40
1.2247208
50
353.8441951
51
0.2287902
0
ARC
8
DEFAULT_255_1_234
10
15.22698
20
86.4417806
40
0.7578929
50
344.4934747
51
353.9765454
0
ARC
8
DEFAULT_255_1_234
10
15.5262391
20
86.3566981
40
0.4467846
50
329.2803592
51
344.7472793
0
ARC
8
DEFAULT_255_1_234
10
15.6255216
20
86.3022018
40
0.3336173
50
324.9352394
51
328.6160465
0
ARC
8
DEFAULT_255_1_234
10
15.6632324
20
86.2758427
40
0.2876076
50
280.580143
51
324.9173126
0
ARC
8
DEFAULT_255_1_234
10
15.6231117
20
86.4429099
40
0.4592847
50
269.5977311
51
281.6734359
0
ARC
8
DEFAULT_255_1_234
10
15.6159022
20
86.4309173
40
0.4472986
50
256.6228859
51
270.51044
0
ARC
8
DEFAULT_255_1_234
10
15.5757
20
86.2760877
40
0.2873874
50
215.8618325
51
257.2788573
0
ARC
8
DEFAULT_255_1_234
10
15.6778032
20
86.3445977
40
0.4102928
50
197.9693508
51
215.2623606
0
ARC
8
DEFAULT_255_1_234
10
15.9263147
20
86.4284709
40
0.6725652
50
187.8816417
51
198.2346507
0
ARC
8
DEFAULT_255_1_234
10
16.3221356
20
86.4856079
40
1.0724845
50
180.8976217
51
188.0055519
0
ARC
8
DEFAULT_255_1_234
10
16.6021544
20
86.4959777
40
1.3526448
50
180.7449369
51
181.1510016
0
ARC
8
DEFAULT_255_1_234
10
16.4444273
20
86.6816042
40
1.1948131
50
173.7675579
51
180.231553
0
ARC
8
DEFAULT_255_1_234
10
15.992642
20
86.7326666
40
0.7401564
50
164.3058563
51
173.9002247
0
ARC
8
DEFAULT_255_1_234
10
15.7014488
20
86.8165656
40
0.4371288
50
148.7922025
51
164.568378
0
ARC
8
DEFAULT_255_1_234
10
15.6062941
20
86.8696929
40
0.3282386
50
144.5883898
51
148.1176286
0
ARC
8
DEFAULT_255_1_234
10
15.5719838
20
86.8936315
40
0.2864044
50
101.6440918
51
144.514236
0
ARC
8
DEFAULT_255_1_234
10
15.6144905
20
86.7247069
40
0.4604934
50
89.5284041
51
102.5819763
0
ARC
8
DEFAULT_255_1_234
10
15.6223993
20
86.7208018
40
0.464401
50
77.0437873
51
90.5081339
0
ARC
8
DEFAULT_255_1_234
10
15.6625995
20
86.8850615
40
0.2953195
50
48.2778575
51
77.4994676
0
ARC
8
DEFAULT_255_1_234
10
15.6698626
20
86.8979746
40
0.2808655
50
36.3142134
51
47.6305865
0
ARC
8
DEFAULT_255_1_234
10
15.5829933
20
86.8394515
40
0.3855453
50
18.2931786
51
35.6769206
0
ARC
8
DEFAULT_255_1_234
10
15.3286692
20
86.7521593
40
0.654423
50
8.024666
51
18.5605216
0
ARC
8
DEFAULT_255_1_234
10
14.9123612
20
86.6906792
40
1.0752407
50
1.1274072
51
8.1718305
0
ARC
8
DEFAULT_255_1_234
10
14.5887802
20
86.6779885
40
1.3990231
50
0.5424119
51
1.3863029
0
ARC
8
DEFAULT_255_1_234
10
14.770918
20
86.7052342
40
1.0682415
50
359.8090433
51
4.9407866
0
ARC
8
DEFAULT_255_1_234
10
15.1919194
20
86.7428113
40
0.6455691
50
4.8362157
51
12.2904523
0
ARC
8
DEFAULT_255_1_234
10
15.4674309
20
86.8041965
40
0.3633074
50
12.0805627
51
23.8173984
0
ARC
8
DEFAULT_255_1_234
10
15.5848014
20
86.8538919
40
0.2358723
50
24.2871213
51
31.3935614
0
ARC
8
DEFAULT_255_1_234
10
15.6372712
20
86.8882233
40
0.1732111
50
30.7407893
51
82.4657128
0
ARC
8
DEFAULT_255_1_234
10
15.6192846
20
86.7998691
40
0.263235
50
81.1060089
51
90.2184952
0
ARC
8
DEFAULT_255_1_234
10
15.6157145
20
86.8256924
40
0.2374236
50
89.3806855
51
105.6762551
0
ARC
8
DEFAULT_255_1_234
10
15.5973775
20
86.8923567
40
0.1682847
50
105.7981136
51
149.7388061
0
ARC
8
DEFAULT_255_1_234
10
15.7037854
20
86.828395
40
0.2924306
50
149.4208916
51
163.6286378
0
ARC
8
DEFAULT_255_1_234
10
15.9128742
20
86.764625
40
0.5110213
50
163.3763315
51
172.1410975
0
ARC
8
DEFAULT_255_1_234
10
16.2429461
20
86.7173518
40
0.8444586
50
172.0259487
51
178.0703232
0
ARC
8
DEFAULT_255_1_234
10
16.545955
20
86.7029906
40
1.1477868
50
177.8631668
51
179.5044149
0
ARC
8
DEFAULT_255_1_234
10
16.4386955
20
86.4715389
40
1.0404907
50
179.7995573
51
185.2460446
0
ARC
8
DEFAULT_255_1_234
10
16.0343994
20
86.4332513
40
0.6343885
50
185.1411642
51
193.0079639
0
ARC
8
DEFAULT_255_1_234
10
15.7700467
20
86.3707641
40
0.3627568
50
192.7897626
51
205.2507664
0
ARC
8
DEFAULT_255_1_234
10
15.6654014
20
86.3240415
40
0.2481908
50
205.8005384
51
211.2537509
0
ARC
8
DEFAULT_255_1_234
10
15.6130454
20
86.288958
40
0.1852521
50
210.3789793
51
238.4008143
0
ARC
8
DEFAULT_255_1_234
10
15.6110976
20
86.2936376
40
0.1882621
50
239.6520629
51
265.9793761
0
ARC
8
DEFAULT_255_1_234
10
15.6196176
20
86.3608427
40
0.2559272
50
265.1315437
51
270.060332
0
ARC
8
DEFAULT_255_1_234
10
15.6224955
20
86.3284534
40
0.2235528
50
269.3314664
51
287.2178029
0
ARC
8
DEFAULT_255_1_234
10
15.6362807
20
86.2781279
40
0.1714108
50
287.7958004
51
329.080874
0
ARC
8
DEFAULT_255_1_234
10
15.5405264
20
86.337893
40
0.2842745
50
328.6634704
51
343.3325132
0
ARC
8
DEFAULT_255_1_234
10
15.3232284
20
86.4055863
40
0.5118644
50
343.0499468
51
351.9393422
0
ARC
8
DEFAULT_255_1_234
10
14.9765584
20
86.4566949
40
0.8622784
50
351.8069023
51
357.7959224
0
ARC
8
DEFAULT_255_1_234
10
14.653014
20
86.4734721
40
1.1862365
50
357.5871873
51
359.2677531
0
LINE
8
DEFAULT_255_1_234
10
16.9113906
20
86.6912327
11
16.9113906
21
86.4984709
0
LINE
8
DEFAULT_255_1_234
10
16.1732739
20
86.4783916
11
16.1732739
21
86.6767755
0
LINE
8
DEFAULT_255_1_234
10
16.7628035
20
86.4583123
11
16.7628035
21
86.7016739
0
LINE
8
DEFAULT_255_1_234
10
16.321861
20
86.7129184
11
16.321861
21
86.4751789
0
ARC
8
DEFAULT_255_1_234
10
15.6866796
20
86.4935805
40
1.2247208
50
353.8441951
51
0.2287902
0
ARC
8
DEFAULT_255_1_234
10
16.1506299
20
86.4417806
40
0.7578929
50
344.4934747
51
353.9765454
0
ARC
8
DEFAULT_255_1_234
10
16.449889
20
86.3566981
40
0.4467846
50
329.2803592
51
344.7472793
0
ARC
8
DEFAULT_255_1_234
10
16.5491715
20
86.3022018
40
0.3336173
50
324.9352394
51
328.6160465
0
ARC
8
DEFAULT_255_1_234
10
16.5868823
20
86.2758427
40
0.2876076
50
280.580143
51
324.9173126
0
ARC
8
DEFAULT_255_1_234
10
16.5467616
20
86.4429099
40
0.4592847
50
269.5977311
51
281.6734359
0
ARC
8
DEFAULT_255_1_234
10
16.5395521
20
86.4309173
40
0.4472986
50
256.6228859
51
270.51044
0
ARC
8
DEFAULT_255_1_234
10
16.4993499
20
86.2760877
40
0.2873874
50
215.8618325
51
257.2788573
0
ARC
8
DEFAULT_255_1_234
10
16.6014531
20
86.3445977
40
0.4102928
50
197.9693508
51
215.2623606
0
ARC
8
DEFAULT_255_1_234
10
16.8499647
20
86.4284709
40
0.6725652
50
187.8816417
51
198.2346507
0
ARC
8
DEFAULT_255_1_234
10
17.2457855
20
86.4856079
40
1.0724845
50
180.8976217
51
188.0055519
0
ARC
8
DEFAULT_255_1_234
10
17.5258043
20
86.4959777
40
1.3526448
50
180.7449369
51
181.1510016
0
ARC
8
DEFAULT_255_1_234
10
17.3680772
20
86.6816042
40
1.1948131
50
173.7675579
51
180.231553
0
ARC
8
DEFAULT_255_1_234
10
16.9162919
20
86.7326666
40
0.7401564
50
164.3058563
51
173.9002247
0
ARC
8
DEFAULT_255_1_234
10
16.6250987
20
86.8165656
40
0.4371288
50
148.7922025
51
164.568378
0
ARC
8
DEFAULT_255_1_234
10
16.529944
20
86.8696929
40
0.3282386
50
144.5883898
51
148.1176286
0
ARC
8
DEFAULT_255_1_234
10
16.4956337
20
86.8936315
40
0.2864044
50
101.6440918
51
144.514236
0
ARC
8
DEFAULT_255_1_234
10
16.5381404
20
86.7247069
40
0.4604934
50
89.5284041
51
102.5819763
0
ARC
8
DEFAULT_255_1_234
10
16.5460492
20
86.7208018
40
0.464401
50
77.0437873
51
90.5081339
0
ARC
8
DEFAULT_255_1_234
10
16.5862494
20
86.8850615
40
0.2953195
50
48.2778575
51
77.4994676
0
ARC
8
DEFAULT_255_1_234
10
16.5935125
20
86.8979746
40
0.2808655
50
36.3142134
51
47.6305865
0
ARC
8
DEFAULT_255_1_234
10
16.5066432
20
86.8394515
40
0.3855453
50
18.2931786
51
35.6769206
0
ARC
8
DEFAULT_255_1_234
10
16.2523191
20
86.7521593
40
0.654423
50
8.024666
51
18.5605216
0
ARC
8
DEFAULT_255_1_234
10
15.8360111
20
86.6906792
40
1.0752407
50
1.1274072
51
8.1718305
0
ARC
8
DEFAULT_255_1_234
10
15.5124301
20
86.6779885
40
1.3990231
50
0.5424119
51
1.3863029
0
ARC
8
DEFAULT_255_1_234
10
15.6945679
20
86.7052342
40
1.0682415
50
359.8090433
51
4.9407866
0
ARC
8
DEFAULT_255_1_234
10
16.1155693
20
86.7428113
40
0.6455691
50
4.8362157
51
12.2904523
0
ARC
8
DEFAULT_255_1_234
10
16.3910808
20
86.8041965
40
0.3633074
50
12.0805627
51
23.8173984
0
ARC
8
DEFAULT_255_1_234
10
16.5084513
20
86.8538919
40
0.2358723
50
24.2871213
51
31.3935614
0
ARC
8
DEFAULT_255_1_234
10
16.5609211
20
86.8882233
40
0.1732111
50
30.7407893
51
82.4657128
0
ARC
8
DEFAULT_255_1_234
10
16.5429345
20
86.7998691
40
0.263235
50
81.1060089
51
90.2184952
0
ARC
8
DEFAULT_255_1_234
10
16.5393644
20
86.8256924
40
0.2374236
50
89.3806855
51
105.6762551
0
ARC
8
DEFAULT_255_1_234
10
16.5210274
20
86.8923567
40
0.1682847
50
105.7981136
51
149.7388061
0
ARC
8
DEFAULT_255_1_234
10
16.6274353
20
86.828395
40
0.2924306
50
149.4208916
51
163.6286378
0
ARC
8
DEFAULT_255_1_234
10
16.8365241
20
86.764625
40
0.5110213
50
163.3763315
51
172.1410975
0
ARC
8
DEFAULT_255_1_234
10
17.166596
20
86.7173518
40
0.8444586
50
172.0259487
51
178.0703232
0
ARC
8
DEFAULT_255_1_234
10
17.4696049
20
86.7029906
40
1.1477868
50
177.8631668
51
179.5044149
0
ARC
8
DEFAULT_255_1_234
10
17.3623454
20
86.4715389
40
1.0404907
50
179.7995573
51
185.2460446
0
ARC
8
DEFAULT_255_1_234
10
16.9580493
20
86.4332513
40
0.6343885
50
185.1411642
51
193.0079639
0
ARC
8
DEFAULT_255_1_234
10
16.6936966
20
86.3707641
40
0.3627568
50
192.7897626
51
205.2507664
0
ARC
8
DEFAULT_255_1_234
10
16.5890513
20
86.3240415
40
0.2481908
50
205.8005384
51
211.2537509
0
ARC
8
DEFAULT_255_1_234
10
16.5366953
20
86.288958
40
0.1852521
50
210.3789793
51
238.4008143
0
ARC
8
DEFAULT_255_1_234
10
16.5347475
20
86.2936376
40
0.1882621
50
239.6520629
51
265.9793761
0
ARC
8
DEFAULT_255_1_234
10
16.5432675
20
86.3608427
40
0.2559272
50
265.1315437
51
270.060332
0
ARC
8
DEFAULT_255_1_234
10
16.5461454
20
86.3284534
40
0.2235528
50
269.3314664
51
287.2178029
0
ARC
8
DEFAULT_255_1_234
10
16.5599306
20
86.2781279
40
0.1714108
50
287.7958004
51
329.080874
0
ARC
8
DEFAULT_255_1_234
10
16.4641763
20
86.337893
40
0.2842745
50
328.6634704
51
343.3325132
0
ARC
8
DEFAULT_255_1_234
10
16.2468783
20
86.4055863
40
0.5118644
50
343.0499468
51
351.9393422
0
ARC
8
DEFAULT_255_1_234
10
15.9002083
20
86.4566949
40
0.8622784
50
351.8069023
51
357.7959224
0
ARC
8
DEFAULT_255_1_234
10
15.5766639
20
86.4734721
40
1.1862365
50
357.5871873
51
359.2677531
0
LINE
8
DEFAULT_255_1_234
10
17.8013072
20
86.6663343
11
17.8013072
21
86.540236
0
LINE
8
DEFAULT_255_1_234
10
17.8013072
20
86.540236
11
17.2945045
21
86.540236
0
LINE
8
DEFAULT_255_1_234
10
17.2945045
20
86.540236
11
17.2945045
21
86.1257983
0
LINE
8
DEFAULT_255_1_234
10
17.2945045
20
86.1257983
11
17.883231
21
86.1257983
0
LINE
8
DEFAULT_255_1_234
10
17.883231
20
86.1257983
11
17.883231
21
85.9997
0
LINE
8
DEFAULT_255_1_234
10
17.883231
20
85.9997
11
17.1402952
21
85.9997
0
LINE
8
DEFAULT_255_1_234
10
17.1402952
20
85.9997
11
17.1402952
21
87.1691211
0
LINE
8
DEFAULT_255_1_234
10
17.1402952
20
87.1691211
11
17.8751992
21
87.1691211
0
LINE
8
DEFAULT_255_1_234
10
17.8751992
20
87.1691211
11
17.8751992
21
87.0422196
0
LINE
8
DEFAULT_255_1_234
10
17.8751992
20
87.0422196
11
17.2945045
21
87.0422196
0
LINE
8
DEFAULT_255_1_234
10
17.2945045
20
87.0422196
11
17.2945045
21
86.6663343
0
LINE
8
DEFAULT_255_1_234
10
17.2945045
20
86.6663343
11
17.8013072
21
86.6663343
0
LINE
8
DEFAULT_255_1_234
10
18.7803761
20
86.3707663
11
18.9353887
21
86.3707663
0
LINE
8
DEFAULT_255_1_234
10
18.0350308
20
86.5297947
11
18.0350308
21
86.6422391
0
LINE
8
DEFAULT_255_1_234
10
18.9353887
20
86.7932357
11
18.7803761
21
86.7932357
0
LINE
8
DEFAULT_255_1_234
10
18.1900434
20
86.6382232
11
18.1900434
21
86.5249757
0
ARC
8
DEFAULT_255_1_234
10
18.3873274
20
86.4304846
40
0.5513052
50
340.1774281
51
353.7814284
0
ARC
8
DEFAULT_255_1_234
10
18.5444626
20
86.3719582
40
0.3836379
50
311.4558989
51
340.4421614
0
ARC
8
DEFAULT_255_1_234
10
18.5411294
20
86.3830528
40
0.3941894
50
282.4333181
51
310.7513653
0
ARC
8
DEFAULT_255_1_234
10
18.4972034
20
86.5645679
40
0.5809175
50
269.9358511
51
282.809604
0
ARC
8
DEFAULT_255_1_234
10
18.49201
20
86.7103212
40
0.7266847
50
270.0021091
51
270.3581957
0
ARC
8
DEFAULT_255_1_234
10
18.4867517
20
86.4502585
40
0.4666519
50
250.7884749
51
270.6489167
0
ARC
8
DEFAULT_255_1_234
10
18.4699351
20
86.3865319
40
0.4009729
50
219.3627325
51
250.0611886
0
ARC
8
DEFAULT_255_1_234
10
18.5528562
20
86.4570042
40
0.5097822
50
193.5479632
51
219.5756669
0
ARC
8
DEFAULT_255_1_234
10
18.7900183
20
86.5185919
40
0.7547848
50
181.1218675
51
193.87563
0
ARC
8
DEFAULT_255_1_234
10
18.9970364
20
86.529658
40
0.9620055
50
179.9918545
51
181.5394234
0
ARC
8
DEFAULT_255_1_234
10
18.8119466
20
86.6459788
40
0.7769248
50
169.5837241
51
180.2757934
0
ARC
8
DEFAULT_255_1_234
10
18.6282404
20
86.6799229
40
0.590109
50
155.0365899
51
169.6003176
0
ARC
8
DEFAULT_255_1_234
10
18.5146868
20
86.7346677
40
0.4640625
50
136.783148
51
155.2472683
0
ARC
8
DEFAULT_255_1_234
10
18.4757345
20
86.7677562
40
0.4130255
50
121.7633186
51
136.428115
0
ARC
8
DEFAULT_255_1_234
10
18.4892307
20
86.7428227
40
0.4413323
50
95.6459699
51
121.5490577
0
ARC
8
DEFAULT_255_1_234
10
18.5049589
20
86.6319949
40
0.55319
50
89.924208
51
96.1377933
0
ARC
8
DEFAULT_255_1_234
10
18.5100022
20
86.6438542
40
0.5413475
50
76.6779277
51
90.4563316
0
ARC
8
DEFAULT_255_1_234
10
18.5493645
20
86.8029114
40
0.3775041
50
47.485847
51
76.9287264
0
ARC
8
DEFAULT_255_1_234
10
18.5346618
20
86.7929159
40
0.3948286
50
16.5424086
51
46.8933463
0
ARC
8
DEFAULT_255_1_234
10
18.3738775
20
86.7400861
40
0.564021
50
5.4072051
51
17.0365086
0
ARC
8
DEFAULT_255_1_234
10
18.2299792
20
86.7169679
40
0.5556559
50
7.8891745
51
15.9239216
0
ARC
8
DEFAULT_255_1_234
10
18.4286806
20
86.7746631
40
0.3487515
50
15.7653144
51
27.9410532
0
ARC
8
DEFAULT_255_1_234
10
18.5391024
20
86.833779
40
0.2235026
50
27.8166557
51
46.4008329
0
ARC
8
DEFAULT_255_1_234
10
18.5440666
20
86.8332082
40
0.2205286
50
47.4371857
51
75.0698205
0
ARC
8
DEFAULT_255_1_234
10
18.5132061
20
86.7257765
40
0.3322915
50
74.7008593
51
87.8124495
0
ARC
8
DEFAULT_255_1_234
10
18.5058748
20
86.6201844
40
0.4380987
50
87.3814673
51
90.0240855
0
ARC
8
DEFAULT_255_1_234
10
18.5020292
20
86.7379291
40
0.3203749
50
89.3451631
51
108.5745436
0
ARC
8
DEFAULT_255_1_234
10
18.4883397
20
86.7892908
40
0.2673494
50
109.2998449
51
143.3037509
0
ARC
8
DEFAULT_255_1_234
10
18.564547
20
86.7306881
40
0.3634757
50
143.0753173
51
163.1916937
0
ARC
8
DEFAULT_255_1_234
10
18.7597197
20
86.6690967
40
0.5681262
50
162.9373603
51
174.6208611
0
ARC
8
DEFAULT_255_1_234
10
19.0223239
20
86.640301
40
0.8322832
50
174.3419979
51
180.1430411
0
ARC
8
DEFAULT_255_1_234
10
18.9292396
20
86.5208698
40
0.7392076
50
179.6817502
51
189.150529
0
ARC
8
DEFAULT_255_1_234
10
18.6791644
20
86.479219
40
0.4856932
50
188.9910863
51
203.5773039
0
ARC
8
DEFAULT_255_1_234
10
18.5711977
20
86.4344211
40
0.3688271
50
203.9077269
51
215.1312379
0
ARC
8
DEFAULT_255_1_234
10
18.478907
20
86.3628941
40
0.2522457
50
213.9071664
51
263.8849284
0
ARC
8
DEFAULT_255_1_234
10
18.4914399
20
86.4413518
40
0.3316174
50
263.1758525
51
270.1031083
0
ARC
8
DEFAULT_255_1_234
10
18.4946491
20
86.5660365
40
0.4563091
50
269.6719807
51
279.0609165
0
ARC
8
DEFAULT_255_1_234
10
18.5213259
20
86.4047907
40
0.2928759
50
278.8750225
51
293.6346586
0
ARC
8
DEFAULT_255_1_234
10
18.5533467
20
86.32959
40
0.2111472
50
293.8553404
51
310.0518804
0
ARC
8
DEFAULT_255_1_234
10
18.5538321
20
86.3233516
40
0.2060917
50
311.0646779
51
332.0108348
0
ARC
8
DEFAULT_255_1_234
10
18.4346048
20
86.3890978
40
0.3422352
50
331.6588543
51
343.2878891
0
ARC
8
DEFAULT_255_1_234
10
18.2283563
20
86.4524798
40
0.5580003
50
343.1446044
51
351.010618
0
ARC
8
DEFAULT_255_1_234
10
18.0742209
20
86.4805871
40
0.7146438
50
350.7157277
51
351.1602153
0
LINE
8
DEFAULT_255_1_234
10
20.0453749
20
86.6205534
11
20.0453749
21
86.5466614
0
LINE
8
DEFAULT_255_1_234
10
19.1048583
20
86.5362201
11
19.1048583
21
86.6205534
0
LINE
8
DEFAULT_255_1_234
10
19.8919687
20
86.5354169
11
19.8919687
21
86.6221597
0
LINE
8
DEFAULT_255_1_234
10
19.2582646
20
86.632601
11
19.2582646
21
86.5466614
0
ARC
8
DEFAULT_255_1_234
10
19.1811776
20
86.5427015
40
0.8642064
50
350.487711
51
0.2625388
0
ARC
8
DEFAULT_255_1_234
10
19.4105017
20
86.5032578
40
0.631518
50
336.0277639
51
350.5787438
0
ARC
8
DEFAULT_255_1_234
10
19.544984
20
86.4424892
40
0.4839466
50
319.8877444
51
336.1328423
0
ARC
8
DEFAULT_255_1_234
10
19.6052481
20
86.394258
40
0.4067874
50
302.4806467
51
319.6143626
0
ARC
8
DEFAULT_255_1_234
10
19.5937491
20
86.4164202
40
0.4316636
50
275.8195682
51
302.1884709
0
ARC
8
DEFAULT_255_1_234
10
19.5771125
20
86.5306665
40
0.5470306
50
269.9171439
51
276.3397983
0
ARC
8
DEFAULT_255_1_234
10
19.5726334
20
86.4620681
40
0.4784458
50
252.5219675
51
270.4416499
0
ARC
8
DEFAULT_255_1_234
10
19.5582593
20
86.4081592
40
0.422716
50
237.5352116
51
252.1857531
0
ARC
8
DEFAULT_255_1_234
10
19.5671789
20
86.4195363
40
0.4371052
50
209.063312
51
237.3492538
0
ARC
8
DEFAULT_255_1_234
10
19.6541637
20
86.4741685
40
0.5397041
50
205.1183774
51
209.6470015
0
ARC
8
DEFAULT_255_1_234
10
19.7338674
20
86.507983
40
0.6262326
50
188.7215458
51
204.8240747
0
ARC
8
DEFAULT_255_1_234
10
19.9336202
20
86.5416067
40
0.8287794
50
180.3723947
51
188.9252049
0
ARC
8
DEFAULT_255_1_234
10
19.9308954
20
86.6245402
40
0.8260467
50
169.5253763
51
180.2765336
0
ARC
8
DEFAULT_255_1_234
10
19.7406403
20
86.6595309
40
0.6326007
50
155.8315255
51
169.5089989
0
ARC
8
DEFAULT_255_1_234
10
19.6125904
20
86.7189348
40
0.4914567
50
139.6258461
51
156.0379525
0
ARC
8
DEFAULT_255_1_234
10
19.5536237
20
86.7663799
40
0.4158054
50
122.6416387
51
139.3430715
0
ARC
8
DEFAULT_255_1_234
10
19.5636857
20
86.7480451
40
0.4366739
50
93.0223692
51
122.455762
0
ARC
8
DEFAULT_255_1_234
10
19.5744854
20
86.6515709
40
0.5336137
50
89.975342
51
93.6341897
0
ARC
8
DEFAULT_255_1_234
10
19.5783633
20
86.6914242
40
0.4937738
50
73.746375
51
90.4233405
0
ARC
8
DEFAULT_255_1_234
10
19.5959212
20
86.7594287
40
0.4235786
50
57.662753
51
73.4518111
0
ARC
8
DEFAULT_255_1_234
10
19.5951218
20
86.7615832
40
0.4221899
50
29.1440151
51
57.414694
0
ARC
8
DEFAULT_255_1_234
10
19.5016413
20
86.7032005
40
0.5322966
50
24.0982783
51
29.7323517
0
ARC
8
DEFAULT_255_1_234
10
19.3982688
20
86.6603399
40
0.6441673
50
8.6655297
51
23.8241346
0
ARC
8
DEFAULT_255_1_234
10
19.1748426
20
86.6238854
40
0.8705386
50
359.7806941
51
8.8218784
0
ARC
8
DEFAULT_255_1_234
10
19.0601424
20
86.6264345
40
0.8318373
50
359.7055579
51
8.036044
0
ARC
8
DEFAULT_255_1_234
10
19.360143
20
86.6701239
40
0.5286768
50
7.8928306
51
20.2962107
0
ARC
8
DEFAULT_255_1_234
10
19.5229001
20
86.7301395
40
0.3552073
50
20.3231126
51
36.4992797
0
ARC
8
DEFAULT_255_1_234
10
19.5914547
20
86.7829402
40
0.2686974
50
36.1437156
51
85.6627023
0
ARC
8
DEFAULT_255_1_234
10
19.5752093
20
86.6789221
40
0.373739
50
84.3852322
51
90.0757696
0
ARC
8
DEFAULT_255_1_234
10
19.5709765
20
86.7449839
40
0.3076997
50
89.3038458
51
109.9045693
0
ARC
8
DEFAULT_255_1_234
10
19.5617156
20
86.7832062
40
0.2686424
50
110.8228367
51
143.9179474
0
ARC
8
DEFAULT_255_1_234
10
19.6550816
20
86.7119236
40
0.3860887
50
143.5289163
51
163.2980757
0
ARC
8
DEFAULT_255_1_234
10
19.8458637
20
86.6519433
40
0.5860659
50
163.0418846
51
174.3140048
0
ARC
8
DEFAULT_255_1_234
10
20.0862749
20
86.6241854
40
0.8280531
50
174.0509143
51
179.4176892
0
ARC
8
DEFAULT_255_1_234
10
20.0358488
20
86.5424954
40
0.7775954
50
179.6930361
51
188.7906598
0
ARC
8
DEFAULT_255_1_234
10
19.7694967
20
86.4998935
40
0.5078633
50
188.6331305
51
202.5629587
0
ARC
8
DEFAULT_255_1_234
10
19.6440559
20
86.4494996
40
0.3726913
50
202.8081362
51
216.1193925
0
ARC
8
DEFAULT_255_1_234
10
19.5631129
20
86.3843676
40
0.2689577
50
215.0755913
51
264.6379694
0
ARC
8
DEFAULT_255_1_234
10
19.5758079
20
86.4674513
40
0.3528978
50
263.846392
51
270.0833719
0
ARC
8
DEFAULT_255_1_234
10
19.5799469
20
86.4416374
40
0.3271036
50
269.3649385
51
287.5152008
0
ARC
8
DEFAULT_255_1_234
10
19.5977627
20
86.3769238
40
0.2600406
50
288.0630309
51
323.8113348
0
ARC
8
DEFAULT_255_1_234
10
19.5106469
20
86.4419049
40
0.3687189
50
323.6547608
51
342.6590488
0
ARC
8
DEFAULT_255_1_234
10
19.3075084
20
86.5079952
40
0.5823286
50
342.4091907
51
353.6451149
0
ARC
8
DEFAULT_255_1_234
10
19.0243595
20
86.543219
40
0.8676442
50
353.4029884
51
359.4847795
0
LINE
8
DEFAULT_255_1_234
10
21.1135961
20
86.4575091
11
20.8381075
21
86.4575091
0
LINE
8
DEFAULT_255_1_234
10
20.8381075
20
86.4575091
11
20.8381075
21
85.9997
0
LINE
8
DEFAULT_255_1_234
10
20.8381075
20
85.9997
11
20.6838981
21
85.9997
0
LINE
8
DEFAULT_255_1_234
10
20.6838981
20
85.9997
11
20.6838981
21
87.1691211
0
LINE
8
DEFAULT_255_1_234
10
20.6838981
20
87.1691211
11
21.1152024
21
87.1691211
0
LINE
8
DEFAULT_255_1_234
10
20.8381075
20
87.0422196
11
20.8381075
21
86.5836074
0
LINE
8
DEFAULT_255_1_234
10
20.8381075
20
86.5836074
11
21.1152024
21
86.5836074
0
LINE
8
DEFAULT_255_1_234
10
21.1240374
20
87.0422196
11
20.8381075
21
87.0422196
0
ARC
8
DEFAULT_255_1_234
10
21.1194151
20
86.5632195
40
0.6059162
50
78.8378113
51
90.3983573
0
ARC
8
DEFAULT_255_1_234
10
21.1610165
20
86.7652879
40
0.3996205
50
58.9632738
51
79.0810598
0
ARC
8
DEFAULT_255_1_234
10
21.1911707
20
86.8212721
40
0.3361177
50
48.0197965
51
58.447194
0
ARC
8
DEFAULT_255_1_234
10
21.2000568
20
86.8298225
40
0.3238191
50
3.3375044
51
48.1766626
0
ARC
8
DEFAULT_255_1_234
10
21.0770408
20
86.8121171
40
0.4477806
50
359.9477528
51
4.6829065
0
ARC
8
DEFAULT_255_1_234
10
21.0893725
20
86.8078628
40
0.4354656
50
346.1877825
51
0.5060252
0
ARC
8
DEFAULT_255_1_234
10
21.2252592
20
86.7725731
40
0.295089
50
310.8831995
51
346.5426355
0
ARC
8
DEFAULT_255_1_234
10
21.1944012
20
86.8142695
40
0.3468331
50
286.6925341
51
310.2288297
0
ARC
8
DEFAULT_255_1_234
10
21.1374843
20
86.9932882
40
0.5346654
50
274.6850312
51
287.0245141
0
ARC
8
DEFAULT_255_1_234
10
21.1149566
20
87.2141932
40
0.7566852
50
269.8969846
51
275.018904
0
ARC
8
DEFAULT_255_1_234
10
21.1177157
20
87.0062707
40
0.4226708
50
269.6593078
51
279.4153575
0
ARC
8
DEFAULT_255_1_234
10
21.1434433
20
86.8572133
40
0.2714146
50
279.2049762
51
294.9900808
0
ARC
8
DEFAULT_255_1_234
10
21.1724758
20
86.7924508
40
0.2004525
50
295.2888114
51
311.2911209
0
ARC
8
DEFAULT_255_1_234
10
21.1795652
20
86.781922
40
0.1878703
50
311.7854996
51
347.2861051
0
ARC
8
DEFAULT_255_1_234
10
21.0811811
20
86.8072092
40
0.2894234
50
346.6893224
51
0.1059443
0
ARC
8
DEFAULT_255_1_234
10
21.0056706
20
86.8100685
40
0.3649409
50
359.6350983
51
0.0053152
0
ARC
8
DEFAULT_255_1_234
10
21.1027034
20
86.8125937
40
0.2679199
50
359.4672059
51
15.5933957
0
ARC
8
DEFAULT_255_1_234
10
21.1651923
20
86.8294779
40
0.2031932
50
15.7442113
51
46.6203375
0
ARC
8
DEFAULT_255_1_234
10
21.1504144
20
86.8124484
40
0.2257226
50
46.8628658
51
75.6676503
0
ARC
8
DEFAULT_255_1_234
10
21.1209964
20
86.7065718
40
0.3355939
50
75.276167
51
88.2915297
0
ARC
8
DEFAULT_255_1_234
10
21.1151671
20
86.6187524
40
0.4235602
50
87.8575022
51
88.8000139
0
LINE
8
DEFAULT_255_1_234
10
22.6203502
20
87.1691211
11
22.6203502
21
85.9997
0
LINE
8
DEFAULT_255_1_234
10
22.6203502
20
85.9997
11
22.4653376
21
85.9997
0
LINE
8
DEFAULT_255_1_234
10
22.4653376
20
85.9997
11
21.8766112
21
86.900861
0
LINE
8
DEFAULT_255_1_234
10
21.8766112
20
86.900861
11
21.8766112
21
85.9997
0
LINE
8
DEFAULT_255_1_234
10
21.8766112
20
85.9997
11
21.7215987
21
85.9997
0
LINE
8
DEFAULT_255_1_234
10
21.7215987
20
85.9997
11
21.7215987
21
87.1691211
0
LINE
8
DEFAULT_255_1_234
10
21.7215987
20
87.1691211
11
21.8766112
21
87.1691211
0
LINE
8
DEFAULT_255_1_234
10
21.8766112
20
87.1691211
11
22.466944
21
86.2639442
0
LINE
8
DEFAULT_255_1_234
10
22.466944
20
86.2639442
11
22.466944
21
87.1691211
0
LINE
8
DEFAULT_255_1_234
10
22.466944
20
87.1691211
11
22.6203502
21
87.1691211
0
LINE
8
DEFAULT_255_2_778
10
9.3927417
20
60.7218492
11
10.7156417
21
60.7218492
0
LINE
8
DEFAULT_255_2_778
10
10.7156417
20
60.7218492
11
10.7156417
21
35.2557492
0
LINE
8
DEFAULT_255_2_778
10
10.7156417
20
30.6254492
11
10.7156417
21
5.1593492
0
LINE
8
DEFAULT_255_2_778
10
10.7156417
20
5.1593492
11
9.3927417
21
5.1593492
0
LINE
8
DEFAULT_255_2_778
10
9.3926834
20
35.2557041
11
12.0384834
21
35.2557041
0
LINE
8
DEFAULT_255_2_778
10
12.0384834
20
35.2557041
11
12.0384834
21
30.6255041
0
LINE
8
DEFAULT_255_2_778
10
12.0384834
20
30.6255041
11
9.3926834
21
30.6255041
0
LINE
8
DEFAULT_255_2_778
10
9.3926834
20
30.6255041
11
9.3926834
21
35.2557041
0
LINE
8
DEFAULT_255_2_778
10
10.1865
20
31.0884833
11
10.1865
21
34.7926833
0
LINE
8
DEFAULT_255_2_778
10
9.9219167
20
34.0981656
11
10.1865167
21
34.7926656
0
LINE
8
DEFAULT_255_2_778
10
10.1865167
20
34.7926656
11
10.4511167
21
34.0981656
0
LINE
8
DEFAULT_255_2_778
10
10.4511167
20
34.0981656
11
9.9219167
21
34.0981656
0
LINE
8
DEFAULT_255_2_778
10
11.2448
20
34.7926833
11
11.2448
21
31.0884833
0
LINE
8
DEFAULT_255_2_778
10
10.9802167
20
31.7830656
11
11.2448167
21
31.0885656
0
LINE
8
DEFAULT_255_2_778
10
11.2448167
20
31.0885656
11
11.5094167
21
31.7830656
0
LINE
8
DEFAULT_255_2_778
10
11.5094167
20
31.7830656
11
10.9802167
21
31.7830656
0
LINE
8
DEFAULT_255_1_234
10
4.5988137
20
85.1904433
11
4.5988137
21
84.0154
0
LINE
8
DEFAULT_255_1_234
10
4.5988137
20
84.0154
11
4.4494234
21
84.0154
0
LINE
8
DEFAULT_255_1_234
10
4.4494234
20
84.0154
11
4.4494234
21
85.0057133
0
LINE
8
DEFAULT_255_1_234
10
4.4494234
20
85.0057133
11
4.1498396
21
84.8956785
0
LINE
8
DEFAULT_255_1_234
10
4.1498396
20
84.8956785
11
4.1498396
21
85.0306117
0
LINE
8
DEFAULT_255_1_234
10
4.1498396
20
85.0306117
11
4.5755217
21
85.1904433
0
LINE
8
DEFAULT_255_1_234
10
4.5755217
20
85.1904433
11
4.5988137
21
85.1904433
0
LINE
8
DEFAULT_255_1_234
10
5.2276988
20
85.1848211
11
5.2276988
21
84.1414983
0
LINE
8
DEFAULT_255_1_234
10
5.2276988
20
84.1414983
11
5.7818888
21
84.1414983
0
LINE
8
DEFAULT_255_1_234
10
5.7818888
20
84.1414983
11
5.7818888
21
84.0154
0
LINE
8
DEFAULT_255_1_234
10
5.7818888
20
84.0154
11
5.0726863
21
84.0154
0
LINE
8
DEFAULT_255_1_234
10
5.0726863
20
84.0154
11
5.0726863
21
85.1848211
0
LINE
8
DEFAULT_255_1_234
10
5.0726863
20
85.1848211
11
5.2276988
21
85.1848211
0
LINE
8
DEFAULT_255_1_234
10
6.3601739
20
84.9840276
11
6.3601739
21
84.6426788
0
LINE
8
DEFAULT_255_1_234
10
6.3601739
20
84.6426788
11
6.6862625
21
84.6426788
0
LINE
8
DEFAULT_255_1_234
10
6.6862625
20
84.6426788
11
6.6862625
21
84.5021233
0
LINE
8
DEFAULT_255_1_234
10
6.6862625
20
84.5021233
11
6.3601739
21
84.5021233
0
LINE
8
DEFAULT_255_1_234
10
6.3601739
20
84.5021233
11
6.3601739
21
84.1326634
0
LINE
8
DEFAULT_255_1_234
10
6.3601739
20
84.1326634
11
6.2107836
21
84.1326634
0
LINE
8
DEFAULT_255_1_234
10
6.2107836
20
84.1326634
11
6.2107836
21
84.5021233
0
LINE
8
DEFAULT_255_1_234
10
6.2107836
20
84.5021233
11
5.884695
21
84.5021233
0
LINE
8
DEFAULT_255_1_234
10
5.884695
20
84.5021233
11
5.884695
21
84.6426788
0
LINE
8
DEFAULT_255_1_234
10
5.884695
20
84.6426788
11
6.2107836
21
84.6426788
0
LINE
8
DEFAULT_255_1_234
10
6.2107836
20
84.6426788
11
6.2107836
21
84.9840276
0
LINE
8
DEFAULT_255_1_234
10
6.2107836
20
84.9840276
11
6.3601739
21
84.9840276
0
LINE
8
DEFAULT_255_1_234
10
4.3086299
20
5.8098211
11
4.5905439
21
5.3616501
0
LINE
8
DEFAULT_255_1_234
10
4.5905439
20
5.3616501
11
4.8708516
21
5.8098211
0
LINE
8
DEFAULT_255_1_234
10
4.8708516
20
5.8098211
11
5.0523689
21
5.8098211
0
LINE
8
DEFAULT_255_1_234
10
5.0523689
20
5.8098211
11
4.6829089
21
5.2299296
0
LINE
8
DEFAULT_255_1_234
10
4.6829089
20
5.2299296
11
5.0612038
21
4.6404
0
LINE
8
DEFAULT_255_1_234
10
5.0612038
20
4.6404
11
4.8780802
21
4.6404
0
LINE
8
DEFAULT_255_1_234
10
4.8780802
20
4.6404
11
4.5905439
21
5.0966027
0
LINE
8
DEFAULT_255_1_234
10
4.5905439
20
5.0966027
11
4.3014014
21
4.6404
0
LINE
8
DEFAULT_255_1_234
10
4.3014014
20
4.6404
11
4.1190809
21
4.6404
0
LINE
8
DEFAULT_255_1_234
10
4.1190809
20
4.6404
11
4.498179
21
5.2299296
0
LINE
8
DEFAULT_255_1_234
10
4.498179
20
5.2299296
11
4.1279158
21
5.8098211
0
LINE
8
DEFAULT_255_1_234
10
4.1279158
20
5.8098211
11
4.3086299
21
5.8098211
0
ARC
8
DEFAULT_255_1_234
10
5.6287376
20
5.5020703
40
0.2822356
50
338.8763615
51
0.5166041
0
ARC
8
DEFAULT_255_1_234
10
5.645603
20
5.4975208
40
0.2648703
50
325.8412414
51
338.4795939
0
ARC
8
DEFAULT_255_1_234
10
5.6065398
20
5.5246042
40
0.3124019
50
296.7586019
51
325.753654
0
ARC
8
DEFAULT_255_1_234
10
5.5777506
20
5.5730789
40
0.368668
50
296.0902311
51
297.3618122
0
ARC
8
DEFAULT_255_1_234
10
5.6034964
20
4.9176041
40
0.3518806
50
47.9009248
51
67.1946869
0
ARC
8
DEFAULT_255_1_234
10
5.6231206
20
4.9422395
40
0.320451
50
35.236241
51
47.551371
0
ARC
8
DEFAULT_255_1_234
10
5.6492824
20
4.9596993
40
0.2890103
50
359.2759738
51
35.4014081
0
ARC
8
DEFAULT_255_1_234
10
5.5747855
20
4.9523826
40
0.3635026
50
343.1294516
51
0.5776525
0
ARC
8
DEFAULT_255_1_234
10
5.64724
20
4.932433
40
0.2883832
50
310.8497458
51
342.744803
0
ARC
8
DEFAULT_255_1_234
10
5.6054513
20
4.9801294
40
0.3517954
50
281.5473923
51
310.9169905
0
ARC
8
DEFAULT_255_1_234
10
5.5697962
20
5.1354084
40
0.5110832
50
269.6192722
51
281.9789957
0
ARC
8
DEFAULT_255_1_234
10
5.5625752
20
5.1354828
40
0.5111606
50
257.4584469
51
270.4287458
0
ARC
8
DEFAULT_255_1_234
10
5.5244895
20
4.9751344
40
0.3463762
50
228.7553743
51
257.8484423
0
ARC
8
DEFAULT_255_1_234
10
5.4935093
20
4.9378442
40
0.297916
50
184.0104442
51
228.5071787
0
ARC
8
DEFAULT_255_1_234
10
5.6098037
20
4.9555512
40
0.4152734
50
179.9315461
51
185.3254504
0
ARC
8
DEFAULT_255_1_234
10
5.4921683
20
4.9592992
40
0.2976554
50
145.6795913
51
180.6259649
0
ARC
8
DEFAULT_255_1_234
10
5.5085032
20
4.9478929
40
0.3175776
50
115.5537925
51
145.6416199
0
ARC
8
DEFAULT_255_1_234
10
5.5425962
20
4.8868028
40
0.3874232
50
113.2437915
51
116.2054627
0
ARC
8
DEFAULT_255_1_234
10
5.5273175
20
5.526658
40
0.3154751
50
222.9548379
51
244.1372485
0
ARC
8
DEFAULT_255_1_234
10
5.515125
20
5.5129834
40
0.2972382
50
213.3439227
51
222.6271327
0
ARC
8
DEFAULT_255_1_234
10
5.4959184
20
5.4999308
40
0.274019
50
180.4316517
51
213.2713999
0
ARC
8
DEFAULT_255_1_234
10
5.5534186
20
5.504611
40
0.33158
50
179.9992944
51
181.1655061
0
ARC
8
DEFAULT_255_1_234
10
5.5943603
20
5.5080561
40
0.3725376
50
164.6186108
51
180.5292368
0
ARC
8
DEFAULT_255_1_234
10
5.5045466
20
5.5322101
40
0.2795349
50
132.2454369
51
164.5092287
0
ARC
8
DEFAULT_255_1_234
10
5.533257
20
5.4997028
40
0.3229019
50
100.7052766
51
132.1387266
0
ARC
8
DEFAULT_255_1_234
10
5.5637542
20
5.3619086
40
0.4639835
50
89.6732617
51
101.2449487
0
ARC
8
DEFAULT_255_1_234
10
5.569974
20
5.379399
40
0.4464999
50
76.2876631
51
90.4586123
0
ARC
8
DEFAULT_255_1_234
10
5.6005972
20
5.501622
40
0.3205023
50
47.8240157
51
76.4266918
0
ARC
8
DEFAULT_255_1_234
10
5.6228522
20
5.527659
40
0.2862661
50
6.9168658
51
47.6261438
0
ARC
8
DEFAULT_255_1_234
10
5.5041925
20
5.505737
40
0.4067708
50
359.8419705
51
7.9694496
0
ARC
8
DEFAULT_255_1_234
10
5.5383822
20
4.9616925
40
0.2513121
50
359.4454068
51
16.9256425
0
ARC
8
DEFAULT_255_1_234
10
5.5852633
20
4.9746033
40
0.2027071
50
17.292259
51
45.462717
0
ARC
8
DEFAULT_255_1_234
10
5.5798569
20
4.9699434
40
0.2098212
50
45.3028762
51
83.1921472
0
ARC
8
DEFAULT_255_1_234
10
5.5655253
20
4.8897895
40
0.2911472
50
82.2614531
51
90.143954
0
ARC
8
DEFAULT_255_1_234
10
5.5624373
20
4.913095
40
0.2678513
50
89.4959189
51
104.8579811
0
ARC
8
DEFAULT_255_1_234
10
5.5447632
20
4.980089
40
0.1985654
50
104.8855873
51
135.2448349
0
ARC
8
DEFAULT_255_1_234
10
5.5497405
20
4.9756336
40
0.2052373
50
135.3398955
51
172.104394
0
ARC
8
DEFAULT_255_1_234
10
5.6304463
20
4.9601925
40
0.2873299
50
171.2651929
51
180.1859362
0
ARC
8
DEFAULT_255_1_234
10
5.6135164
20
4.9569733
40
0.2704083
50
179.515471
51
193.6466734
0
ARC
8
DEFAULT_255_1_234
10
5.5318933
20
4.9361777
40
0.1861855
50
193.3540587
51
225.8256931
0
ARC
8
DEFAULT_255_1_234
10
5.535969
20
4.9432524
40
0.1941102
50
226.418029
51
255.8553723
0
ARC
8
DEFAULT_255_1_234
10
5.5616123
20
5.0368998
40
0.2911917
50
255.4655572
51
268.7985967
0
ARC
8
DEFAULT_255_1_234
10
5.5663315
20
5.1207491
40
0.3751331
50
268.3464808
51
270.0104874
0
ARC
8
DEFAULT_255_1_234
10
5.5686703
20
5.0523138
40
0.3067064
50
269.575914
51
282.0823146
0
ARC
8
DEFAULT_255_1_234
10
5.5911612
20
4.9528803
40
0.2047712
50
281.7522535
51
306.6056425
0
ARC
8
DEFAULT_255_1_234
10
5.6010038
20
4.9367487
40
0.1859604
50
307.1350025
51
314.0277951
0
ARC
8
DEFAULT_255_1_234
10
5.5974122
20
4.9393766
40
0.1903475
50
314.2553419
51
350.169324
0
ARC
8
DEFAULT_255_1_234
10
5.5122591
20
4.9578409
40
0.2774269
50
349.4145679
51
0.2930737
0
ARC
8
DEFAULT_255_1_234
10
5.5643024
20
5.4737353
40
0.2300764
50
89.477591
51
105.729794
0
ARC
8
DEFAULT_255_1_234
10
5.5506937
20
5.5242637
40
0.1777519
50
105.922966
51
135.1662921
0
ARC
8
DEFAULT_255_1_234
10
5.552744
20
5.5228419
40
0.1802087
50
135.3053131
51
168.9882338
0
ARC
8
DEFAULT_255_1_234
10
5.6355012
20
5.5038721
40
0.2650806
50
168.3802067
51
180.3602358
0
ARC
8
DEFAULT_255_1_234
10
5.6126592
20
5.5001041
40
0.2422425
50
179.5029707
51
194.9126783
0
ARC
8
DEFAULT_255_1_234
10
5.5541253
20
5.484711
40
0.1817188
50
194.9722181
51
224.1943972
0
ARC
8
DEFAULT_255_1_234
10
5.551312
20
5.4824169
40
0.1781027
50
224.2961434
51
262.0157375
0
ARC
8
DEFAULT_255_1_234
10
5.5655363
20
5.5555661
40
0.2525492
50
261.1250369
51
270.1959853
0
ARC
8
DEFAULT_255_1_234
10
5.5685118
20
5.5368339
40
0.233825
50
269.4825617
51
285.0988277
0
ARC
8
DEFAULT_255_1_234
10
5.5839277
20
5.478999
40
0.1739712
50
285.1585659
51
315.9484648
0
ARC
8
DEFAULT_255_1_234
10
5.5750289
20
5.4871886
40
0.1860616
50
316.0412958
51
351.9162715
0
ARC
8
DEFAULT_255_1_234
10
5.5017244
20
5.5013245
40
0.2606517
50
351.1056823
51
0.1936567
0
ARC
8
DEFAULT_255_1_234
10
5.5280073
20
5.5043369
40
0.234377
50
359.4789506
51
16.0679113
0
ARC
8
DEFAULT_255_1_234
10
5.5756032
20
5.517181
40
0.1850875
50
16.3251951
51
44.791304
0
ARC
8
DEFAULT_255_1_234
10
5.5738313
20
5.5172339
40
0.186312
50
44.3958661
51
88.2498933
0
ARC
8
DEFAULT_255_1_234
10
5.5664867
20
5.4561154
40
0.2476868
50
86.9833827
51
90.0200148
0
LINE
8
DEFAULT_255_1_234
10
4.3086299
20
13.7473211
11
4.5905439
21
13.2991501
0
LINE
8
DEFAULT_255_1_234
10
4.5905439
20
13.2991501
11
4.8708516
21
13.7473211
0
LINE
8
DEFAULT_255_1_234
10
4.8708516
20
13.7473211
11
5.0523689
21
13.7473211
0
LINE
8
DEFAULT_255_1_234
10
5.0523689
20
13.7473211
11
4.6829089
21
13.1674296
0
LINE
8
DEFAULT_255_1_234
10
4.6829089
20
13.1674296
11
5.0612038
21
12.5779
0
LINE
8
DEFAULT_255_1_234
10
5.0612038
20
12.5779
11
4.8780802
21
12.5779
0
LINE
8
DEFAULT_255_1_234
10
4.8780802
20
12.5779
11
4.5905439
21
13.0341027
0
LINE
8
DEFAULT_255_1_234
10
4.5905439
20
13.0341027
11
4.3014014
21
12.5779
0
LINE
8
DEFAULT_255_1_234
10
4.3014014
20
12.5779
11
4.1190809
21
12.5779
0
LINE
8
DEFAULT_255_1_234
10
4.1190809
20
12.5779
11
4.498179
21
13.1674296
0
LINE
8
DEFAULT_255_1_234
10
4.498179
20
13.1674296
11
4.1279158
21
13.7473211
0
LINE
8
DEFAULT_255_1_234
10
4.1279158
20
13.7473211
11
4.3086299
21
13.7473211
0
LINE
8
DEFAULT_255_1_234
10
5.9567426
20
13.7473211
11
5.9567426
21
13.663791
0
LINE
8
DEFAULT_255_1_234
10
5.9567426
20
13.663791
11
5.4724288
21
12.5779
0
LINE
8
DEFAULT_255_1_234
10
5.4724288
20
12.5779
11
5.3166131
21
12.5779
0
LINE
8
DEFAULT_255_1_234
10
5.3166131
20
12.5779
11
5.7993206
21
13.6252387
0
LINE
8
DEFAULT_255_1_234
10
5.7993206
20
13.6252387
11
5.1664196
21
13.6252387
0
LINE
8
DEFAULT_255_1_234
10
5.1664196
20
13.6252387
11
5.1664196
21
13.7473211
0
LINE
8
DEFAULT_255_1_234
10
5.1664196
20
13.7473211
11
5.9567426
21
13.7473211
0
LINE
8
DEFAULT_255_1_234
10
4.3086299
20
21.6848211
11
4.5905439
21
21.2366501
0
LINE
8
DEFAULT_255_1_234
10
4.5905439
20
21.2366501
11
4.8708516
21
21.6848211
0
LINE
8
DEFAULT_255_1_234
10
4.8708516
20
21.6848211
11
5.0523689
21
21.6848211
0
LINE
8
DEFAULT_255_1_234
10
5.0523689
20
21.6848211
11
4.6829089
21
21.1049296
0
LINE
8
DEFAULT_255_1_234
10
4.6829089
20
21.1049296
11
5.0612038
21
20.5154
0
LINE
8
DEFAULT_255_1_234
10
5.0612038
20
20.5154
11
4.8780802
21
20.5154
0
LINE
8
DEFAULT_255_1_234
10
4.8780802
20
20.5154
11
4.5905439
21
20.9716027
0
LINE
8
DEFAULT_255_1_234
10
4.5905439
20
20.9716027
11
4.3014014
21
20.5154
0
LINE
8
DEFAULT_255_1_234
10
4.3014014
20
20.5154
11
4.1190809
21
20.5154
0
LINE
8
DEFAULT_255_1_234
10
4.1190809
20
20.5154
11
4.498179
21
21.1049296
0
LINE
8
DEFAULT_255_1_234
10
4.498179
20
21.1049296
11
4.1279158
21
21.6848211
0
LINE
8
DEFAULT_255_1_234
10
4.1279158
20
21.6848211
11
4.3086299
21
21.6848211
0
LINE
8
DEFAULT_255_1_234
10
5.7583587
20
21.6856243
11
5.7848634
21
21.6856243
0
LINE
8
DEFAULT_255_1_234
10
5.7848634
20
21.6856243
11
5.7848634
21
21.559526
0
LINE
8
DEFAULT_255_1_234
10
5.7848634
20
21.559526
11
5.7575555
21
21.559526
0
LINE
8
DEFAULT_255_1_234
10
5.2105941
20
20.9603583
11
5.2105941
21
21.0173836
0
LINE
8
DEFAULT_255_1_234
10
5.3599845
20
20.9981075
11
5.3599845
21
20.9434917
0
ARC
8
DEFAULT_255_1_234
10
5.7627903
20
21.0597455
40
0.4998079
50
90.6001036
51
104.514704
0
ARC
8
DEFAULT_255_1_234
10
5.7239419
20
21.2042131
40
0.3502176
50
104.2855254
51
133.862935
0
ARC
8
DEFAULT_255_1_234
10
5.7403176
20
21.193383
40
0.3693984
50
134.5302688
51
161.6210873
0
ARC
8
DEFAULT_255_1_234
10
5.9056365
20
21.1350895
40
0.5446739
50
161.2849839
51
174.2076652
0
ARC
8
DEFAULT_255_1_234
10
6.0463302
20
21.1156787
40
0.6866274
50
173.7810589
51
174.9254635
0
ARC
8
DEFAULT_255_1_234
10
5.5913134
20
20.9773839
40
0.3033419
50
95.8330959
51
138.9954921
0
ARC
8
DEFAULT_255_1_234
10
5.613649
20
20.8495375
40
0.4328947
50
89.8753725
51
97.0544009
0
ARC
8
DEFAULT_255_1_234
10
5.6183956
20
20.9330748
40
0.3493769
50
71.6407809
51
90.6240094
0
ARC
8
DEFAULT_255_1_234
10
5.6334529
20
20.9885082
40
0.2920396
50
39.6367836
51
71.019018
0
ARC
8
DEFAULT_255_1_234
10
5.5698002
20
20.9334998
40
0.3761538
50
10.658731
51
39.9043955
0
ARC
8
DEFAULT_255_1_234
10
5.4150085
20
20.8998686
40
0.5345136
50
359.682601
51
11.132623
0
ARC
8
DEFAULT_255_1_234
10
5.4110216
20
20.892801
40
0.5385081
50
347.2486944
51
0.4369317
0
ARC
8
DEFAULT_255_1_234
10
5.5777693
20
20.8526807
40
0.3670249
50
318.1409698
51
347.6118597
0
ARC
8
DEFAULT_255_1_234
10
5.6102686
20
20.8259702
40
0.3250007
50
275.6342139
51
317.8248465
0
ARC
8
DEFAULT_255_1_234
10
5.5881797
20
20.9559219
40
0.4565864
50
269.8874292
51
276.7917694
0
ARC
8
DEFAULT_255_1_234
10
5.5826868
20
20.8533743
40
0.3540676
50
246.9140195
51
270.7437342
0
ARC
8
DEFAULT_255_1_234
10
5.5833258
20
20.8391384
40
0.3412781
50
218.1665114
51
245.878116
0
ARC
8
DEFAULT_255_1_234
10
5.6712719
20
20.9127279
40
0.455911
50
191.4115814
51
218.6077802
0
ARC
8
DEFAULT_255_1_234
10
5.8650808
20
20.9561833
40
0.6545001
50
179.6345085
51
191.7836486
0
ARC
8
DEFAULT_255_1_234
10
6.4233145
20
21.0240697
40
1.2127388
50
171.4525249
51
180.3158839
0
ARC
8
DEFAULT_255_1_234
10
5.9838021
20
21.0924608
40
0.7679464
50
157.9802646
51
171.6246686
0
ARC
8
DEFAULT_255_1_234
10
5.7624042
20
21.1807421
40
0.5296008
50
141.4298019
51
157.854097
0
ARC
8
DEFAULT_255_1_234
10
5.6982362
20
21.2261381
40
0.4511509
50
102.8715806
51
140.8564722
0
ARC
8
DEFAULT_255_1_234
10
5.7629978
20
20.9821552
40
0.7034845
50
90.3778349
51
103.5869322
0
ARC
8
DEFAULT_255_1_234
10
5.5891754
20
20.921673
40
0.2370698
50
89.8751008
51
126.2071704
0
ARC
8
DEFAULT_255_1_234
10
5.5937544
20
20.9062303
40
0.2522934
50
124.9745049
51
144.895901
0
ARC
8
DEFAULT_255_1_234
10
5.5761734
20
20.920556
40
0.2296779
50
145.2974905
51
160.2660252
0
ARC
8
DEFAULT_255_1_234
10
5.8834273
20
20.9403071
40
0.5234525
50
179.6514266
51
190.2855912
0
ARC
8
DEFAULT_255_1_234
10
5.714041
20
20.9083786
40
0.3510893
50
190.0945431
51
207.5098196
0
ARC
8
DEFAULT_255_1_234
10
5.657468
20
20.8814623
40
0.288489
50
207.9583163
51
216.3251085
0
ARC
8
DEFAULT_255_1_234
10
5.6234788
20
20.8535105
40
0.2445587
50
215.7661442
51
232.5456785
0
ARC
8
DEFAULT_255_1_234
10
5.5851771
20
20.8048482
40
0.1826382
50
232.8005391
51
270.6605633
0
ARC
8
DEFAULT_255_1_234
10
5.5897472
20
20.8412612
40
0.2190529
50
269.35537
51
288.4744281
0
ARC
8
DEFAULT_255_1_234
10
5.5990369
20
20.8063118
40
0.1829749
50
289.1833337
51
322.9683818
0
ARC
8
DEFAULT_255_1_234
10
5.5378891
20
20.8545391
40
0.2608399
50
322.6007884
51
346.5182367
0
ARC
8
DEFAULT_255_1_234
10
5.4221487
20
20.8840616
40
0.3802777
50
346.2582162
51
358.7741648
0
ARC
8
DEFAULT_255_1_234
10
5.3203156
20
20.8895965
40
0.4822176
50
358.3755224
51
0.0098023
0
ARC
8
DEFAULT_255_1_234
10
5.3959343
20
20.8923657
40
0.4066078
50
359.6214041
51
11.2839074
0
ARC
8
DEFAULT_255_1_234
10
5.523649
20
20.9190066
40
0.2761514
50
11.0482309
51
31.8146458
0
ARC
8
DEFAULT_255_1_234
10
5.5545533
20
20.9357584
40
0.2410679
50
32.3035391
51
38.082671
0
ARC
8
DEFAULT_255_1_234
10
5.5966193
20
20.9738662
40
0.1844966
50
36.825067
51
85.7415724
0
ARC
8
DEFAULT_255_1_234
10
5.5899026
20
20.9238301
40
0.2349122
50
85.0140713
51
90.0513278
0
LINE
8
DEFAULT_255_1_234
10
4.3086299
20
29.6223211
11
4.5905439
21
29.1741501
0
LINE
8
DEFAULT_255_1_234
10
4.5905439
20
29.1741501
11
4.8708516
21
29.6223211
0
LINE
8
DEFAULT_255_1_234
10
4.8708516
20
29.6223211
11
5.0523689
21
29.6223211
0
LINE
8
DEFAULT_255_1_234
10
5.0523689
20
29.6223211
11
4.6829089
21
29.0424296
0
LINE
8
DEFAULT_255_1_234
10
4.6829089
20
29.0424296
11
5.0612038
21
28.4529
0
LINE
8
DEFAULT_255_1_234
10
5.0612038
20
28.4529
11
4.8780802
21
28.4529
0
LINE
8
DEFAULT_255_1_234
10
4.8780802
20
28.4529
11
4.5905439
21
28.9091027
0
LINE
8
DEFAULT_255_1_234
10
4.5905439
20
28.9091027
11
4.3014014
21
28.4529
0
LINE
8
DEFAULT_255_1_234
10
4.3014014
20
28.4529
11
4.1190809
21
28.4529
0
LINE
8
DEFAULT_255_1_234
10
4.1190809
20
28.4529
11
4.498179
21
29.0424296
0
LINE
8
DEFAULT_255_1_234
10
4.498179
20
29.0424296
11
4.1279158
21
29.6223211
0
LINE
8
DEFAULT_255_1_234
10
4.1279158
20
29.6223211
11
4.3086299
21
29.6223211
0
LINE
8
DEFAULT_255_1_234
10
5.3888987
20
29.0086963
11
5.270029
21
29.0392169
0
LINE
8
DEFAULT_255_1_234
10
5.270029
20
29.0392169
11
5.3294639
21
29.6223211
0
LINE
8
DEFAULT_255_1_234
10
5.3294639
20
29.6223211
11
5.9286315
21
29.6223211
0
LINE
8
DEFAULT_255_1_234
10
5.9286315
20
29.6223211
11
5.9286315
21
29.4849784
0
LINE
8
DEFAULT_255_1_234
10
5.9286315
20
29.4849784
11
5.4555622
21
29.4849784
0
LINE
8
DEFAULT_255_1_234
10
5.4555622
20
29.4849784
11
5.4202225
21
29.1661184
0
LINE
8
DEFAULT_255_1_234
10
5.228264
20
28.7605156
11
5.3688194
21
28.7605156
0
LINE
8
DEFAULT_255_1_234
10
5.4282542
20
29.0408232
11
5.3888987
21
29.0086963
0
ARC
8
DEFAULT_255_1_234
10
5.6057009
20
28.848123
40
0.3681349
50
93.7182161
51
120.2538958
0
ARC
8
DEFAULT_255_1_234
10
5.6151272
20
28.7673394
40
0.449379
50
89.9660152
51
94.2496022
0
ARC
8
DEFAULT_255_1_234
10
5.6192006
20
28.8262549
40
0.390482
50
73.8043271
51
90.5585896
0
ARC
8
DEFAULT_255_1_234
10
5.6426903
20
28.9120602
40
0.3015334
50
41.3071453
51
73.5430202
0
ARC
8
DEFAULT_255_1_234
10
5.601073
20
28.8762324
40
0.3564457
50
13.5075983
51
41.2174222
0
ARC
8
DEFAULT_255_1_234
10
5.4368934
20
28.8332486
40
0.5261351
50
1.1331335
51
13.8829381
0
ARC
8
DEFAULT_255_1_234
10
5.2957303
20
28.8256665
40
0.6674378
50
359.9919444
51
1.544251
0
ARC
8
DEFAULT_255_1_234
10
5.4234129
20
28.821528
40
0.5397702
50
347.8572367
51
0.4293338
0
ARC
8
DEFAULT_255_1_234
10
5.5984447
20
28.7818736
40
0.3603188
50
323.673004
51
348.1672506
0
ARC
8
DEFAULT_255_1_234
10
5.6278955
20
28.7639168
40
0.3259678
50
316.8171152
51
323.1492751
0
ARC
8
DEFAULT_255_1_234
10
5.6340144
20
28.760246
40
0.3189975
50
281.8396411
51
316.5457803
0
ARC
8
DEFAULT_255_1_234
10
5.5964408
20
28.9157762
40
0.4789527
50
269.5770101
51
282.4214771
0
ARC
8
DEFAULT_255_1_234
10
5.5893219
20
28.8944125
40
0.45759
50
256.2427136
51
270.4486331
0
ARC
8
DEFAULT_255_1_234
10
5.5594121
20
28.7744229
40
0.3339303
50
228.9023911
51
256.3314342
0
ARC
8
DEFAULT_255_1_234
10
5.5520354
20
28.7627746
40
0.32031
50
193.753695
51
228.5271154
0
ARC
8
DEFAULT_255_1_234
10
5.6758308
20
28.79908
40
0.4492253
50
184.924711
51
194.497588
0
ARC
8
DEFAULT_255_1_234
10
5.6950875
20
28.8026591
40
0.3289787
50
187.3600538
51
198.6732863
0
ARC
8
DEFAULT_255_1_234
10
5.5901169
20
28.7662674
40
0.217884
50
198.4451669
51
217.794479
0
ARC
8
DEFAULT_255_1_234
10
5.5605344
20
28.7453085
40
0.1816698
50
218.2887171
51
228.5612368
0
ARC
8
DEFAULT_255_1_234
10
5.5703131
20
28.7584963
40
0.1980329
50
228.9654866
51
258.1234728
0
ARC
8
DEFAULT_255_1_234
10
5.5908841
20
28.8465833
40
0.2884748
50
257.7258293
51
270.401361
0
ARC
8
DEFAULT_255_1_234
10
5.5953727
20
28.8020821
40
0.2439788
50
269.4204404
51
286.4209037
0
ARC
8
DEFAULT_255_1_234
10
5.6102215
20
28.7481657
40
0.1880666
50
286.7251356
51
320.600362
0
ARC
8
DEFAULT_255_1_234
10
5.571904
20
28.7792595
40
0.2374121
50
320.6712579
51
344.5441685
0
ARC
8
DEFAULT_255_1_234
10
5.4562366
20
28.8132045
40
0.3579479
50
344.2412205
51
356.7357071
0
ARC
8
DEFAULT_255_1_234
10
5.3313515
20
28.8235444
40
0.4832297
50
356.3548756
51
0.0500261
0
ARC
8
DEFAULT_255_1_234
10
5.4650024
20
28.826665
40
0.3495889
50
359.5576869
51
12.953486
0
ARC
8
DEFAULT_255_1_234
10
5.5704921
20
28.8522434
40
0.2410532
50
12.6490276
51
41.6081334
0
ARC
8
DEFAULT_255_1_234
10
5.5935292
20
28.8718321
40
0.2108218
50
41.7850273
51
85.9892764
0
ARC
8
DEFAULT_255_1_234
10
5.5812029
20
28.7905462
40
0.2928454
50
84.6957577
51
90.0676183
0
ARC
8
DEFAULT_255_1_234
10
5.5788513
20
28.7236716
40
0.3597255
50
89.6804936
51
99.1614436
0
ARC
8
DEFAULT_255_1_234
10
5.5583144
20
28.8464131
40
0.235281
50
98.9830931
51
113.8908934
0
ARC
8
DEFAULT_255_1_234
10
5.5353554
20
28.9005587
40
0.176479
50
114.1950727
51
127.3641004
0
LINE
8
DEFAULT_255_1_234
10
4.4145299
20
37.5598211
11
4.6964439
21
37.1116501
0
LINE
8
DEFAULT_255_1_234
10
4.6964439
20
37.1116501
11
4.9767516
21
37.5598211
0
LINE
8
DEFAULT_255_1_234
10
4.9767516
20
37.5598211
11
5.1582689
21
37.5598211
0
LINE
8
DEFAULT_255_1_234
10
5.1582689
20
37.5598211
11
4.7888089
21
36.9799296
0
LINE
8
DEFAULT_255_1_234
10
4.7888089
20
36.9799296
11
5.1671038
21
36.3904
0
LINE
8
DEFAULT_255_1_234
10
5.1671038
20
36.3904
11
4.9839802
21
36.3904
0
LINE
8
DEFAULT_255_1_234
10
4.9839802
20
36.3904
11
4.6964439
21
36.8466027
0
LINE
8
DEFAULT_255_1_234
10
4.6964439
20
36.8466027
11
4.4073014
21
36.3904
0
LINE
8
DEFAULT_255_1_234
10
4.4073014
20
36.3904
11
4.2249809
21
36.3904
0
LINE
8
DEFAULT_255_1_234
10
4.2249809
20
36.3904
11
4.604079
21
36.9799296
0
LINE
8
DEFAULT_255_1_234
10
4.604079
20
36.9799296
11
4.2338158
21
37.5598211
0
LINE
8
DEFAULT_255_1_234
10
4.2338158
20
37.5598211
11
4.4145299
21
37.5598211
0
LINE
8
DEFAULT_255_1_234
10
5.934938
20
37.5598211
11
5.934938
21
36.783152
0
LINE
8
DEFAULT_255_1_234
10
5.934938
20
36.783152
11
6.0971791
21
36.783152
0
LINE
8
DEFAULT_255_1_234
10
6.0971791
20
36.783152
11
6.0971791
21
36.6618728
0
LINE
8
DEFAULT_255_1_234
10
6.0971791
20
36.6618728
11
5.934938
21
36.6618728
0
LINE
8
DEFAULT_255_1_234
10
5.934938
20
36.6618728
11
5.934938
21
36.3904
0
LINE
8
DEFAULT_255_1_234
10
5.934938
20
36.3904
11
5.7855477
21
36.3904
0
LINE
8
DEFAULT_255_1_234
10
5.7855477
20
36.3904
11
5.7855477
21
36.6618728
0
LINE
8
DEFAULT_255_1_234
10
5.7855477
20
36.6618728
11
5.2530434
21
36.6618728
0
LINE
8
DEFAULT_255_1_234
10
5.2530434
20
36.6618728
11
5.2530434
21
36.7494187
0
LINE
8
DEFAULT_255_1_234
10
5.2530434
20
36.7494187
11
5.7767127
21
37.5598211
0
LINE
8
DEFAULT_255_1_234
10
5.7767127
20
37.5598211
11
5.934938
21
37.5598211
0
LINE
8
DEFAULT_255_1_234
10
5.7678778
20
37.3244912
11
5.4217099
21
36.783152
0
LINE
8
DEFAULT_255_1_234
10
5.4217099
20
36.783152
11
5.7855477
21
36.783152
0
LINE
8
DEFAULT_255_1_234
10
5.7855477
20
36.783152
11
5.7855477
21
37.3566181
0
LINE
8
DEFAULT_255_1_234
10
5.7855477
20
37.3566181
11
5.7678778
21
37.3244912
0
LINE
8
DEFAULT_255_1_234
10
4.3086299
20
45.4973211
11
4.5905439
21
45.0491501
0
LINE
8
DEFAULT_255_1_234
10
4.5905439
20
45.0491501
11
4.8708516
21
45.4973211
0
LINE
8
DEFAULT_255_1_234
10
4.8708516
20
45.4973211
11
5.0523689
21
45.4973211
0
LINE
8
DEFAULT_255_1_234
10
5.0523689
20
45.4973211
11
4.6829089
21
44.9174296
0
LINE
8
DEFAULT_255_1_234
10
4.6829089
20
44.9174296
11
5.0612038
21
44.3279
0
LINE
8
DEFAULT_255_1_234
10
5.0612038
20
44.3279
11
4.8780802
21
44.3279
0
LINE
8
DEFAULT_255_1_234
10
4.8780802
20
44.3279
11
4.5905439
21
44.7841027
0
LINE
8
DEFAULT_255_1_234
10
4.5905439
20
44.7841027
11
4.3014014
21
44.3279
0
LINE
8
DEFAULT_255_1_234
10
4.3014014
20
44.3279
11
4.1190809
21
44.3279
0
LINE
8
DEFAULT_255_1_234
10
4.1190809
20
44.3279
11
4.498179
21
44.9174296
0
LINE
8
DEFAULT_255_1_234
10
4.498179
20
44.9174296
11
4.1279158
21
45.4973211
0
LINE
8
DEFAULT_255_1_234
10
4.1279158
20
45.4973211
11
4.3086299
21
45.4973211
0
LINE
8
DEFAULT_255_1_234
10
5.417813
20
44.8636169
11
5.417813
21
44.9848962
0
LINE
8
DEFAULT_255_1_234
10
5.417813
20
44.9848962
11
5.5294542
21
44.9848962
0
LINE
8
DEFAULT_255_1_234
10
5.339102
20
45.1905087
11
5.1905148
21
45.1905087
0
LINE
8
DEFAULT_255_1_234
10
5.1800735
20
44.6363188
11
5.3294639
21
44.6363188
0
LINE
8
DEFAULT_255_1_234
10
5.5294542
20
44.8636169
11
5.417813
21
44.8636169
0
ARC
8
DEFAULT_255_1_234
10
5.5265408
20
45.3241713
40
0.3392876
50
270.4919872
51
281.8951556
0
ARC
8
DEFAULT_255_1_234
10
5.550667
20
45.2139702
40
0.2264817
50
281.6691735
51
301.2943132
0
ARC
8
DEFAULT_255_1_234
10
5.567688
20
45.1828304
40
0.1910381
50
301.7833094
51
311.7545298
0
ARC
8
DEFAULT_255_1_234
10
5.5768456
20
45.1726748
40
0.1773635
50
311.7323931
51
354.2802411
0
ARC
8
DEFAULT_255_1_234
10
5.5042081
20
45.1851722
40
0.2509385
50
353.0937916
51
0.1181479
0
ARC
8
DEFAULT_255_1_234
10
5.4580866
20
45.1899386
40
0.2970898
50
359.1805295
51
15.0453146
0
ARC
8
DEFAULT_255_1_234
10
5.5926703
20
45.2291992
40
0.1569564
50
13.9577229
51
77.6713066
0
ARC
8
DEFAULT_255_1_234
10
5.5540232
20
45.0906949
40
0.3006298
50
76.1116566
51
90.7026153
0
ARC
8
DEFAULT_255_1_234
10
5.548107
20
45.1180545
40
0.2732568
50
89.5324876
51
103.531937
0
ARC
8
DEFAULT_255_1_234
10
5.5280514
20
45.1979884
40
0.1908508
50
103.2931773
51
133.5619022
0
ARC
8
DEFAULT_255_1_234
10
5.5236003
20
45.2039375
40
0.1834746
50
133.8349307
51
173.5344437
0
ARC
8
DEFAULT_255_1_234
10
5.5959046
20
45.1911213
40
0.2568033
50
172.5096846
51
180.1366907
0
ARC
8
DEFAULT_255_1_234
10
5.500794
20
45.1945622
40
0.3103056
50
155.3484492
51
180.7484736
0
ARC
8
DEFAULT_255_1_234
10
5.4959029
20
45.1916846
40
0.3070957
50
131.5744599
51
154.4798489
0
ARC
8
DEFAULT_255_1_234
10
5.5272176
20
45.160031
40
0.3515643
50
96.9875458
51
131.9690667
0
ARC
8
DEFAULT_255_1_234
10
5.5491656
20
45.0354636
40
0.4779224
50
89.8596053
51
97.7825159
0
ARC
8
DEFAULT_255_1_234
10
5.5539719
20
45.0092616
40
0.5041361
50
78.3655447
51
90.4131539
0
ARC
8
DEFAULT_255_1_234
10
5.5897637
20
45.1751887
40
0.3344039
50
56.6229102
51
78.638727
0
ARC
8
DEFAULT_255_1_234
10
5.6112581
20
45.2127805
40
0.2912001
50
47.0253525
51
56.0854072
0
ARC
8
DEFAULT_255_1_234
10
5.6132361
20
45.2167223
40
0.2869704
50
10.9208013
51
46.7778124
0
ARC
8
DEFAULT_255_1_234
10
5.4768427
20
45.1851857
40
0.426899
50
359.6364486
51
11.6087304
0
ARC
8
DEFAULT_255_1_234
10
5.6603271
20
45.1836752
40
0.243409
50
332.3549906
51
359.7179418
0
ARC
8
DEFAULT_255_1_234
10
5.5952873
20
45.2145142
40
0.3153459
50
325.2333722
51
332.8745602
0
ARC
8
DEFAULT_255_1_234
10
5.6105496
20
45.2038828
40
0.2967456
50
292.9802137
51
325.2392345
0
ARC
8
DEFAULT_255_1_234
10
5.583087
20
45.2572863
40
0.3566604
50
292.5402179
51
293.6924929
0
ARC
8
DEFAULT_255_1_234
10
5.6223466
20
44.6118091
40
0.3307468
50
57.6435486
51
72.8625112
0
ARC
8
DEFAULT_255_1_234
10
5.6577966
20
44.6692549
40
0.2632492
50
36.7248896
51
57.4697979
0
ARC
8
DEFAULT_255_1_234
10
5.6566598
20
44.670522
40
0.2634081
50
8.0545065
51
36.356114
0
ARC
8
DEFAULT_255_1_234
10
5.5703784
20
44.6550174
40
0.3510261
50
359.8320645
51
8.5869982
0
ARC
8
DEFAULT_255_1_234
10
5.532856
20
44.6502101
40
0.3885653
50
343.9829931
51
0.5571613
0
ARC
8
DEFAULT_255_1_234
10
5.6214757
20
44.6259438
40
0.2966924
50
311.6359546
51
343.7651759
0
ARC
8
DEFAULT_255_1_234
10
5.5836326
20
44.6686102
40
0.3537231
50
279.7829875
51
311.6255694
0
ARC
8
DEFAULT_255_1_234
10
5.5535102
20
44.812328
40
0.5004971
50
269.7286406
51
280.3856417
0
ARC
8
DEFAULT_255_1_234
10
5.5473175
20
44.8081996
40
0.4963778
50
256.6828919
51
270.4412052
0
ARC
8
DEFAULT_255_1_234
10
5.5134471
20
44.6697394
40
0.3538406
50
229.4223008
51
256.8556159
0
ARC
8
DEFAULT_255_1_234
10
5.4719864
20
44.6230736
40
0.2914296
50
181.818294
51
229.6455059
0
ARC
8
DEFAULT_255_1_234
10
5.575982
20
44.6361496
40
0.3959084
50
179.9755256
51
183.2323064
0
ARC
8
DEFAULT_255_1_234
10
5.5587566
20
44.6341037
40
0.2293034
50
179.4465117
51
196.2869258
0
ARC
8
DEFAULT_255_1_234
10
5.5099974
20
44.6207651
40
0.1787621
50
196.5661473
51
227.705904
0
ARC
8
DEFAULT_255_1_234
10
5.5264069
20
44.6391155
40
0.2033784
50
227.7652068
51
257.8762805
0
ARC
8
DEFAULT_255_1_234
10
5.5489039
20
44.7334156
40
0.3003081
50
257.4584385
51
270.426602
0
ARC
8
DEFAULT_255_1_234
10
5.5534605
20
44.7623996
40
0.329292
50
269.5962073
51
280.8789248
0
ARC
8
DEFAULT_255_1_234
10
5.5764134
20
44.6477685
40
0.2123908
50
280.6346389
51
299.8595945
0
ARC
8
DEFAULT_255_1_234
10
5.595504
20
44.6115212
40
0.171457
50
300.3576302
51
314.5517981
0
ARC
8
DEFAULT_255_1_234
10
5.5872101
20
44.6175919
40
0.1816095
50
315.0728369
51
345.0431014
0
ARC
8
DEFAULT_255_1_234
10
5.4948915
20
44.6444841
40
0.2777492
50
344.5986631
51
357.9269593
0
ARC
8
DEFAULT_255_1_234
10
5.4053241
20
44.6506276
40
0.3674917
50
357.4748886
51
0.0231117
0
ARC
8
DEFAULT_255_1_234
10
5.5076351
20
44.6530679
40
0.2651907
50
359.5047933
51
13.4239635
0
ARC
8
DEFAULT_255_1_234
10
5.5942994
20
44.6752478
40
0.1757509
50
12.9498199
51
48.7551375
0
ARC
8
DEFAULT_255_1_234
10
5.5760728
20
44.65034
40
0.2065134
50
49.5088623
51
72.1836453
0
ARC
8
DEFAULT_255_1_234
10
5.5402881
20
44.5441291
40
0.3185836
50
71.9010081
51
84.3554254
0
ARC
8
DEFAULT_255_1_234
10
5.5241513
20
44.4080326
40
0.4556151
50
84.0193428
51
89.333121
0
LINE
8
DEFAULT_255_1_234
10
4.3086299
20
53.4348211
11
4.5905439
21
52.9866501
0
LINE
8
DEFAULT_255_1_234
10
4.5905439
20
52.9866501
11
4.8708516
21
53.4348211
0
LINE
8
DEFAULT_255_1_234
10
4.8708516
20
53.4348211
11
5.0523689
21
53.4348211
0
LINE
8
DEFAULT_255_1_234
10
5.0523689
20
53.4348211
11
4.6829089
21
52.8549296
0
LINE
8
DEFAULT_255_1_234
10
4.6829089
20
52.8549296
11
5.0612038
21
52.2654
0
LINE
8
DEFAULT_255_1_234
10
5.0612038
20
52.2654
11
4.8780802
21
52.2654
0
LINE
8
DEFAULT_255_1_234
10
4.8780802
20
52.2654
11
4.5905439
21
52.7216027
0
LINE
8
DEFAULT_255_1_234
10
4.5905439
20
52.7216027
11
4.3014014
21
52.2654
0
LINE
8
DEFAULT_255_1_234
10
4.3014014
20
52.2654
11
4.1190809
21
52.2654
0
LINE
8
DEFAULT_255_1_234
10
4.1190809
20
52.2654
11
4.498179
21
52.8549296
0
LINE
8
DEFAULT_255_1_234
10
4.498179
20
52.8549296
11
4.1279158
21
53.4348211
0
LINE
8
DEFAULT_255_1_234
10
4.1279158
20
53.4348211
11
4.3086299
21
53.4348211
0
LINE
8
DEFAULT_255_1_234
10
5.9679871
20
52.3866792
11
5.9679871
21
52.2654
0
LINE
8
DEFAULT_255_1_234
10
5.9679871
20
52.2654
11
5.2017592
21
52.2654
0
LINE
8
DEFAULT_255_1_234
10
5.2017592
20
52.2654
11
5.2017592
21
52.3722221
0
LINE
8
DEFAULT_255_1_234
10
5.2017592
20
52.3722221
11
5.6065588
21
52.8219995
0
LINE
8
DEFAULT_255_1_234
10
5.3278575
20
53.0902595
11
5.1792704
21
53.0902595
0
LINE
8
DEFAULT_255_1_234
10
5.6941048
20
52.7264218
11
5.380867
21
52.3866792
0
LINE
8
DEFAULT_255_1_234
10
5.380867
20
52.3866792
11
5.9679871
21
52.3866792
0
ARC
8
DEFAULT_255_1_234
10
4.2575422
20
54.0149527
40
1.8008286
50
318.5132453
51
320.7828378
0
ARC
8
DEFAULT_255_1_234
10
4.7862396
20
53.5846426
40
1.1191493
50
320.7372736
51
323.9737074
0
ARC
8
DEFAULT_255_1_234
10
5.1782252
20
53.3006361
40
0.6350923
50
323.8961724
51
328.6421089
0
ARC
8
DEFAULT_255_1_234
10
5.3828848
20
53.1744031
40
0.3946393
50
328.8299013
51
331.789948
0
ARC
8
DEFAULT_255_1_234
10
5.4826026
20
53.1229509
40
0.2824501
50
331.4255242
51
352.9364833
0
ARC
8
DEFAULT_255_1_234
10
5.4962527
20
53.1198976
40
0.2685315
50
353.2248685
51
0.0169286
0
ARC
8
DEFAULT_255_1_234
10
5.5172404
20
53.122195
40
0.2475536
50
359.4866256
51
15.9339782
0
ARC
8
DEFAULT_255_1_234
10
5.5679389
20
53.1358286
40
0.1950618
50
16.1714718
51
43.5284424
0
ARC
8
DEFAULT_255_1_234
10
5.5756698
20
53.1435573
40
0.184134
50
43.4415429
51
83.1661404
0
ARC
8
DEFAULT_255_1_234
10
5.5622616
20
53.0698771
40
0.258926
50
82.160215
51
90.1505798
0
ARC
8
DEFAULT_255_1_234
10
5.5591043
20
53.0161865
40
0.3126255
50
89.5460705
51
102.5418777
0
ARC
8
DEFAULT_255_1_234
10
5.5348129
20
53.1192665
40
0.2067346
50
102.1739365
51
129.2061916
0
ARC
8
DEFAULT_255_1_234
10
5.5269201
20
53.1317094
40
0.1921118
50
129.7279328
51
135.7542026
0
ARC
8
DEFAULT_255_1_234
10
5.5390729
20
53.1220045
40
0.2075944
50
136.175737
51
166.3674722
0
ARC
8
DEFAULT_255_1_234
10
5.6397648
20
53.0950182
40
0.3118201
50
165.9092917
51
178.8683903
0
ARC
8
DEFAULT_255_1_234
10
5.7262509
20
53.0903179
40
0.3983935
50
178.438168
51
180.0083905
0
ARC
8
DEFAULT_255_1_234
10
5.5861111
20
53.0942231
40
0.4068601
50
163.2878735
51
180.5581814
0
ARC
8
DEFAULT_255_1_234
10
5.5059373
20
53.116284
40
0.3237344
50
133.454115
51
162.9470031
0
ARC
8
DEFAULT_255_1_234
10
5.5237914
20
53.0973
40
0.349795
50
100.7869394
51
133.4384016
0
ARC
8
DEFAULT_255_1_234
10
5.5585686
20
52.9424319
40
0.5084616
50
89.6605301
51
101.3704185
0
ARC
8
DEFAULT_255_1_234
10
5.5652024
20
52.9485496
40
0.502348
50
78.2171172
51
90.4130393
0
ARC
8
DEFAULT_255_1_234
10
5.6007103
20
53.1109637
40
0.3361092
50
55.9268222
51
78.4888551
0
ARC
8
DEFAULT_255_1_234
10
5.6203543
20
53.1448324
40
0.2970617
50
47.9292255
51
55.4054003
0
ARC
8
DEFAULT_255_1_234
10
5.6305103
20
53.1551502
40
0.2825983
50
4.3347696
51
48.0560701
0
ARC
8
DEFAULT_255_1_234
10
5.5209497
20
53.1381601
40
0.393225
50
359.925209
51
5.5967654
0
ARC
8
DEFAULT_255_1_234
10
5.5638389
20
53.1437816
40
0.3503892
50
337.8914096
51
358.9967724
0
ARC
8
DEFAULT_255_1_234
10
5.2924801
20
53.2484706
40
0.6412172
50
326.9135351
51
338.3505194
0
ARC
8
DEFAULT_255_1_234
10
4.8939105
20
53.5039284
40
1.1146189
50
319.6472867
51
327.095818
0
ARC
8
DEFAULT_255_1_234
10
4.5106108
20
53.8201
40
1.6114559
50
317.2586784
51
319.9046139
0
LINE
8
DEFAULT_255_1_234
10
4.3002299
20
61.3723211
11
4.5821439
21
60.9241501
0
LINE
8
DEFAULT_255_1_234
10
4.5821439
20
60.9241501
11
4.8624516
21
61.3723211
0
LINE
8
DEFAULT_255_1_234
10
4.8624516
20
61.3723211
11
5.0439689
21
61.3723211
0
LINE
8
DEFAULT_255_1_234
10
5.0439689
20
61.3723211
11
4.6745089
21
60.7924296
0
LINE
8
DEFAULT_255_1_234
10
4.6745089
20
60.7924296
11
5.0528038
21
60.2029
0
LINE
8
DEFAULT_255_1_234
10
5.0528038
20
60.2029
11
4.8696802
21
60.2029
0
LINE
8
DEFAULT_255_1_234
10
4.8696802
20
60.2029
11
4.5821439
21
60.6591027
0
LINE
8
DEFAULT_255_1_234
10
4.5821439
20
60.6591027
11
4.2930014
21
60.2029
0
LINE
8
DEFAULT_255_1_234
10
4.2930014
20
60.2029
11
4.1106809
21
60.2029
0
LINE
8
DEFAULT_255_1_234
10
4.1106809
20
60.2029
11
4.489779
21
60.7924296
0
LINE
8
DEFAULT_255_1_234
10
4.489779
20
60.7924296
11
4.1195158
21
61.3723211
0
LINE
8
DEFAULT_255_1_234
10
4.1195158
20
61.3723211
11
4.3002299
21
61.3723211
0
LINE
8
DEFAULT_255_1_234
10
5.6816889
20
61.3779433
11
5.6816889
21
60.2029
0
LINE
8
DEFAULT_255_1_234
10
5.6816889
20
60.2029
11
5.5322986
21
60.2029
0
LINE
8
DEFAULT_255_1_234
10
5.5322986
20
60.2029
11
5.5322986
21
61.1932133
0
LINE
8
DEFAULT_255_1_234
10
5.5322986
20
61.1932133
11
5.2327147
21
61.0831785
0
LINE
8
DEFAULT_255_1_234
10
5.2327147
20
61.0831785
11
5.2327147
21
61.2181117
0
LINE
8
DEFAULT_255_1_234
10
5.2327147
20
61.2181117
11
5.6583969
21
61.3779433
0
LINE
8
DEFAULT_255_1_234
10
5.6583969
20
61.3779433
11
5.6816889
21
61.3779433
0
LINE
8
DEFAULT_255_1_234
10
4.5349344
20
68.5982091
11
4.2594458
21
68.5982091
0
LINE
8
DEFAULT_255_1_234
10
4.2594458
20
68.5982091
11
4.2594458
21
68.1404
0
LINE
8
DEFAULT_255_1_234
10
4.2594458
20
68.1404
11
4.1052364
21
68.1404
0
LINE
8
DEFAULT_255_1_234
10
4.1052364
20
68.1404
11
4.1052364
21
69.3098211
0
LINE
8
DEFAULT_255_1_234
10
4.1052364
20
69.3098211
11
4.5365407
21
69.3098211
0
LINE
8
DEFAULT_255_1_234
10
4.2594458
20
69.1829196
11
4.2594458
21
68.7243074
0
LINE
8
DEFAULT_255_1_234
10
4.2594458
20
68.7243074
11
4.5365407
21
68.7243074
0
LINE
8
DEFAULT_255_1_234
10
4.5453756
20
69.1829196
11
4.2594458
21
69.1829196
0
ARC
8
DEFAULT_255_1_234
10
4.5407534
20
68.7039195
40
0.6059162
50
78.8378113
51
90.3983573
0
ARC
8
DEFAULT_255_1_234
10
4.5823548
20
68.9059879
40
0.3996205
50
58.9632738
51
79.0810598
0
ARC
8
DEFAULT_255_1_234
10
4.612509
20
68.9619721
40
0.3361177
50
48.0197965
51
58.447194
0
ARC
8
DEFAULT_255_1_234
10
4.6213951
20
68.9705225
40
0.3238191
50
3.3375044
51
48.1766626
0
ARC
8
DEFAULT_255_1_234
10
4.498379
20
68.9528171
40
0.4477806
50
359.9477528
51
4.6829065
0
ARC
8
DEFAULT_255_1_234
10
4.5107107
20
68.9485628
40
0.4354656
50
346.1877825
51
0.5060252
0
ARC
8
DEFAULT_255_1_234
10
4.6465975
20
68.9132731
40
0.295089
50
310.8831995
51
346.5426355
0
ARC
8
DEFAULT_255_1_234
10
4.6157395
20
68.9549695
40
0.3468331
50
286.6925341
51
310.2288297
0
ARC
8
DEFAULT_255_1_234
10
4.5588226
20
69.1339882
40
0.5346654
50
274.6850312
51
287.0245141
0
ARC
8
DEFAULT_255_1_234
10
4.5362949
20
69.3548932
40
0.7566852
50
269.8969846
51
275.018904
0
ARC
8
DEFAULT_255_1_234
10
4.539054
20
69.1469707
40
0.4226708
50
269.6593078
51
279.4153575
0
ARC
8
DEFAULT_255_1_234
10
4.5647815
20
68.9979133
40
0.2714146
50
279.2049762
51
294.9900808
0
ARC
8
DEFAULT_255_1_234
10
4.5938141
20
68.9331508
40
0.2004525
50
295.2888114
51
311.2911209
0
ARC
8
DEFAULT_255_1_234
10
4.6009035
20
68.922622
40
0.1878703
50
311.7854996
51
347.2861051
0
ARC
8
DEFAULT_255_1_234
10
4.5025194
20
68.9479092
40
0.2894234
50
346.6893224
51
0.1059443
0
ARC
8
DEFAULT_255_1_234
10
4.4270089
20
68.9507685
40
0.3649409
50
359.6350983
51
0.0053152
0
ARC
8
DEFAULT_255_1_234
10
4.5240417
20
68.9532937
40
0.2679199
50
359.4672059
51
15.5933957
0
ARC
8
DEFAULT_255_1_234
10
4.5865306
20
68.9701779
40
0.2031932
50
15.7442113
51
46.6203375
0
ARC
8
DEFAULT_255_1_234
10
4.5717527
20
68.9531484
40
0.2257226
50
46.8628658
51
75.6676503
0
ARC
8
DEFAULT_255_1_234
10
4.5423347
20
68.8472718
40
0.3355939
50
75.276167
51
88.2915297
0
ARC
8
DEFAULT_255_1_234
10
4.5365054
20
68.7594524
40
0.4235602
50
87.8575022
51
88.8000139
0
LINE
8
DEFAULT_255_1_234
10
5.8706125
20
68.2616792
11
5.8706125
21
68.1404
0
LINE
8
DEFAULT_255_1_234
10
5.8706125
20
68.1404
11
5.1043846
21
68.1404
0
LINE
8
DEFAULT_255_1_234
10
5.1043846
20
68.1404
11
5.1043846
21
68.2472221
0
LINE
8
DEFAULT_255_1_234
10
5.1043846
20
68.2472221
11
5.5091842
21
68.6969995
0
LINE
8
DEFAULT_255_1_234
10
5.2304829
20
68.9652595
11
5.0818958
21
68.9652595
0
LINE
8
DEFAULT_255_1_234
10
5.5967302
20
68.6014218
11
5.2834924
21
68.2616792
0
LINE
8
DEFAULT_255_1_234
10
5.2834924
20
68.2616792
11
5.8706125
21
68.2616792
0
ARC
8
DEFAULT_255_1_234
10
4.1601676
20
69.8899527
40
1.8008286
50
318.5132453
51
320.7828378
0
ARC
8
DEFAULT_255_1_234
10
4.688865
20
69.4596426
40
1.1191493
50
320.7372736
51
323.9737074
0
ARC
8
DEFAULT_255_1_234
10
5.0808506
20
69.1756361
40
0.6350923
50
323.8961724
51
328.6421089
0
ARC
8
DEFAULT_255_1_234
10
5.2855102
20
69.0494031
40
0.3946393
50
328.8299013
51
331.789948
0
ARC
8
DEFAULT_255_1_234
10
5.385228
20
68.9979509
40
0.2824501
50
331.4255242
51
352.9364833
0
ARC
8
DEFAULT_255_1_234
10
5.3988781
20
68.9948976
40
0.2685315
50
353.2248685
51
0.0169286
0
ARC
8
DEFAULT_255_1_234
10
5.4198658
20
68.997195
40
0.2475536
50
359.4866256
51
15.9339782
0
ARC
8
DEFAULT_255_1_234
10
5.4705643
20
69.0108286
40
0.1950618
50
16.1714718
51
43.5284424
0
ARC
8
DEFAULT_255_1_234
10
5.4782952
20
69.0185573
40
0.184134
50
43.4415429
51
83.1661404
0
ARC
8
DEFAULT_255_1_234
10
5.464887
20
68.9448771
40
0.258926
50
82.160215
51
90.1505798
0
ARC
8
DEFAULT_255_1_234
10
5.4617297
20
68.8911865
40
0.3126255
50
89.5460705
51
102.5418777
0
ARC
8
DEFAULT_255_1_234
10
5.4374383
20
68.9942665
40
0.2067346
50
102.1739365
51
129.2061916
0
ARC
8
DEFAULT_255_1_234
10
5.4295455
20
69.0067094
40
0.1921118
50
129.7279328
51
135.7542026
0
ARC
8
DEFAULT_255_1_234
10
5.4416983
20
68.9970045
40
0.2075944
50
136.175737
51
166.3674722
0
ARC
8
DEFAULT_255_1_234
10
5.5423902
20
68.9700182
40
0.3118201
50
165.9092917
51
178.8683903
0
ARC
8
DEFAULT_255_1_234
10
5.6288763
20
68.9653179
40
0.3983935
50
178.438168
51
180.0083905
0
ARC
8
DEFAULT_255_1_234
10
5.4887365
20
68.9692231
40
0.4068601
50
163.2878735
51
180.5581814
0
ARC
8
DEFAULT_255_1_234
10
5.4085627
20
68.991284
40
0.3237344
50
133.454115
51
162.9470031
0
ARC
8
DEFAULT_255_1_234
10
5.4264168
20
68.9723
40
0.349795
50
100.7869394
51
133.4384016
0
ARC
8
DEFAULT_255_1_234
10
5.4611939
20
68.8174319
40
0.5084616
50
89.6605301
51
101.3704185
0
ARC
8
DEFAULT_255_1_234
10
5.4678278
20
68.8235496
40
0.502348
50
78.2171172
51
90.4130393
0
ARC
8
DEFAULT_255_1_234
10
5.5033357
20
68.9859637
40
0.3361092
50
55.9268222
51
78.4888551
0
ARC
8
DEFAULT_255_1_234
10
5.5229797
20
69.0198324
40
0.2970617
50
47.9292255
51
55.4054003
0
ARC
8
DEFAULT_255_1_234
10
5.5331357
20
69.0301502
40
0.2825983
50
4.3347696
51
48.0560701
0
ARC
8
DEFAULT_255_1_234
10
5.4235751
20
69.0131601
40
0.393225
50
359.925209
51
5.5967654
0
ARC
8
DEFAULT_255_1_234
10
5.4664643
20
69.0187816
40
0.3503892
50
337.8914096
51
358.9967724
0
ARC
8
DEFAULT_255_1_234
10
5.1951055
20
69.1234706
40
0.6412172
50
326.9135351
51
338.3505194
0
ARC
8
DEFAULT_255_1_234
10
4.7965359
20
69.3789284
40
1.1146189
50
319.6472867
51
327.095818
0
ARC
8
DEFAULT_255_1_234
10
4.4132362
20
69.6951
40
1.6114559
50
317.2586784
51
319.9046139
0
LINE
8
DEFAULT_255_1_234
10
4.5261344
20
76.5357091
11
4.2506458
21
76.5357091
0
LINE
8
DEFAULT_255_1_234
10
4.2506458
20
76.5357091
11
4.2506458
21
76.0779
0
LINE
8
DEFAULT_255_1_234
10
4.2506458
20
76.0779
11
4.0964364
21
76.0779
0
LINE
8
DEFAULT_255_1_234
10
4.0964364
20
76.0779
11
4.0964364
21
77.2473211
0
LINE
8
DEFAULT_255_1_234
10
4.0964364
20
77.2473211
11
4.5277407
21
77.2473211
0
LINE
8
DEFAULT_255_1_234
10
4.2506458
20
77.1204196
11
4.2506458
21
76.6618074
0
LINE
8
DEFAULT_255_1_234
10
4.2506458
20
76.6618074
11
4.5277407
21
76.6618074
0
LINE
8
DEFAULT_255_1_234
10
4.5365756
20
77.1204196
11
4.2506458
21
77.1204196
0
ARC
8
DEFAULT_255_1_234
10
4.5319534
20
76.6414195
40
0.6059162
50
78.8378113
51
90.3983573
0
ARC
8
DEFAULT_255_1_234
10
4.5735548
20
76.8434879
40
0.3996205
50
58.9632738
51
79.0810598
0
ARC
8
DEFAULT_255_1_234
10
4.603709
20
76.8994721
40
0.3361177
50
48.0197965
51
58.447194
0
ARC
8
DEFAULT_255_1_234
10
4.6125951
20
76.9080225
40
0.3238191
50
3.3375044
51
48.1766626
0
ARC
8
DEFAULT_255_1_234
10
4.489579
20
76.8903171
40
0.4477806
50
359.9477528
51
4.6829065
0
ARC
8
DEFAULT_255_1_234
10
4.5019107
20
76.8860628
40
0.4354656
50
346.1877825
51
0.5060252
0
ARC
8
DEFAULT_255_1_234
10
4.6377975
20
76.8507731
40
0.295089
50
310.8831995
51
346.5426355
0
ARC
8
DEFAULT_255_1_234
10
4.6069395
20
76.8924695
40
0.3468331
50
286.6925341
51
310.2288297
0
ARC
8
DEFAULT_255_1_234
10
4.5500226
20
77.0714882
40
0.5346654
50
274.6850312
51
287.0245141
0
ARC
8
DEFAULT_255_1_234
10
4.5274949
20
77.2923932
40
0.7566852
50
269.8969846
51
275.018904
0
ARC
8
DEFAULT_255_1_234
10
4.530254
20
77.0844707
40
0.4226708
50
269.6593078
51
279.4153575
0
ARC
8
DEFAULT_255_1_234
10
4.5559815
20
76.9354133
40
0.2714146
50
279.2049762
51
294.9900808
0
ARC
8
DEFAULT_255_1_234
10
4.5850141
20
76.8706508
40
0.2004525
50
295.2888114
51
311.2911209
0
ARC
8
DEFAULT_255_1_234
10
4.5921035
20
76.860122
40
0.1878703
50
311.7854996
51
347.2861051
0
ARC
8
DEFAULT_255_1_234
10
4.4937194
20
76.8854092
40
0.2894234
50
346.6893224
51
0.1059443
0
ARC
8
DEFAULT_255_1_234
10
4.4182089
20
76.8882685
40
0.3649409
50
359.6350983
51
0.0053152
0
ARC
8
DEFAULT_255_1_234
10
4.5152417
20
76.8907937
40
0.2679199
50
359.4672059
51
15.5933957
0
ARC
8
DEFAULT_255_1_234
10
4.5777306
20
76.9076779
40
0.2031932
50
15.7442113
51
46.6203375
0
ARC
8
DEFAULT_255_1_234
10
4.5629527
20
76.8906484
40
0.2257226
50
46.8628658
51
75.6676503
0
ARC
8
DEFAULT_255_1_234
10
4.5335347
20
76.7847718
40
0.3355939
50
75.276167
51
88.2915297
0
ARC
8
DEFAULT_255_1_234
10
4.5277054
20
76.6969524
40
0.4235602
50
87.8575022
51
88.8000139
0
LINE
8
DEFAULT_255_1_234
10
5.5839143
20
77.2529433
11
5.5839143
21
76.0779
0
LINE
8
DEFAULT_255_1_234
10
5.5839143
20
76.0779
11
5.434524
21
76.0779
0
LINE
8
DEFAULT_255_1_234
10
5.434524
20
76.0779
11
5.434524
21
77.0682133
0
LINE
8
DEFAULT_255_1_234
10
5.434524
20
77.0682133
11
5.1349401
21
76.9581785
0
LINE
8
DEFAULT_255_1_234
10
5.1349401
20
76.9581785
11
5.1349401
21
77.0931117
0
LINE
8
DEFAULT_255_1_234
10
5.1349401
20
77.0931117
11
5.5606223
21
77.2529433
0
LINE
8
DEFAULT_255_1_234
10
5.5606223
20
77.2529433
11
5.5839143
21
77.2529433
0
LINE
8
DEFAULT_255_1_234
10
22.5118137
20
85.1904433
11
22.5118137
21
84.0154
0
LINE
8
DEFAULT_255_1_234
10
22.5118137
20
84.0154
11
22.3624234
21
84.0154
0
LINE
8
DEFAULT_255_1_234
10
22.3624234
20
84.0154
11
22.3624234
21
85.0057133
0
LINE
8
DEFAULT_255_1_234
10
22.3624234
20
85.0057133
11
22.0628396
21
84.8956785
0
LINE
8
DEFAULT_255_1_234
10
22.0628396
20
84.8956785
11
22.0628396
21
85.0306117
0
LINE
8
DEFAULT_255_1_234
10
22.0628396
20
85.0306117
11
22.4885217
21
85.1904433
0
LINE
8
DEFAULT_255_1_234
10
22.4885217
20
85.1904433
11
22.5118137
21
85.1904433
0
LINE
8
DEFAULT_255_1_234
10
22.9856863
20
85.1848211
11
23.1848734
21
85.1848211
0
LINE
8
DEFAULT_255_1_234
10
23.1848734
20
85.1848211
11
23.5671841
21
84.2306506
0
LINE
8
DEFAULT_255_1_234
10
23.5671841
20
84.2306506
11
23.9494949
21
85.1848211
0
LINE
8
DEFAULT_255_1_234
10
23.9494949
20
85.1848211
11
24.1494852
21
85.1848211
0
LINE
8
DEFAULT_255_1_234
10
24.1494852
20
85.1848211
11
24.1494852
21
84.0154
0
LINE
8
DEFAULT_255_1_234
10
24.1494852
20
84.0154
11
23.9952758
21
84.0154
0
LINE
8
DEFAULT_255_1_234
10
23.9952758
20
84.0154
11
23.9952758
21
84.4707996
0
LINE
8
DEFAULT_255_1_234
10
23.9952758
20
84.4707996
11
24.0097329
21
84.9623419
0
LINE
8
DEFAULT_255_1_234
10
24.0097329
20
84.9623419
11
23.6258158
21
84.0154
0
LINE
8
DEFAULT_255_1_234
10
23.6258158
20
84.0154
11
23.5077493
21
84.0154
0
LINE
8
DEFAULT_255_1_234
10
23.5077493
20
84.0154
11
23.1246354
21
84.9599324
0
LINE
8
DEFAULT_255_1_234
10
23.1246354
20
84.9599324
11
23.1398957
21
84.4707996
0
LINE
8
DEFAULT_255_1_234
10
23.1398957
20
84.4707996
11
23.1398957
21
84.0154
0
LINE
8
DEFAULT_255_1_234
10
23.1398957
20
84.0154
11
22.9856863
21
84.0154
0
LINE
8
DEFAULT_255_1_234
10
22.9856863
20
84.0154
11
22.9856863
21
85.1848211
0
ENDSEC
0
EOF