0
SECTION
2
HEADER
9
$MEASUREMENT
70
1
0
ENDSEC
0
SECTION
2
TABLES
0
TABLE
2
LTYPE
0
LTYPE
72
65
70
64
2
CONTINUOUS
3
______
73
0
40
0
0
ENDTAB
0
TABLE
2
LAYER
0
LAYER
2
DEFAULT_255_2_778
70
0
62
255
6
CONTINUOUS
0
LAYER
2
DEFAULT_255_1_388
70
0
62
255
6
CONTINUOUS
0
ENDTAB
0
ENDSEC
0
SECTION
2
ENTITIES
0
ARC
8
DEFAULT_255_2_778
10
3.5695693
20
91.6802028
40
0.7914215
50
129.1312896
51
180.1450914
0
ARC
8
DEFAULT_255_2_778
10
3.5698345
20
91.6806899
40
0.7912112
50
89.854026
51
129.1684493
0
ARC
8
DEFAULT_255_2_778
10
25.7988937
20
91.6803765
40
0.7915249
50
39.4792447
51
90.147911
0
ARC
8
DEFAULT_255_2_778
10
25.7994935
20
91.6802231
40
0.7911595
50
359.8533901
51
39.5154338
0
ARC
8
DEFAULT_255_2_778
10
25.7991693
20
-1.9863495
40
0.7914836
50
309.4761667
51
0.1482649
0
ARC
8
DEFAULT_255_2_778
10
25.798898
20
-1.9867805
40
0.7913235
50
269.8517415
51
309.511178
0
ARC
8
DEFAULT_255_2_778
10
3.569842
20
-1.9867224
40
0.7913815
50
219.1282118
51
270.1454017
0
ARC
8
DEFAULT_255_2_778
10
3.5695247
20
-1.9863399
40
0.7913769
50
179.8524075
51
219.1641908
0
LINE
8
DEFAULT_255_2_778
10
3.5718503
20
92.4718987
11
25.7968503
21
92.4718987
0
LINE
8
DEFAULT_255_2_778
10
26.5906503
20
91.6781987
11
26.5906503
21
-1.9843013
0
LINE
8
DEFAULT_255_2_778
10
25.7968503
20
-2.7781013
11
3.5718503
21
-2.7781013
0
LINE
8
DEFAULT_255_2_778
10
2.7781503
20
-1.9843013
11
2.7781503
21
91.6781987
0
LINE
8
DEFAULT_255_1_388
10
5.7274015
20
0.6766934
11
5.7572191
21
0.6766934
0
LINE
8
DEFAULT_255_1_388
10
5.7572191
20
0.6766934
11
5.7572191
21
0.5348338
0
LINE
8
DEFAULT_255_1_388
10
5.7572191
20
0.5348338
11
5.7264979
21
0.5348338
0
LINE
8
DEFAULT_255_1_388
10
5.1111705
20
-0.1392253
11
5.1111705
21
-0.0750722
0
LINE
8
DEFAULT_255_1_388
10
5.2792335
20
-0.0967578
11
5.2792335
21
-0.1582001
0
ARC
8
DEFAULT_255_1_388
10
5.7323871
20
-0.0274174
40
0.562282
50
90.6001079
51
104.5146616
0
ARC
8
DEFAULT_255_1_388
10
5.688683
20
0.13511
40
0.3939917
50
104.2855758
51
133.8630124
0
ARC
8
DEFAULT_255_1_388
10
5.7071083
20
0.1229243
40
0.4155734
50
134.5304124
51
161.6210222
0
ARC
8
DEFAULT_255_1_388
10
5.8931015
20
0.0573421
40
0.6127682
50
161.2850533
51
174.2074364
0
ARC
8
DEFAULT_255_1_388
10
6.0520582
20
0.0354437
40
0.7731446
50
173.7817938
51
174.9251711
0
ARC
8
DEFAULT_255_1_388
10
5.5394775
20
-0.120073
40
0.3412588
50
95.8332067
51
138.995412
0
ARC
8
DEFAULT_255_1_388
10
5.5646056
20
-0.2639305
40
0.4870358
50
89.8755506
51
97.0540979
0
ARC
8
DEFAULT_255_1_388
10
5.5699445
20
-0.1699159
40
0.3930432
50
71.6407016
51
90.6240821
0
ARC
8
DEFAULT_255_1_388
10
5.5868838
20
-0.1075567
40
0.3285421
50
39.6368051
51
71.0190743
0
ARC
8
DEFAULT_255_1_388
10
5.5152746
20
-0.1694414
40
0.4231706
50
10.6588054
51
39.9044509
0
ARC
8
DEFAULT_255_1_388
10
5.3411291
20
-0.2072777
40
0.60133
50
359.6827842
51
11.1326896
0
ARC
8
DEFAULT_255_1_388
10
5.3366627
20
-0.2152285
40
0.6058047
50
347.2485908
51
0.4371098
0
ARC
8
DEFAULT_255_1_388
10
5.5242413
20
-0.2603621
40
0.4128987
50
318.1408565
51
347.6118497
0
ARC
8
DEFAULT_255_1_388
10
5.5608009
20
-0.2904097
40
0.3656244
50
275.6342406
51
317.824739
0
ARC
8
DEFAULT_255_1_388
10
5.535953
20
-0.1442173
40
0.513655
50
269.8872513
51
276.7916069
0
ARC
8
DEFAULT_255_1_388
10
5.5297723
20
-0.2595819
40
0.398323
50
246.9139443
51
270.7436787
0
ARC
8
DEFAULT_255_1_388
10
5.5304919
20
-0.2755956
40
0.3839368
50
218.1665534
51
245.8780431
0
ARC
8
DEFAULT_255_1_388
10
5.6294291
20
-0.1928097
40
0.5128958
50
191.4115343
51
218.6077624
0
ARC
8
DEFAULT_255_1_388
10
5.8474607
20
-0.1439223
40
0.7363054
50
179.6344971
51
191.7836758
0
ARC
8
DEFAULT_255_1_388
10
6.4754482
20
-0.0675505
40
1.3642984
50
171.4523743
51
180.3158856
0
ARC
8
DEFAULT_255_1_388
10
5.9810209
20
0.0093895
40
0.8639311
50
157.9802296
51
171.6246761
0
ARC
8
DEFAULT_255_1_388
10
5.7319559
20
0.1087038
40
0.5958004
50
141.4299236
51
157.8541251
0
ARC
8
DEFAULT_255_1_388
10
5.6597643
20
0.1597746
40
0.5075416
50
102.871586
51
140.8564533
0
ARC
8
DEFAULT_255_1_388
10
5.7326195
20
-0.1147057
40
0.7914163
50
90.377773
51
103.5868422
0
ARC
8
DEFAULT_255_1_388
10
5.5370717
20
-0.1827457
40
0.2667015
50
89.8751238
51
126.2072139
0
ARC
8
DEFAULT_255_1_388
10
5.5422188
20
-0.2001153
40
0.2838229
50
124.9742447
51
144.8960197
0
ARC
8
DEFAULT_255_1_388
10
5.5224433
20
-0.1840019
40
0.2583845
50
145.2974778
51
160.2660922
0
ARC
8
DEFAULT_255_1_388
10
5.8680921
20
-0.1617849
40
0.5888695
50
179.6512124
51
190.285571
0
ARC
8
DEFAULT_255_1_388
10
5.6775401
20
-0.1977032
40
0.3949683
50
190.0944895
51
207.5099647
0
ARC
8
DEFAULT_255_1_388
10
5.6138982
20
-0.2279823
40
0.3245464
50
207.9585471
51
216.325377
0
ARC
8
DEFAULT_255_1_388
10
5.5756619
20
-0.2594288
40
0.2751259
50
215.7661336
51
232.5457193
0
ARC
8
DEFAULT_255_1_388
10
5.5325735
20
-0.3141727
40
0.2054668
50
232.8005815
51
270.6605497
0
ARC
8
DEFAULT_255_1_388
10
5.537716
20
-0.2732147
40
0.2464268
50
269.3550767
51
288.474612
0
ARC
8
DEFAULT_255_1_388
10
5.5481667
20
-0.3125279
40
0.2058436
50
289.1831976
51
322.9685307
0
ARC
8
DEFAULT_255_1_388
10
5.4793768
20
-0.2582721
40
0.2934408
50
322.6007085
51
346.5183319
0
ARC
8
DEFAULT_255_1_388
10
5.3491524
20
-0.2250566
40
0.4278249
50
346.2584622
51
358.7739592
0
ARC
8
DEFAULT_255_1_388
10
5.23401
20
-0.2188171
40
0.5430876
50
358.3757628
51
0.0082477
0
ARC
8
DEFAULT_255_1_388
10
5.3196918
20
-0.2157144
40
0.4574157
50
359.6211417
51
11.28403
0
ARC
8
DEFAULT_255_1_388
10
5.4633524
20
-0.1857465
40
0.3106708
50
11.0483152
51
31.8145585
0
ARC
8
DEFAULT_255_1_388
10
5.4981229
20
-0.1668955
40
0.2711963
50
32.3028554
51
38.0820598
0
ARC
8
DEFAULT_255_1_388
10
5.5454462
20
-0.1240283
40
0.2075566
50
36.8249851
51
85.741667
0
ARC
8
DEFAULT_255_1_388
10
5.5378875
20
-0.1803935
40
0.2643487
50
85.0150021
51
90.050843
0
LINE
8
DEFAULT_255_1_388
10
6.9273351
20
0.1101585
11
6.9273351
21
-0.0317011
0
LINE
8
DEFAULT_255_1_388
10
6.9273351
20
-0.0317011
11
6.3571859
21
-0.0317011
0
LINE
8
DEFAULT_255_1_388
10
6.3571859
20
-0.0317011
11
6.3571859
21
-0.4979404
0
LINE
8
DEFAULT_255_1_388
10
6.3571859
20
-0.4979404
11
7.0194986
21
-0.4979404
0
LINE
8
DEFAULT_255_1_388
10
7.0194986
20
-0.4979404
11
7.0194986
21
-0.6398
0
LINE
8
DEFAULT_255_1_388
10
7.0194986
20
-0.6398
11
6.1837015
21
-0.6398
0
LINE
8
DEFAULT_255_1_388
10
6.1837015
20
-0.6398
11
6.1837015
21
0.6757898
0
LINE
8
DEFAULT_255_1_388
10
6.1837015
20
0.6757898
11
7.010463
21
0.6757898
0
LINE
8
DEFAULT_255_1_388
10
7.010463
20
0.6757898
11
7.010463
21
0.5330267
0
LINE
8
DEFAULT_255_1_388
10
7.010463
20
0.5330267
11
6.3571859
21
0.5330267
0
LINE
8
DEFAULT_255_1_388
10
6.3571859
20
0.5330267
11
6.3571859
21
0.1101585
0
LINE
8
DEFAULT_255_1_388
10
6.3571859
20
0.1101585
11
6.9273351
21
0.1101585
0
LINE
8
DEFAULT_255_1_388
10
8.1082938
20
0.2953892
11
7.9339059
21
0.2953892
0
LINE
8
DEFAULT_255_1_388
10
7.1550333
20
-0.2584958
11
7.3294212
21
-0.2584958
0
ARC
8
DEFAULT_255_1_388
10
8.0079786
20
1.3017821
40
1.4087688
50
248.9196578
51
254.1442424
0
ARC
8
DEFAULT_255_1_388
10
7.8189666
20
0.8151805
40
0.8867498
50
241.6337352
51
249.0064643
0
ARC
8
DEFAULT_255_1_388
10
7.6469979
20
0.5000764
40
0.5277799
50
230.4982261
51
241.8087583
0
ARC
8
DEFAULT_255_1_388
10
7.558775
20
0.3876686
40
0.3849419
50
227.4062979
51
229.9877433
0
ARC
8
DEFAULT_255_1_388
10
7.5039097
20
0.3341155
40
0.3084129
50
200.6782127
51
228.1765252
0
ARC
8
DEFAULT_255_1_388
10
7.5120466
20
0.3324277
40
0.315461
50
179.506278
51
199.8695278
0
ARC
8
DEFAULT_255_1_388
10
7.5110054
20
0.3407671
40
0.3144584
50
132.4834401
51
181.0242352
0
ARC
8
DEFAULT_255_1_388
10
7.5779259
20
0.2775788
40
0.4063094
50
129.2526113
51
133.4249077
0
ARC
8
DEFAULT_255_1_388
10
7.5944851
20
0.2527619
40
0.436014
50
101.9878945
51
128.8741833
0
ARC
8
DEFAULT_255_1_388
10
7.6393267
20
0.059136
40
0.6347415
50
89.5906376
51
102.3170567
0
ARC
8
DEFAULT_255_1_388
10
7.6472578
20
0.0949586
40
0.5989122
50
77.2359491
51
90.3248968
0
ARC
8
DEFAULT_255_1_388
10
7.6705509
20
0.2037554
40
0.4876594
50
63.8379856
51
77.0808925
0
ARC
8
DEFAULT_255_1_388
10
7.7018043
20
0.2619882
40
0.4216191
50
45.9863127
51
64.1608798
0
ARC
8
DEFAULT_255_1_388
10
7.7311436
20
0.295499
40
0.3771394
50
32.2747934
51
45.6544796
0
ARC
8
DEFAULT_255_1_388
10
7.7386243
20
0.2976426
40
0.3696765
50
359.6507495
51
32.6129943
0
ARC
8
DEFAULT_255_1_388
10
7.6325425
20
0.2981788
40
0.3013762
50
359.469654
51
14.983205
0
ARC
8
DEFAULT_255_1_388
10
7.7118678
20
0.3194288
40
0.2192542
50
14.9781954
51
48.2004799
0
ARC
8
DEFAULT_255_1_388
10
7.6933788
20
0.2961937
40
0.2489048
50
48.5926661
51
74.1242559
0
ARC
8
DEFAULT_255_1_388
10
7.6558591
20
0.1723607
40
0.3782845
50
73.7889321
51
86.6653996
0
ARC
8
DEFAULT_255_1_388
10
7.6443405
20
0.0365955
40
0.5145025
50
86.2642725
51
90.0533288
0
ARC
8
DEFAULT_255_1_388
10
7.6411498
20
0.0810376
40
0.4700681
50
89.669455
51
99.2313411
0
ARC
8
DEFAULT_255_1_388
10
7.6138658
20
0.2435401
40
0.3052945
50
99.0695987
51
113.7659242
0
ARC
8
DEFAULT_255_1_388
10
7.5830652
20
0.3161772
40
0.226407
50
114.0402885
51
127.9848946
0
ARC
8
DEFAULT_255_1_388
10
7.5560129
20
0.3494884
40
0.1835045
50
127.7287217
51
176.7106493
0
ARC
8
DEFAULT_255_1_388
10
7.6323794
20
0.338121
40
0.2604907
50
175.1780759
51
180.0581213
0
ARC
8
DEFAULT_255_1_388
10
7.5375137
20
0.3367411
40
0.1656287
50
179.6140658
51
228.124674
0
ARC
8
DEFAULT_255_1_388
10
7.5872495
20
0.382794
40
0.2332038
50
226.5785315
51
230.8792476
0
ARC
8
DEFAULT_255_1_388
10
7.6401981
20
0.4530908
40
0.3211664
50
231.4636401
51
241.9261664
0
ARC
8
DEFAULT_255_1_388
10
7.7748765
20
0.7009349
40
0.6032345
50
241.7177136
51
248.3259138
0
ARC
8
DEFAULT_255_1_388
10
7.9307359
20
1.0870771
40
1.0196417
50
248.2007377
51
252.4527713
0
ARC
8
DEFAULT_255_1_388
10
8.0660886
20
1.5055092
40
1.4594143
50
252.3388938
51
254.347037
0
ARC
8
DEFAULT_255_1_388
10
7.2176187
20
-1.5292905
40
1.6917621
50
71.0197462
51
74.4085467
0
ARC
8
DEFAULT_255_1_388
10
7.4083275
20
-0.9787856
40
1.1091618
50
66.1845203
51
71.086519
0
ARC
8
DEFAULT_255_1_388
10
7.5833823
20
-0.5846561
40
0.6779073
50
59.3537334
51
66.269255
0
ARC
8
DEFAULT_255_1_388
10
7.6833549
20
-0.4155223
40
0.4814366
50
49.1021732
51
59.3294421
0
ARC
8
DEFAULT_255_1_388
10
7.7754538
20
-0.3105425
40
0.3417875
50
32.7924183
51
49.2503526
0
ARC
8
DEFAULT_255_1_388
10
7.8104152
20
-0.2855689
40
0.2988789
50
31.121225
51
32.3977355
0
ARC
8
DEFAULT_255_1_388
10
7.801633
20
-0.2888272
40
0.3080861
50
8.1116803
51
30.7958224
0
ARC
8
DEFAULT_255_1_388
10
7.7104675
20
-0.3043563
40
0.4005385
50
359.8390945
51
8.4707348
0
ARC
8
DEFAULT_255_1_388
10
7.7808723
20
-0.3098249
40
0.3301608
50
337.4732479
51
0.7538283
0
ARC
8
DEFAULT_255_1_388
10
7.8009748
20
-0.3120446
40
0.3107929
50
307.5917028
51
336.4313755
0
ARC
8
DEFAULT_255_1_388
10
7.7498806
20
-0.2552491
40
0.3870096
50
307.6560665
51
308.4561779
0
ARC
8
DEFAULT_255_1_388
10
7.7233022
20
-0.2144168
40
0.435591
50
284.3733666
51
307.1426212
0
ARC
8
DEFAULT_255_1_388
10
7.6675917
20
-0.0094609
40
0.6479685
50
272.4384566
51
284.6464689
0
ARC
8
DEFAULT_255_1_388
10
7.6533302
20
0.1929434
40
0.8508149
50
269.9708517
51
272.8180721
0
ARC
8
DEFAULT_255_1_388
10
7.6484984
20
-0.0362717
40
0.6216151
50
248.2707343
51
270.4054609
0
ARC
8
DEFAULT_255_1_388
10
7.6423856
20
-0.0577327
40
0.5994203
50
246.1380358
51
248.054058
0
ARC
8
DEFAULT_255_1_388
10
7.5952998
20
-0.1566295
40
0.4899388
50
233.1671897
51
246.4951656
0
ARC
8
DEFAULT_255_1_388
10
7.5329633
20
-0.2407863
40
0.3852115
50
215.3403381
51
233.084328
0
ARC
8
DEFAULT_255_1_388
10
7.5022997
20
-0.2630907
40
0.3472969
50
179.2419235
51
215.2648426
0
ARC
8
DEFAULT_255_1_388
10
7.5886548
20
-0.2615021
40
0.259251
50
179.3355796
51
199.1045873
0
ARC
8
DEFAULT_255_1_388
10
7.551269
20
-0.2712777
40
0.2207454
50
199.8830064
51
232.7061328
0
ARC
8
DEFAULT_255_1_388
10
7.6043965
20
-0.2044544
40
0.306101
50
232.3736206
51
255.5136621
0
ARC
8
DEFAULT_255_1_388
10
7.642747
20
-0.0644823
40
0.4512213
50
255.2447928
51
267.5318292
0
ARC
8
DEFAULT_255_1_388
10
7.6525937
20
0.0741709
40
0.5901825
50
267.1564563
51
270.0294721
0
ARC
8
DEFAULT_255_1_388
10
7.6557263
20
0.0242623
40
0.5402814
50
269.6999944
51
278.1662446
0
ARC
8
DEFAULT_255_1_388
10
7.684529
20
-0.1704026
40
0.3435003
50
278.0229022
51
290.6255326
0
ARC
8
DEFAULT_255_1_388
10
7.7236457
20
-0.2747453
40
0.2320666
50
290.6616368
51
307.0374127
0
ARC
8
DEFAULT_255_1_388
10
7.7574357
20
-0.316196
40
0.1786372
50
306.3942078
51
355.303191
0
ARC
8
DEFAULT_255_1_388
10
7.699865
20
-0.3075814
40
0.2367516
50
354.3662092
51
0.0709489
0
ARC
8
DEFAULT_255_1_388
10
7.7158518
20
-0.3050439
40
0.2207761
50
359.4175379
51
16.1975911
0
ARC
8
DEFAULT_255_1_388
10
7.7670636
20
-0.2910046
40
0.1676828
50
16.4721294
51
52.6261798
0
ARC
8
DEFAULT_255_1_388
10
7.6747144
20
-0.4129394
40
0.3206412
50
52.7381828
51
62.4979144
0
ARC
8
DEFAULT_255_1_388
10
7.5188896
20
-0.7061764
40
0.6527035
50
62.2517425
51
68.1219454
0
ARC
8
DEFAULT_255_1_388
10
7.3254384
20
-1.1816049
40
1.1659797
50
68.006043
51
71.8055127
0
ARC
8
DEFAULT_255_1_388
10
7.1234292
20
-1.7874277
40
1.8045908
50
71.718361
51
73.9260743
0
LINE
8
DEFAULT_255_1_388
10
9.1392608
20
0.6757898
11
9.1392608
21
0.5818191
0
LINE
8
DEFAULT_255_1_388
10
9.1392608
20
0.5818191
11
8.5944115
21
-0.6398
0
LINE
8
DEFAULT_255_1_388
10
8.5944115
20
-0.6398
11
8.41912
21
-0.6398
0
LINE
8
DEFAULT_255_1_388
10
8.41912
20
-0.6398
11
8.9621622
21
0.538448
0
LINE
8
DEFAULT_255_1_388
10
8.9621622
20
0.538448
11
8.2501534
21
0.538448
0
LINE
8
DEFAULT_255_1_388
10
8.2501534
20
0.538448
11
8.2501534
21
0.6757898
0
LINE
8
DEFAULT_255_1_388
10
8.2501534
20
0.6757898
11
9.1392608
21
0.6757898
0
LINE
8
DEFAULT_255_1_388
10
9.8783766
20
0.6821148
11
9.8783766
21
-0.6398
0
LINE
8
DEFAULT_255_1_388
10
9.8783766
20
-0.6398
11
9.7103136
21
-0.6398
0
LINE
8
DEFAULT_255_1_388
10
9.7103136
20
-0.6398
11
9.7103136
21
0.474295
0
LINE
8
DEFAULT_255_1_388
10
9.7103136
20
0.474295
11
9.373284
21
0.3505066
0
LINE
8
DEFAULT_255_1_388
10
9.373284
20
0.3505066
11
9.373284
21
0.5023055
0
LINE
8
DEFAULT_255_1_388
10
9.373284
20
0.5023055
11
9.8521732
21
0.6821148
0
LINE
8
DEFAULT_255_1_388
10
9.8521732
20
0.6821148
11
9.8783766
21
0.6821148
0
LINE
8
DEFAULT_255_1_388
10
11.0737923
20
0.6757898
11
11.0737923
21
-0.197957
0
LINE
8
DEFAULT_255_1_388
10
11.0737923
20
-0.197957
11
11.2563124
21
-0.197957
0
LINE
8
DEFAULT_255_1_388
10
11.2563124
20
-0.197957
11
11.2563124
21
-0.3343952
0
LINE
8
DEFAULT_255_1_388
10
11.2563124
20
-0.3343952
11
11.0737923
21
-0.3343952
0
LINE
8
DEFAULT_255_1_388
10
11.0737923
20
-0.3343952
11
11.0737923
21
-0.6398
0
LINE
8
DEFAULT_255_1_388
10
11.0737923
20
-0.6398
11
10.9057293
21
-0.6398
0
LINE
8
DEFAULT_255_1_388
10
10.9057293
20
-0.6398
11
10.9057293
21
-0.3343952
0
LINE
8
DEFAULT_255_1_388
10
10.9057293
20
-0.3343952
11
10.3066661
21
-0.3343952
0
LINE
8
DEFAULT_255_1_388
10
10.3066661
20
-0.3343952
11
10.3066661
21
-0.2359067
0
LINE
8
DEFAULT_255_1_388
10
10.3066661
20
-0.2359067
11
10.8957901
21
0.6757898
0
LINE
8
DEFAULT_255_1_388
10
10.8957901
20
0.6757898
11
11.0737923
21
0.6757898
0
LINE
8
DEFAULT_255_1_388
10
10.8858509
20
0.4110455
11
10.4964146
21
-0.197957
0
LINE
8
DEFAULT_255_1_388
10
10.4964146
20
-0.197957
11
10.9057293
21
-0.197957
0
LINE
8
DEFAULT_255_1_388
10
10.9057293
20
-0.197957
11
10.9057293
21
0.447188
0
LINE
8
DEFAULT_255_1_388
10
10.9057293
20
0.447188
11
10.8858509
21
0.4110455
0
LINE
8
DEFAULT_255_1_388
10
11.9565748
20
0.6821148
11
11.9565748
21
-0.6398
0
LINE
8
DEFAULT_255_1_388
10
11.9565748
20
-0.6398
11
11.7885118
21
-0.6398
0
LINE
8
DEFAULT_255_1_388
10
11.7885118
20
-0.6398
11
11.7885118
21
0.474295
0
LINE
8
DEFAULT_255_1_388
10
11.7885118
20
0.474295
11
11.4514823
21
0.3505066
0
LINE
8
DEFAULT_255_1_388
10
11.4514823
20
0.3505066
11
11.4514823
21
0.5023055
0
LINE
8
DEFAULT_255_1_388
10
11.4514823
20
0.5023055
11
11.9303714
21
0.6821148
0
LINE
8
DEFAULT_255_1_388
10
11.9303714
20
0.6821148
11
11.9565748
21
0.6821148
0
LINE
8
DEFAULT_255_1_388
10
12.8113468
20
-0.0127263
11
12.8113468
21
-0.1491645
0
LINE
8
DEFAULT_255_1_388
10
12.8113468
20
-0.1491645
11
12.3704073
21
-0.1491645
0
LINE
8
DEFAULT_255_1_388
10
12.3704073
20
-0.1491645
11
12.3704073
21
-0.0127263
0
LINE
8
DEFAULT_255_1_388
10
12.3704073
20
-0.0127263
11
12.8113468
21
-0.0127263
0
LINE
8
DEFAULT_255_1_388
10
13.5829908
20
0.6766934
11
13.6128084
21
0.6766934
0
LINE
8
DEFAULT_255_1_388
10
13.6128084
20
0.6766934
11
13.6128084
21
0.5348338
0
LINE
8
DEFAULT_255_1_388
10
13.6128084
20
0.5348338
11
13.5820873
21
0.5348338
0
LINE
8
DEFAULT_255_1_388
10
12.9667599
20
-0.1392253
11
12.9667599
21
-0.0750722
0
LINE
8
DEFAULT_255_1_388
10
13.1348229
20
-0.0967578
11
13.1348229
21
-0.1582001
0
ARC
8
DEFAULT_255_1_388
10
13.5879764
20
-0.0274174
40
0.562282
50
90.6001079
51
104.5146616
0
ARC
8
DEFAULT_255_1_388
10
13.5442724
20
0.13511
40
0.3939917
50
104.2855758
51
133.8630124
0
ARC
8
DEFAULT_255_1_388
10
13.5626976
20
0.1229243
40
0.4155734
50
134.5304124
51
161.6210222
0
ARC
8
DEFAULT_255_1_388
10
13.7486908
20
0.0573421
40
0.6127682
50
161.2850533
51
174.2074364
0
ARC
8
DEFAULT_255_1_388
10
13.9076475
20
0.0354437
40
0.7731446
50
173.7817938
51
174.9251711
0
ARC
8
DEFAULT_255_1_388
10
13.3950669
20
-0.120073
40
0.3412588
50
95.8332067
51
138.995412
0
ARC
8
DEFAULT_255_1_388
10
13.4201949
20
-0.2639305
40
0.4870358
50
89.8755506
51
97.0540979
0
ARC
8
DEFAULT_255_1_388
10
13.4255338
20
-0.1699159
40
0.3930432
50
71.6407016
51
90.6240821
0
ARC
8
DEFAULT_255_1_388
10
13.4424732
20
-0.1075567
40
0.3285421
50
39.6368051
51
71.0190743
0
ARC
8
DEFAULT_255_1_388
10
13.3708639
20
-0.1694414
40
0.4231706
50
10.6588054
51
39.9044509
0
ARC
8
DEFAULT_255_1_388
10
13.1967185
20
-0.2072777
40
0.60133
50
359.6827842
51
11.1326896
0
ARC
8
DEFAULT_255_1_388
10
13.1922521
20
-0.2152285
40
0.6058047
50
347.2485908
51
0.4371098
0
ARC
8
DEFAULT_255_1_388
10
13.3798306
20
-0.2603621
40
0.4128987
50
318.1408565
51
347.6118497
0
ARC
8
DEFAULT_255_1_388
10
13.4163903
20
-0.2904097
40
0.3656244
50
275.6342406
51
317.824739
0
ARC
8
DEFAULT_255_1_388
10
13.3915424
20
-0.1442173
40
0.513655
50
269.8872513
51
276.7916069
0
ARC
8
DEFAULT_255_1_388
10
13.3853616
20
-0.2595819
40
0.398323
50
246.9139443
51
270.7436787
0
ARC
8
DEFAULT_255_1_388
10
13.3860812
20
-0.2755956
40
0.3839368
50
218.1665534
51
245.8780431
0
ARC
8
DEFAULT_255_1_388
10
13.4850185
20
-0.1928097
40
0.5128958
50
191.4115343
51
218.6077624
0
ARC
8
DEFAULT_255_1_388
10
13.7030501
20
-0.1439223
40
0.7363054
50
179.6344971
51
191.7836758
0
ARC
8
DEFAULT_255_1_388
10
14.3310375
20
-0.0675505
40
1.3642984
50
171.4523743
51
180.3158856
0
ARC
8
DEFAULT_255_1_388
10
13.8366102
20
0.0093895
40
0.8639311
50
157.9802296
51
171.6246761
0
ARC
8
DEFAULT_255_1_388
10
13.5875453
20
0.1087038
40
0.5958004
50
141.4299236
51
157.8541251
0
ARC
8
DEFAULT_255_1_388
10
13.5153536
20
0.1597746
40
0.5075416
50
102.871586
51
140.8564533
0
ARC
8
DEFAULT_255_1_388
10
13.5882089
20
-0.1147057
40
0.7914163
50
90.377773
51
103.5868422
0
ARC
8
DEFAULT_255_1_388
10
13.392661
20
-0.1827457
40
0.2667015
50
89.8751238
51
126.2072139
0
ARC
8
DEFAULT_255_1_388
10
13.3978081
20
-0.2001153
40
0.2838229
50
124.9742447
51
144.8960197
0
ARC
8
DEFAULT_255_1_388
10
13.3780326
20
-0.1840019
40
0.2583845
50
145.2974778
51
160.2660922
0
ARC
8
DEFAULT_255_1_388
10
13.7236815
20
-0.1617849
40
0.5888695
50
179.6512124
51
190.285571
0
ARC
8
DEFAULT_255_1_388
10
13.5331294
20
-0.1977032
40
0.3949683
50
190.0944895
51
207.5099647
0
ARC
8
DEFAULT_255_1_388
10
13.4694876
20
-0.2279823
40
0.3245464
50
207.9585471
51
216.325377
0
ARC
8
DEFAULT_255_1_388
10
13.4312513
20
-0.2594288
40
0.2751259
50
215.7661336
51
232.5457193
0
ARC
8
DEFAULT_255_1_388
10
13.3881629
20
-0.3141727
40
0.2054668
50
232.8005815
51
270.6605497
0
ARC
8
DEFAULT_255_1_388
10
13.3933053
20
-0.2732147
40
0.2464268
50
269.3550767
51
288.474612
0
ARC
8
DEFAULT_255_1_388
10
13.403756
20
-0.3125279
40
0.2058436
50
289.1831976
51
322.9685307
0
ARC
8
DEFAULT_255_1_388
10
13.3349662
20
-0.2582721
40
0.2934408
50
322.6007085
51
346.5183319
0
ARC
8
DEFAULT_255_1_388
10
13.2047418
20
-0.2250566
40
0.4278249
50
346.2584622
51
358.7739592
0
ARC
8
DEFAULT_255_1_388
10
13.0895993
20
-0.2188171
40
0.5430876
50
358.3757628
51
0.0082477
0
ARC
8
DEFAULT_255_1_388
10
13.1752812
20
-0.2157144
40
0.4574157
50
359.6211417
51
11.28403
0
ARC
8
DEFAULT_255_1_388
10
13.3189418
20
-0.1857465
40
0.3106708
50
11.0483152
51
31.8145585
0
ARC
8
DEFAULT_255_1_388
10
13.3537123
20
-0.1668955
40
0.2711963
50
32.3028554
51
38.0820598
0
ARC
8
DEFAULT_255_1_388
10
13.4010356
20
-0.1240283
40
0.2075566
50
36.8249851
51
85.741667
0
ARC
8
DEFAULT_255_1_388
10
13.3934769
20
-0.1803935
40
0.2643487
50
85.0150021
51
90.050843
0
LINE
8
DEFAULT_255_1_388
10
14.4955909
20
-0.6398
11
14.0392909
21
-0.6398
0
LINE
8
DEFAULT_255_1_388
10
14.0392909
20
-0.6398
11
14.0392909
21
0.6757898
0
LINE
8
DEFAULT_255_1_388
10
14.0392909
20
0.6757898
11
14.4693875
21
0.6757898
0
LINE
8
DEFAULT_255_1_388
10
14.5019159
20
-0.0244726
11
14.2127752
21
-0.0244726
0
LINE
8
DEFAULT_255_1_388
10
14.2127752
20
-0.0244726
11
14.2127752
21
-0.4979404
0
LINE
8
DEFAULT_255_1_388
10
14.2127752
20
-0.4979404
11
14.4992052
21
-0.4979404
0
LINE
8
DEFAULT_255_1_388
10
14.2127752
20
0.5330267
11
14.2127752
21
0.1146763
0
LINE
8
DEFAULT_255_1_388
10
14.2127752
20
0.1146763
11
14.4748089
21
0.1146763
0
LINE
8
DEFAULT_255_1_388
10
14.4693875
20
0.5330267
11
14.2127752
21
0.5330267
0
ARC
8
DEFAULT_255_1_388
10
14.4736296
20
-0.1530176
40
0.8288183
50
82.1256322
51
90.2932506
0
ARC
8
DEFAULT_255_1_388
10
14.5173871
20
0.152759
40
0.5199321
50
69.9044202
51
82.2857574
0
ARC
8
DEFAULT_255_1_388
10
14.5815863
20
0.3262993
40
0.3348993
50
51.1840204
51
70.018125
0
ARC
8
DEFAULT_255_1_388
10
14.6102696
20
0.3679945
40
0.2844579
50
12.1018086
51
50.421322
0
ARC
8
DEFAULT_255_1_388
10
14.4545567
20
0.3288937
40
0.4449429
50
359.5252354
51
12.8212369
0
ARC
8
DEFAULT_255_1_388
10
14.6322997
20
0.3210943
40
0.2672162
50
323.4907456
51
0.8818258
0
ARC
8
DEFAULT_255_1_388
10
14.5852409
20
0.3574523
40
0.3266736
50
298.6824053
51
323.2758285
0
ARC
8
DEFAULT_255_1_388
10
14.5445701
20
0.4250509
40
0.4055105
50
293.1994739
51
299.139634
0
ARC
8
DEFAULT_255_1_388
10
14.6202651
20
-0.2595349
40
0.3229926
50
54.0009997
51
74.9168635
0
ARC
8
DEFAULT_255_1_388
10
14.6333577
20
-0.2373489
40
0.2973581
50
36.3578854
51
53.5293172
0
ARC
8
DEFAULT_255_1_388
10
14.6190946
20
-0.247515
40
0.3148715
50
4.8189348
51
36.3090187
0
ARC
8
DEFAULT_255_1_388
10
14.531397
20
-0.2598617
40
0.4033265
50
359.9373213
51
5.5201284
0
ARC
8
DEFAULT_255_1_388
10
14.49493
20
-0.2644267
40
0.4398126
50
344.7479357
51
0.5372278
0
ARC
8
DEFAULT_255_1_388
10
14.6064198
20
-0.2944795
40
0.3243441
50
311.1785587
51
344.6887681
0
ARC
8
DEFAULT_255_1_388
10
14.5735742
20
-0.2535916
40
0.3767511
50
286.0417804
51
310.8440924
0
ARC
8
DEFAULT_255_1_388
10
14.5165151
20
-0.0683115
40
0.5705957
50
274.1044074
51
286.4070149
0
ARC
8
DEFAULT_255_1_388
10
14.4966366
20
0.1434901
40
0.7832907
50
269.9235077
51
274.4458593
0
ARC
8
DEFAULT_255_1_388
10
14.5018085
20
-0.1196538
40
0.3782955
50
269.6057074
51
281.3740795
0
ARC
8
DEFAULT_255_1_388
10
14.5277583
20
-0.2426431
40
0.2526069
50
281.105298
51
302.5134029
0
ARC
8
DEFAULT_255_1_388
10
14.5442971
20
-0.2723056
40
0.2187131
50
303.0365425
51
311.8818034
0
ARC
8
DEFAULT_255_1_388
10
14.5523148
20
-0.2818398
40
0.2062624
50
311.9916937
51
351.7143773
0
ARC
8
DEFAULT_255_1_388
10
14.4604173
20
-0.2632729
40
0.2999202
50
350.7343295
51
0.2221526
0
ARC
8
DEFAULT_255_1_388
10
14.4483261
20
-0.256913
40
0.3120525
50
359.045729
51
17.2295312
0
ARC
8
DEFAULT_255_1_388
10
14.5652291
20
-0.2221845
40
0.1901144
50
17.6685208
51
78.9940245
0
ARC
8
DEFAULT_255_1_388
10
14.5070652
20
-0.4309989
40
0.4065575
50
76.565218
51
90.7103392
0
LINE
8
DEFAULT_255_1_388
10
14.5020249
20
-0.0244726
11
14.5019159
21
-0.0244726
0
ARC
8
DEFAULT_255_1_388
10
14.4773478
20
0.4842949
40
0.3696273
50
269.6064514
51
281.4533785
0
ARC
8
DEFAULT_255_1_388
10
14.5024119
20
0.3660283
40
0.2487412
50
281.2044438
51
302.5143998
0
ARC
8
DEFAULT_255_1_388
10
14.5178372
20
0.3382576
40
0.2170405
50
303.0211308
51
309.8378766
0
ARC
8
DEFAULT_255_1_388
10
14.538449
20
0.3151486
40
0.1860946
50
309.5229446
51
356.9509628
0
ARC
8
DEFAULT_255_1_388
10
14.4638616
20
0.3258831
40
0.2612347
50
355.4699226
51
0.0498632
0
ARC
8
DEFAULT_255_1_388
10
14.4324289
20
0.3283789
40
0.2926762
50
359.5558955
51
11.2092924
0
ARC
8
DEFAULT_255_1_388
10
14.5401257
20
0.3506667
40
0.1827036
50
10.9185717
51
31.322519
0
ARC
8
DEFAULT_255_1_388
10
14.5722805
20
0.3685571
40
0.1459418
50
31.8850633
51
52.1415586
0
ARC
8
DEFAULT_255_1_388
10
14.5414234
20
0.3249674
40
0.1993088
50
52.8283418
51
71.9850132
0
ARC
8
DEFAULT_255_1_388
10
14.4991395
20
0.2005158
40
0.3307407
50
71.686634
51
82.8453416
0
ARC
8
DEFAULT_255_1_388
10
14.4722042
20
-0.0030108
40
0.536039
50
82.6981895
51
90.1730083
0
ARC
8
DEFAULT_255_1_388
10
14.4696873
20
0.0848836
40
0.4481429
50
89.8851568
51
90.0383283
0
LINE
8
DEFAULT_255_1_388
10
16.2024242
20
0.6757898
11
16.2024242
21
-0.6398
0
LINE
8
DEFAULT_255_1_388
10
16.2024242
20
-0.6398
11
16.0280362
21
-0.6398
0
LINE
8
DEFAULT_255_1_388
10
16.0280362
20
-0.6398
11
16.0280362
21
-0.0317011
0
LINE
8
DEFAULT_255_1_388
10
16.0280362
20
-0.0317011
11
15.3648199
21
-0.0317011
0
LINE
8
DEFAULT_255_1_388
10
15.3648199
20
-0.0317011
11
15.3648199
21
-0.6398
0
LINE
8
DEFAULT_255_1_388
10
15.3648199
20
-0.6398
11
15.1913355
21
-0.6398
0
LINE
8
DEFAULT_255_1_388
10
15.1913355
20
-0.6398
11
15.1913355
21
0.6757898
0
LINE
8
DEFAULT_255_1_388
10
15.1913355
20
0.6757898
11
15.3648199
21
0.6757898
0
LINE
8
DEFAULT_255_1_388
10
15.3648199
20
0.6757898
11
15.3648199
21
0.1101585
0
LINE
8
DEFAULT_255_1_388
10
15.3648199
20
0.1101585
11
16.0280362
21
0.1101585
0
LINE
8
DEFAULT_255_1_388
10
16.0280362
20
0.1101585
11
16.0280362
21
0.6757898
0
LINE
8
DEFAULT_255_1_388
10
16.0280362
20
0.6757898
11
16.2024242
21
0.6757898
0
LINE
8
DEFAULT_255_1_388
10
17.2921229
20
0.138169
11
17.2921229
21
-0.0786865
0
LINE
8
DEFAULT_255_1_388
10
16.4617472
20
-0.1012756
11
16.4617472
21
0.1219048
0
LINE
8
DEFAULT_255_1_388
10
17.1249635
20
-0.1238647
11
17.1249635
21
0.1499153
0
LINE
8
DEFAULT_255_1_388
10
16.6289066
20
0.1625652
11
16.6289066
21
-0.1048898
0
ARC
8
DEFAULT_255_1_388
10
15.9143563
20
-0.0841882
40
1.3777776
50
353.8440855
51
0.2287917
0
ARC
8
DEFAULT_255_1_388
10
16.436258
20
-0.1424586
40
0.852639
50
344.4934746
51
353.9763743
0
ARC
8
DEFAULT_255_1_388
10
16.7729388
20
-0.2381809
40
0.5026273
50
329.2803599
51
344.7473406
0
ARC
8
DEFAULT_255_1_388
10
16.8844883
20
-0.2993962
40
0.3754848
50
324.9361395
51
328.6153007
0
ARC
8
DEFAULT_255_1_388
10
16.9270533
20
-0.3291414
40
0.3235566
50
280.5801797
51
324.9173226
0
ARC
8
DEFAULT_255_1_388
10
16.8819162
20
-0.1411764
40
0.5167077
50
269.5979457
51
281.6732777
0
ARC
8
DEFAULT_255_1_388
10
16.8738065
20
-0.1546887
40
0.5032026
50
256.6228565
51
270.5105488
0
ARC
8
DEFAULT_255_1_388
10
16.8285808
20
-0.3288655
40
0.3233092
50
215.8618351
51
257.2787793
0
ARC
8
DEFAULT_255_1_388
10
16.9434515
20
-0.2517894
40
0.4615831
50
197.9695203
51
215.2622745
0
ARC
8
DEFAULT_255_1_388
10
17.2230191
20
-0.1574359
40
0.7566307
50
187.8816486
51
198.2346584
0
ARC
8
DEFAULT_255_1_388
10
17.6683429
20
-0.0931547
40
1.2065653
50
180.8977266
51
188.0054894
0
ARC
8
DEFAULT_255_1_388
10
17.9733643
20
-0.08166
40
1.5117443
50
180.7434591
51
181.152202
0
ARC
8
DEFAULT_255_1_388
10
17.8058638
20
0.1273371
40
1.3441277
50
173.7674302
51
180.2315596
0
ARC
8
DEFAULT_255_1_388
10
17.2976507
20
0.1847779
40
0.8326847
50
164.3058537
51
173.9000553
0
ARC
8
DEFAULT_255_1_388
10
16.9700507
20
0.2791652
40
0.4917711
50
148.7922028
51
164.5682288
0
ARC
8
DEFAULT_255_1_388
10
16.8631245
20
0.3388457
40
0.3694204
50
144.5883979
51
148.1161588
0
ARC
8
DEFAULT_255_1_388
10
16.824399
20
0.3658667
40
0.322202
50
101.6440149
51
144.5142619
0
ARC
8
DEFAULT_255_1_388
10
16.8722182
20
0.1758337
40
0.5180451
50
89.528284
51
102.5820197
0
ARC
8
DEFAULT_255_1_388
10
16.8811174
20
0.1714376
40
0.5224441
50
77.0437914
51
90.508231
0
ARC
8
DEFAULT_255_1_388
10
16.9263428
20
0.3562272
40
0.3322297
50
48.2777708
51
77.4996087
0
ARC
8
DEFAULT_255_1_388
10
16.9345168
20
0.3707557
40
0.315966
50
36.3141586
51
47.6307332
0
ARC
8
DEFAULT_255_1_388
10
16.836789
20
0.3049159
40
0.4337313
50
18.2931065
51
35.6770203
0
ARC
8
DEFAULT_255_1_388
10
16.5506731
20
0.2067107
40
0.7362203
50
8.0246996
51
18.5605636
0
ARC
8
DEFAULT_255_1_388
10
16.0823086
20
0.1375432
40
1.2096583
50
1.127539
51
8.1718423
0
ARC
8
DEFAULT_255_1_388
10
15.717422
20
0.1232374
40
1.5747719
50
0.5432713
51
1.38669
0
ARC
8
DEFAULT_255_1_388
10
15.9231599
20
0.1539163
40
1.2018103
50
359.8092569
51
4.9408001
0
ARC
8
DEFAULT_255_1_388
10
16.396818
20
0.19619
40
0.7262727
50
4.8364937
51
12.2906017
0
ARC
8
DEFAULT_255_1_388
10
16.7067645
20
0.2652485
40
0.4087324
50
12.0806994
51
23.8171225
0
ARC
8
DEFAULT_255_1_388
10
16.8388041
20
0.3211508
40
0.2653719
50
24.2874621
51
31.3934353
0
ARC
8
DEFAULT_255_1_388
10
16.8978477
20
0.3597822
40
0.1948607
50
30.7407708
51
82.4658033
0
ARC
8
DEFAULT_255_1_388
10
16.8776137
20
0.2604017
40
0.2961198
50
81.1057101
51
90.2187368
0
ARC
8
DEFAULT_255_1_388
10
16.8735949
20
0.2894421
40
0.2670929
50
89.380395
51
105.6763916
0
ARC
8
DEFAULT_255_1_388
10
16.8529671
20
0.364432
40
0.1893189
50
105.7980655
51
149.7387869
0
ARC
8
DEFAULT_255_1_388
10
16.9726811
20
0.2924719
40
0.3289892
50
149.4208441
51
163.628295
0
ARC
8
DEFAULT_255_1_388
10
17.2079041
20
0.2207345
40
0.5749004
50
163.3764549
51
172.141138
0
ARC
8
DEFAULT_255_1_388
10
17.5791762
20
0.1675582
40
0.9499585
50
172.0258462
51
178.0705453
0
ARC
8
DEFAULT_255_1_388
10
17.9213315
20
0.1513682
40
1.2924734
50
177.8639301
51
179.5036263
0
ARC
8
DEFAULT_255_1_388
10
17.7994334
20
-0.1089849
40
1.170534
50
179.7995545
51
185.246089
0
ARC
8
DEFAULT_255_1_388
10
17.3445927
20
-0.1520596
40
0.7136613
50
185.1411911
51
193.0082205
0
ARC
8
DEFAULT_255_1_388
10
17.0472188
20
-0.2223559
40
0.4080987
50
192.7897338
51
205.2507384
0
ARC
8
DEFAULT_255_1_388
10
16.9294398
20
-0.2749462
40
0.2791522
50
205.8001921
51
211.2545876
0
ARC
8
DEFAULT_255_1_388
10
16.8705937
20
-0.3143868
40
0.2084074
50
210.3789935
51
238.4007996
0
ARC
8
DEFAULT_255_1_388
10
16.8684023
20
-0.3091214
40
0.2117943
50
239.6521916
51
265.9793852
0
ARC
8
DEFAULT_255_1_388
10
16.8779872
20
-0.2334642
40
0.2879689
50
265.1324455
51
270.0603288
0
ARC
8
DEFAULT_255_1_388
10
16.8812249
20
-0.2699582
40
0.2514919
50
269.3314378
51
287.2180039
0
ARC
8
DEFAULT_255_1_388
10
16.8967331
20
-0.3265709
40
0.1928357
50
287.7957942
51
329.0808983
0
ARC
8
DEFAULT_255_1_388
10
16.7890088
20
-0.2593349
40
0.319808
50
328.6635261
51
343.3325043
0
ARC
8
DEFAULT_255_1_388
10
16.5445547
20
-0.1831805
40
0.5758408
50
343.0498092
51
351.9392499
0
ARC
8
DEFAULT_255_1_388
10
16.1544868
20
-0.1256795
40
0.9701202
50
351.8071632
51
357.7957897
0
ARC
8
DEFAULT_255_1_388
10
15.7910345
20
-0.1068276
40
1.3340376
50
357.5870923
51
359.2682493
0
LINE
8
DEFAULT_255_1_388
10
18.331222
20
0.138169
11
18.331222
21
-0.0786865
0
LINE
8
DEFAULT_255_1_388
10
17.5008463
20
-0.1012756
11
17.5008463
21
0.1219048
0
LINE
8
DEFAULT_255_1_388
10
18.1640626
20
-0.1238647
11
18.1640626
21
0.1499153
0
LINE
8
DEFAULT_255_1_388
10
17.6680057
20
0.1625652
11
17.6680057
21
-0.1048898
0
ARC
8
DEFAULT_255_1_388
10
16.9534554
20
-0.0841882
40
1.3777776
50
353.8440855
51
0.2287917
0
ARC
8
DEFAULT_255_1_388
10
17.4753572
20
-0.1424586
40
0.852639
50
344.4934746
51
353.9763743
0
ARC
8
DEFAULT_255_1_388
10
17.8120379
20
-0.2381809
40
0.5026273
50
329.2803599
51
344.7473406
0
ARC
8
DEFAULT_255_1_388
10
17.9235875
20
-0.2993962
40
0.3754848
50
324.9361395
51
328.6153007
0
ARC
8
DEFAULT_255_1_388
10
17.9661524
20
-0.3291414
40
0.3235566
50
280.5801797
51
324.9173226
0
ARC
8
DEFAULT_255_1_388
10
17.9210153
20
-0.1411764
40
0.5167077
50
269.5979457
51
281.6732777
0
ARC
8
DEFAULT_255_1_388
10
17.9129056
20
-0.1546887
40
0.5032026
50
256.6228565
51
270.5105488
0
ARC
8
DEFAULT_255_1_388
10
17.8676799
20
-0.3288655
40
0.3233092
50
215.8618351
51
257.2787793
0
ARC
8
DEFAULT_255_1_388
10
17.9825506
20
-0.2517894
40
0.4615831
50
197.9695203
51
215.2622745
0
ARC
8
DEFAULT_255_1_388
10
18.2621182
20
-0.1574359
40
0.7566307
50
187.8816486
51
198.2346584
0
ARC
8
DEFAULT_255_1_388
10
18.707442
20
-0.0931547
40
1.2065653
50
180.8977266
51
188.0054894
0
ARC
8
DEFAULT_255_1_388
10
19.0124634
20
-0.08166
40
1.5117443
50
180.7434591
51
181.152202
0
ARC
8
DEFAULT_255_1_388
10
18.844963
20
0.1273371
40
1.3441277
50
173.7674302
51
180.2315596
0
ARC
8
DEFAULT_255_1_388
10
18.3367499
20
0.1847779
40
0.8326847
50
164.3058537
51
173.9000553
0
ARC
8
DEFAULT_255_1_388
10
18.0091499
20
0.2791652
40
0.4917711
50
148.7922028
51
164.5682288
0
ARC
8
DEFAULT_255_1_388
10
17.9022236
20
0.3388457
40
0.3694204
50
144.5883979
51
148.1161588
0
ARC
8
DEFAULT_255_1_388
10
17.8634981
20
0.3658667
40
0.322202
50
101.6440149
51
144.5142619
0
ARC
8
DEFAULT_255_1_388
10
17.9113174
20
0.1758337
40
0.5180451
50
89.528284
51
102.5820197
0
ARC
8
DEFAULT_255_1_388
10
17.9202166
20
0.1714376
40
0.5224441
50
77.0437914
51
90.508231
0
ARC
8
DEFAULT_255_1_388
10
17.9654419
20
0.3562272
40
0.3322297
50
48.2777708
51
77.4996087
0
ARC
8
DEFAULT_255_1_388
10
17.9736159
20
0.3707557
40
0.315966
50
36.3141586
51
47.6307332
0
ARC
8
DEFAULT_255_1_388
10
17.8758881
20
0.3049159
40
0.4337313
50
18.2931065
51
35.6770203
0
ARC
8
DEFAULT_255_1_388
10
17.5897722
20
0.2067107
40
0.7362203
50
8.0246996
51
18.5605636
0
ARC
8
DEFAULT_255_1_388
10
17.1214078
20
0.1375432
40
1.2096583
50
1.127539
51
8.1718423
0
ARC
8
DEFAULT_255_1_388
10
16.7565211
20
0.1232374
40
1.5747719
50
0.5432713
51
1.38669
0
ARC
8
DEFAULT_255_1_388
10
16.962259
20
0.1539163
40
1.2018103
50
359.8092569
51
4.9408001
0
ARC
8
DEFAULT_255_1_388
10
17.4359171
20
0.19619
40
0.7262727
50
4.8364937
51
12.2906017
0
ARC
8
DEFAULT_255_1_388
10
17.7458636
20
0.2652485
40
0.4087324
50
12.0806994
51
23.8171225
0
ARC
8
DEFAULT_255_1_388
10
17.8779032
20
0.3211508
40
0.2653719
50
24.2874621
51
31.3934353
0
ARC
8
DEFAULT_255_1_388
10
17.9369468
20
0.3597822
40
0.1948607
50
30.7407708
51
82.4658033
0
ARC
8
DEFAULT_255_1_388
10
17.9167129
20
0.2604017
40
0.2961198
50
81.1057101
51
90.2187368
0
ARC
8
DEFAULT_255_1_388
10
17.912694
20
0.2894421
40
0.2670929
50
89.380395
51
105.6763916
0
ARC
8
DEFAULT_255_1_388
10
17.8920662
20
0.364432
40
0.1893189
50
105.7980655
51
149.7387869
0
ARC
8
DEFAULT_255_1_388
10
18.0117803
20
0.2924719
40
0.3289892
50
149.4208441
51
163.628295
0
ARC
8
DEFAULT_255_1_388
10
18.2470032
20
0.2207345
40
0.5749004
50
163.3764549
51
172.141138
0
ARC
8
DEFAULT_255_1_388
10
18.6182754
20
0.1675582
40
0.9499585
50
172.0258462
51
178.0705453
0
ARC
8
DEFAULT_255_1_388
10
18.9604306
20
0.1513682
40
1.2924734
50
177.8639301
51
179.5036263
0
ARC
8
DEFAULT_255_1_388
10
18.8385325
20
-0.1089849
40
1.170534
50
179.7995545
51
185.246089
0
ARC
8
DEFAULT_255_1_388
10
18.3836918
20
-0.1520596
40
0.7136613
50
185.1411911
51
193.0082205
0
ARC
8
DEFAULT_255_1_388
10
18.0863179
20
-0.2223559
40
0.4080987
50
192.7897338
51
205.2507384
0
ARC
8
DEFAULT_255_1_388
10
17.9685389
20
-0.2749462
40
0.2791522
50
205.8001921
51
211.2545876
0
ARC
8
DEFAULT_255_1_388
10
17.9096928
20
-0.3143868
40
0.2084074
50
210.3789935
51
238.4007996
0
ARC
8
DEFAULT_255_1_388
10
17.9075014
20
-0.3091214
40
0.2117943
50
239.6521916
51
265.9793852
0
ARC
8
DEFAULT_255_1_388
10
17.9170863
20
-0.2334642
40
0.2879689
50
265.1324455
51
270.0603288
0
ARC
8
DEFAULT_255_1_388
10
17.920324
20
-0.2699582
40
0.2514919
50
269.3314378
51
287.2180039
0
ARC
8
DEFAULT_255_1_388
10
17.9358322
20
-0.3265709
40
0.1928357
50
287.7957942
51
329.0808983
0
ARC
8
DEFAULT_255_1_388
10
17.8281079
20
-0.2593349
40
0.319808
50
328.6635261
51
343.3325043
0
ARC
8
DEFAULT_255_1_388
10
17.5836538
20
-0.1831805
40
0.5758408
50
343.0498092
51
351.9392499
0
ARC
8
DEFAULT_255_1_388
10
17.1935859
20
-0.1256795
40
0.9701202
50
351.8071632
51
357.7957897
0
ARC
8
DEFAULT_255_1_388
10
16.8301336
20
-0.1068276
40
1.3340376
50
357.5870923
51
359.2682493
0
LINE
8
DEFAULT_255_1_388
10
18.9104068
20
-0.0127263
11
18.9104068
21
-0.1491645
0
LINE
8
DEFAULT_255_1_388
10
18.9104068
20
-0.1491645
11
18.4694674
21
-0.1491645
0
LINE
8
DEFAULT_255_1_388
10
18.4694674
20
-0.1491645
11
18.4694674
21
-0.0127263
0
LINE
8
DEFAULT_255_1_388
10
18.4694674
20
-0.0127263
11
18.9104068
21
-0.0127263
0
LINE
8
DEFAULT_255_1_388
10
19.8808351
20
0.138169
11
19.8808351
21
-0.0786865
0
LINE
8
DEFAULT_255_1_388
10
19.0504593
20
-0.1012756
11
19.0504593
21
0.1219048
0
LINE
8
DEFAULT_255_1_388
10
19.7136756
20
-0.1238647
11
19.7136756
21
0.1499153
0
LINE
8
DEFAULT_255_1_388
10
19.2176188
20
0.1625652
11
19.2176188
21
-0.1048898
0
ARC
8
DEFAULT_255_1_388
10
18.5030685
20
-0.0841882
40
1.3777776
50
353.8440855
51
0.2287917
0
ARC
8
DEFAULT_255_1_388
10
19.0249702
20
-0.1424586
40
0.852639
50
344.4934746
51
353.9763743
0
ARC
8
DEFAULT_255_1_388
10
19.3616509
20
-0.2381809
40
0.5026273
50
329.2803599
51
344.7473406
0
ARC
8
DEFAULT_255_1_388
10
19.4732005
20
-0.2993962
40
0.3754848
50
324.9361395
51
328.6153007
0
ARC
8
DEFAULT_255_1_388
10
19.5157655
20
-0.3291414
40
0.3235566
50
280.5801797
51
324.9173226
0
ARC
8
DEFAULT_255_1_388
10
19.4706283
20
-0.1411764
40
0.5167077
50
269.5979457
51
281.6732777
0
ARC
8
DEFAULT_255_1_388
10
19.4625187
20
-0.1546887
40
0.5032026
50
256.6228565
51
270.5105488
0
ARC
8
DEFAULT_255_1_388
10
19.417293
20
-0.3288655
40
0.3233092
50
215.8618351
51
257.2787793
0
ARC
8
DEFAULT_255_1_388
10
19.5321637
20
-0.2517894
40
0.4615831
50
197.9695203
51
215.2622745
0
ARC
8
DEFAULT_255_1_388
10
19.8117312
20
-0.1574359
40
0.7566307
50
187.8816486
51
198.2346584
0
ARC
8
DEFAULT_255_1_388
10
20.257055
20
-0.0931547
40
1.2065653
50
180.8977266
51
188.0054894
0
ARC
8
DEFAULT_255_1_388
10
20.5620764
20
-0.08166
40
1.5117443
50
180.7434591
51
181.152202
0
ARC
8
DEFAULT_255_1_388
10
20.394576
20
0.1273371
40
1.3441277
50
173.7674302
51
180.2315596
0
ARC
8
DEFAULT_255_1_388
10
19.8863629
20
0.1847779
40
0.8326847
50
164.3058537
51
173.9000553
0
ARC
8
DEFAULT_255_1_388
10
19.5587629
20
0.2791652
40
0.4917711
50
148.7922028
51
164.5682288
0
ARC
8
DEFAULT_255_1_388
10
19.4518366
20
0.3388457
40
0.3694204
50
144.5883979
51
148.1161588
0
ARC
8
DEFAULT_255_1_388
10
19.4131112
20
0.3658667
40
0.322202
50
101.6440149
51
144.5142619
0
ARC
8
DEFAULT_255_1_388
10
19.4609304
20
0.1758337
40
0.5180451
50
89.528284
51
102.5820197
0
ARC
8
DEFAULT_255_1_388
10
19.4698296
20
0.1714376
40
0.5224441
50
77.0437914
51
90.508231
0
ARC
8
DEFAULT_255_1_388
10
19.515055
20
0.3562272
40
0.3322297
50
48.2777708
51
77.4996087
0
ARC
8
DEFAULT_255_1_388
10
19.523229
20
0.3707557
40
0.315966
50
36.3141586
51
47.6307332
0
ARC
8
DEFAULT_255_1_388
10
19.4255012
20
0.3049159
40
0.4337313
50
18.2931065
51
35.6770203
0
ARC
8
DEFAULT_255_1_388
10
19.1393853
20
0.2067107
40
0.7362203
50
8.0246996
51
18.5605636
0
ARC
8
DEFAULT_255_1_388
10
18.6710208
20
0.1375432
40
1.2096583
50
1.127539
51
8.1718423
0
ARC
8
DEFAULT_255_1_388
10
18.3061342
20
0.1232374
40
1.5747719
50
0.5432713
51
1.38669
0
ARC
8
DEFAULT_255_1_388
10
18.511872
20
0.1539163
40
1.2018103
50
359.8092569
51
4.9408001
0
ARC
8
DEFAULT_255_1_388
10
18.9855302
20
0.19619
40
0.7262727
50
4.8364937
51
12.2906017
0
ARC
8
DEFAULT_255_1_388
10
19.2954766
20
0.2652485
40
0.4087324
50
12.0806994
51
23.8171225
0
ARC
8
DEFAULT_255_1_388
10
19.4275162
20
0.3211508
40
0.2653719
50
24.2874621
51
31.3934353
0
ARC
8
DEFAULT_255_1_388
10
19.4865598
20
0.3597822
40
0.1948607
50
30.7407708
51
82.4658033
0
ARC
8
DEFAULT_255_1_388
10
19.4663259
20
0.2604017
40
0.2961198
50
81.1057101
51
90.2187368
0
ARC
8
DEFAULT_255_1_388
10
19.4623071
20
0.2894421
40
0.2670929
50
89.380395
51
105.6763916
0
ARC
8
DEFAULT_255_1_388
10
19.4416793
20
0.364432
40
0.1893189
50
105.7980655
51
149.7387869
0
ARC
8
DEFAULT_255_1_388
10
19.5613933
20
0.2924719
40
0.3289892
50
149.4208441
51
163.628295
0
ARC
8
DEFAULT_255_1_388
10
19.7966163
20
0.2207345
40
0.5749004
50
163.3764549
51
172.141138
0
ARC
8
DEFAULT_255_1_388
10
20.1678884
20
0.1675582
40
0.9499585
50
172.0258462
51
178.0705453
0
ARC
8
DEFAULT_255_1_388
10
20.5100437
20
0.1513682
40
1.2924734
50
177.8639301
51
179.5036263
0
ARC
8
DEFAULT_255_1_388
10
20.3881455
20
-0.1089849
40
1.170534
50
179.7995545
51
185.246089
0
ARC
8
DEFAULT_255_1_388
10
19.9333049
20
-0.1520596
40
0.7136613
50
185.1411911
51
193.0082205
0
ARC
8
DEFAULT_255_1_388
10
19.6359309
20
-0.2223559
40
0.4080987
50
192.7897338
51
205.2507384
0
ARC
8
DEFAULT_255_1_388
10
19.5181519
20
-0.2749462
40
0.2791522
50
205.8001921
51
211.2545876
0
ARC
8
DEFAULT_255_1_388
10
19.4593058
20
-0.3143868
40
0.2084074
50
210.3789935
51
238.4007996
0
ARC
8
DEFAULT_255_1_388
10
19.4571144
20
-0.3091214
40
0.2117943
50
239.6521916
51
265.9793852
0
ARC
8
DEFAULT_255_1_388
10
19.4666993
20
-0.2334642
40
0.2879689
50
265.1324455
51
270.0603288
0
ARC
8
DEFAULT_255_1_388
10
19.469937
20
-0.2699582
40
0.2514919
50
269.3314378
51
287.2180039
0
ARC
8
DEFAULT_255_1_388
10
19.4854453
20
-0.3265709
40
0.1928357
50
287.7957942
51
329.0808983
0
ARC
8
DEFAULT_255_1_388
10
19.377721
20
-0.2593349
40
0.319808
50
328.6635261
51
343.3325043
0
ARC
8
DEFAULT_255_1_388
10
19.1332668
20
-0.1831805
40
0.5758408
50
343.0498092
51
351.9392499
0
ARC
8
DEFAULT_255_1_388
10
18.743199
20
-0.1256795
40
0.9701202
50
351.8071632
51
357.7957897
0
ARC
8
DEFAULT_255_1_388
10
18.3797467
20
-0.1068276
40
1.3340376
50
357.5870923
51
359.2682493
0
LINE
8
DEFAULT_255_1_388
10
20.594651
20
-0.6398
11
20.1383509
21
-0.6398
0
LINE
8
DEFAULT_255_1_388
10
20.1383509
20
-0.6398
11
20.1383509
21
0.6757898
0
LINE
8
DEFAULT_255_1_388
10
20.1383509
20
0.6757898
11
20.5684476
21
0.6757898
0
LINE
8
DEFAULT_255_1_388
10
20.6009759
20
-0.0244726
11
20.3118353
21
-0.0244726
0
LINE
8
DEFAULT_255_1_388
10
20.3118353
20
-0.0244726
11
20.3118353
21
-0.4979404
0
LINE
8
DEFAULT_255_1_388
10
20.3118353
20
-0.4979404
11
20.5982652
21
-0.4979404
0
LINE
8
DEFAULT_255_1_388
10
20.3118353
20
0.5330267
11
20.3118353
21
0.1146763
0
LINE
8
DEFAULT_255_1_388
10
20.3118353
20
0.1146763
11
20.573869
21
0.1146763
0
LINE
8
DEFAULT_255_1_388
10
20.5684476
20
0.5330267
11
20.3118353
21
0.5330267
0
ARC
8
DEFAULT_255_1_388
10
20.5726896
20
-0.1530176
40
0.8288183
50
82.1256322
51
90.2932506
0
ARC
8
DEFAULT_255_1_388
10
20.6164471
20
0.152759
40
0.5199321
50
69.9044202
51
82.2857574
0
ARC
8
DEFAULT_255_1_388
10
20.6806464
20
0.3262993
40
0.3348993
50
51.1840204
51
70.018125
0
ARC
8
DEFAULT_255_1_388
10
20.7093296
20
0.3679945
40
0.2844579
50
12.1018086
51
50.421322
0
ARC
8
DEFAULT_255_1_388
10
20.5536168
20
0.3288937
40
0.4449429
50
359.5252354
51
12.8212369
0
ARC
8
DEFAULT_255_1_388
10
20.7313598
20
0.3210943
40
0.2672162
50
323.4907456
51
0.8818258
0
ARC
8
DEFAULT_255_1_388
10
20.684301
20
0.3574523
40
0.3266736
50
298.6824053
51
323.2758285
0
ARC
8
DEFAULT_255_1_388
10
20.6436302
20
0.4250509
40
0.4055105
50
293.1994739
51
299.139634
0
ARC
8
DEFAULT_255_1_388
10
20.7193251
20
-0.2595349
40
0.3229926
50
54.0009997
51
74.9168635
0
ARC
8
DEFAULT_255_1_388
10
20.7324178
20
-0.2373489
40
0.2973581
50
36.3578854
51
53.5293172
0
ARC
8
DEFAULT_255_1_388
10
20.7181546
20
-0.247515
40
0.3148715
50
4.8189348
51
36.3090187
0
ARC
8
DEFAULT_255_1_388
10
20.630457
20
-0.2598617
40
0.4033265
50
359.9373213
51
5.5201284
0
ARC
8
DEFAULT_255_1_388
10
20.5939901
20
-0.2644267
40
0.4398126
50
344.7479357
51
0.5372278
0
ARC
8
DEFAULT_255_1_388
10
20.7054799
20
-0.2944795
40
0.3243441
50
311.1785587
51
344.6887681
0
ARC
8
DEFAULT_255_1_388
10
20.6726342
20
-0.2535916
40
0.3767511
50
286.0417804
51
310.8440924
0
ARC
8
DEFAULT_255_1_388
10
20.6155752
20
-0.0683115
40
0.5705957
50
274.1044074
51
286.4070149
0
ARC
8
DEFAULT_255_1_388
10
20.5956967
20
0.1434901
40
0.7832907
50
269.9235077
51
274.4458593
0
ARC
8
DEFAULT_255_1_388
10
20.6008685
20
-0.1196538
40
0.3782955
50
269.6057074
51
281.3740795
0
ARC
8
DEFAULT_255_1_388
10
20.6268184
20
-0.2426431
40
0.2526069
50
281.105298
51
302.5134029
0
ARC
8
DEFAULT_255_1_388
10
20.6433571
20
-0.2723056
40
0.2187131
50
303.0365425
51
311.8818034
0
ARC
8
DEFAULT_255_1_388
10
20.6513748
20
-0.2818398
40
0.2062624
50
311.9916937
51
351.7143773
0
ARC
8
DEFAULT_255_1_388
10
20.5594773
20
-0.2632729
40
0.2999202
50
350.7343295
51
0.2221526
0
ARC
8
DEFAULT_255_1_388
10
20.5473861
20
-0.256913
40
0.3120525
50
359.045729
51
17.2295312
0
ARC
8
DEFAULT_255_1_388
10
20.6642892
20
-0.2221845
40
0.1901144
50
17.6685208
51
78.9940245
0
ARC
8
DEFAULT_255_1_388
10
20.6061252
20
-0.4309989
40
0.4065575
50
76.565218
51
90.7103392
0
LINE
8
DEFAULT_255_1_388
10
20.601085
20
-0.0244726
11
20.6009759
21
-0.0244726
0
ARC
8
DEFAULT_255_1_388
10
20.5764078
20
0.4842949
40
0.3696273
50
269.6064514
51
281.4533785
0
ARC
8
DEFAULT_255_1_388
10
20.6014719
20
0.3660283
40
0.2487412
50
281.2044438
51
302.5143998
0
ARC
8
DEFAULT_255_1_388
10
20.6168973
20
0.3382576
40
0.2170405
50
303.0211308
51
309.8378766
0
ARC
8
DEFAULT_255_1_388
10
20.637509
20
0.3151486
40
0.1860946
50
309.5229446
51
356.9509628
0
ARC
8
DEFAULT_255_1_388
10
20.5629216
20
0.3258831
40
0.2612347
50
355.4699226
51
0.0498632
0
ARC
8
DEFAULT_255_1_388
10
20.531489
20
0.3283789
40
0.2926762
50
359.5558955
51
11.2092924
0
ARC
8
DEFAULT_255_1_388
10
20.6391857
20
0.3506667
40
0.1827036
50
10.9185717
51
31.322519
0
ARC
8
DEFAULT_255_1_388
10
20.6713405
20
0.3685571
40
0.1459418
50
31.8850633
51
52.1415586
0
ARC
8
DEFAULT_255_1_388
10
20.6404835
20
0.3249674
40
0.1993088
50
52.8283418
51
71.9850132
0
ARC
8
DEFAULT_255_1_388
10
20.5981995
20
0.2005158
40
0.3307407
50
71.686634
51
82.8453416
0
ARC
8
DEFAULT_255_1_388
10
20.5712642
20
-0.0030108
40
0.536039
50
82.6981895
51
90.1730083
0
ARC
8
DEFAULT_255_1_388
10
20.5687474
20
0.0848836
40
0.4481429
50
89.8851568
51
90.0383283
0
LINE
8
DEFAULT_255_1_388
10
21.7466957
20
-0.6398
11
21.2903956
21
-0.6398
0
LINE
8
DEFAULT_255_1_388
10
21.2903956
20
-0.6398
11
21.2903956
21
0.6757898
0
LINE
8
DEFAULT_255_1_388
10
21.2903956
20
0.6757898
11
21.7204923
21
0.6757898
0
LINE
8
DEFAULT_255_1_388
10
21.7530206
20
-0.0244726
11
21.46388
21
-0.0244726
0
LINE
8
DEFAULT_255_1_388
10
21.46388
20
-0.0244726
11
21.46388
21
-0.4979404
0
LINE
8
DEFAULT_255_1_388
10
21.46388
20
-0.4979404
11
21.7503099
21
-0.4979404
0
LINE
8
DEFAULT_255_1_388
10
21.46388
20
0.5330267
11
21.46388
21
0.1146763
0
LINE
8
DEFAULT_255_1_388
10
21.46388
20
0.1146763
11
21.7259137
21
0.1146763
0
LINE
8
DEFAULT_255_1_388
10
21.7204923
20
0.5330267
11
21.46388
21
0.5330267
0
ARC
8
DEFAULT_255_1_388
10
21.7247343
20
-0.1530176
40
0.8288183
50
82.1256322
51
90.2932506
0
ARC
8
DEFAULT_255_1_388
10
21.7684918
20
0.152759
40
0.5199321
50
69.9044202
51
82.2857574
0
ARC
8
DEFAULT_255_1_388
10
21.8326911
20
0.3262993
40
0.3348993
50
51.1840204
51
70.018125
0
ARC
8
DEFAULT_255_1_388
10
21.8613743
20
0.3679945
40
0.2844579
50
12.1018086
51
50.421322
0
ARC
8
DEFAULT_255_1_388
10
21.7056614
20
0.3288937
40
0.4449429
50
359.5252354
51
12.8212369
0
ARC
8
DEFAULT_255_1_388
10
21.8834045
20
0.3210943
40
0.2672162
50
323.4907456
51
0.8818258
0
ARC
8
DEFAULT_255_1_388
10
21.8363457
20
0.3574523
40
0.3266736
50
298.6824053
51
323.2758285
0
ARC
8
DEFAULT_255_1_388
10
21.7956749
20
0.4250509
40
0.4055105
50
293.1994739
51
299.139634
0
ARC
8
DEFAULT_255_1_388
10
21.8713698
20
-0.2595349
40
0.3229926
50
54.0009997
51
74.9168635
0
ARC
8
DEFAULT_255_1_388
10
21.8844625
20
-0.2373489
40
0.2973581
50
36.3578854
51
53.5293172
0
ARC
8
DEFAULT_255_1_388
10
21.8701993
20
-0.247515
40
0.3148715
50
4.8189348
51
36.3090187
0
ARC
8
DEFAULT_255_1_388
10
21.7825017
20
-0.2598617
40
0.4033265
50
359.9373213
51
5.5201284
0
ARC
8
DEFAULT_255_1_388
10
21.7460347
20
-0.2644267
40
0.4398126
50
344.7479357
51
0.5372278
0
ARC
8
DEFAULT_255_1_388
10
21.8575246
20
-0.2944795
40
0.3243441
50
311.1785587
51
344.6887681
0
ARC
8
DEFAULT_255_1_388
10
21.8246789
20
-0.2535916
40
0.3767511
50
286.0417804
51
310.8440924
0
ARC
8
DEFAULT_255_1_388
10
21.7676198
20
-0.0683115
40
0.5705957
50
274.1044074
51
286.4070149
0
ARC
8
DEFAULT_255_1_388
10
21.7477414
20
0.1434901
40
0.7832907
50
269.9235077
51
274.4458593
0
ARC
8
DEFAULT_255_1_388
10
21.7529132
20
-0.1196538
40
0.3782955
50
269.6057074
51
281.3740795
0
ARC
8
DEFAULT_255_1_388
10
21.778863
20
-0.2426431
40
0.2526069
50
281.105298
51
302.5134029
0
ARC
8
DEFAULT_255_1_388
10
21.7954018
20
-0.2723056
40
0.2187131
50
303.0365425
51
311.8818034
0
ARC
8
DEFAULT_255_1_388
10
21.8034195
20
-0.2818398
40
0.2062624
50
311.9916937
51
351.7143773
0
ARC
8
DEFAULT_255_1_388
10
21.711522
20
-0.2632729
40
0.2999202
50
350.7343295
51
0.2221526
0
ARC
8
DEFAULT_255_1_388
10
21.6994308
20
-0.256913
40
0.3120525
50
359.045729
51
17.2295312
0
ARC
8
DEFAULT_255_1_388
10
21.8163339
20
-0.2221845
40
0.1901144
50
17.6685208
51
78.9940245
0
ARC
8
DEFAULT_255_1_388
10
21.7581699
20
-0.4309989
40
0.4065575
50
76.565218
51
90.7103392
0
LINE
8
DEFAULT_255_1_388
10
21.7531296
20
-0.0244726
11
21.7530206
21
-0.0244726
0
ARC
8
DEFAULT_255_1_388
10
21.7284525
20
0.4842949
40
0.3696273
50
269.6064514
51
281.4533785
0
ARC
8
DEFAULT_255_1_388
10
21.7535166
20
0.3660283
40
0.2487412
50
281.2044438
51
302.5143998
0
ARC
8
DEFAULT_255_1_388
10
21.768942
20
0.3382576
40
0.2170405
50
303.0211308
51
309.8378766
0
ARC
8
DEFAULT_255_1_388
10
21.7895537
20
0.3151486
40
0.1860946
50
309.5229446
51
356.9509628
0
ARC
8
DEFAULT_255_1_388
10
21.7149663
20
0.3258831
40
0.2612347
50
355.4699226
51
0.0498632
0
ARC
8
DEFAULT_255_1_388
10
21.6835337
20
0.3283789
40
0.2926762
50
359.5558955
51
11.2092924
0
ARC
8
DEFAULT_255_1_388
10
21.7912304
20
0.3506667
40
0.1827036
50
10.9185717
51
31.322519
0
ARC
8
DEFAULT_255_1_388
10
21.8233852
20
0.3685571
40
0.1459418
50
31.8850633
51
52.1415586
0
ARC
8
DEFAULT_255_1_388
10
21.7925281
20
0.3249674
40
0.1993088
50
52.8283418
51
71.9850132
0
ARC
8
DEFAULT_255_1_388
10
21.7502442
20
0.2005158
40
0.3307407
50
71.686634
51
82.8453416
0
ARC
8
DEFAULT_255_1_388
10
21.7233089
20
-0.0030108
40
0.536039
50
82.6981895
51
90.1730083
0
ARC
8
DEFAULT_255_1_388
10
21.7207921
20
0.0848836
40
0.4481429
50
89.8851568
51
90.0383283
0
LINE
8
DEFAULT_255_1_388
10
23.2240235
20
0.138169
11
23.2240235
21
-0.0786865
0
LINE
8
DEFAULT_255_1_388
10
22.3936478
20
-0.1012756
11
22.3936478
21
0.1219048
0
LINE
8
DEFAULT_255_1_388
10
23.0568641
20
-0.1238647
11
23.0568641
21
0.1499153
0
LINE
8
DEFAULT_255_1_388
10
22.5608072
20
0.1625652
11
22.5608072
21
-0.1048898
0
ARC
8
DEFAULT_255_1_388
10
21.8462569
20
-0.0841882
40
1.3777776
50
353.8440855
51
0.2287917
0
ARC
8
DEFAULT_255_1_388
10
22.3681587
20
-0.1424586
40
0.852639
50
344.4934746
51
353.9763743
0
ARC
8
DEFAULT_255_1_388
10
22.7048394
20
-0.2381809
40
0.5026273
50
329.2803599
51
344.7473406
0
ARC
8
DEFAULT_255_1_388
10
22.816389
20
-0.2993962
40
0.3754848
50
324.9361395
51
328.6153007
0
ARC
8
DEFAULT_255_1_388
10
22.8589539
20
-0.3291414
40
0.3235566
50
280.5801797
51
324.9173226
0
ARC
8
DEFAULT_255_1_388
10
22.8138168
20
-0.1411764
40
0.5167077
50
269.5979457
51
281.6732777
0
ARC
8
DEFAULT_255_1_388
10
22.8057072
20
-0.1546887
40
0.5032026
50
256.6228565
51
270.5105488
0
ARC
8
DEFAULT_255_1_388
10
22.7604814
20
-0.3288655
40
0.3233092
50
215.8618351
51
257.2787793
0
ARC
8
DEFAULT_255_1_388
10
22.8753521
20
-0.2517894
40
0.4615831
50
197.9695203
51
215.2622745
0
ARC
8
DEFAULT_255_1_388
10
23.1549197
20
-0.1574359
40
0.7566307
50
187.8816486
51
198.2346584
0
ARC
8
DEFAULT_255_1_388
10
23.6002435
20
-0.0931547
40
1.2065653
50
180.8977266
51
188.0054894
0
ARC
8
DEFAULT_255_1_388
10
23.9052649
20
-0.08166
40
1.5117443
50
180.7434591
51
181.152202
0
ARC
8
DEFAULT_255_1_388
10
23.7377645
20
0.1273371
40
1.3441277
50
173.7674302
51
180.2315596
0
ARC
8
DEFAULT_255_1_388
10
23.2295514
20
0.1847779
40
0.8326847
50
164.3058537
51
173.9000553
0
ARC
8
DEFAULT_255_1_388
10
22.9019514
20
0.2791652
40
0.4917711
50
148.7922028
51
164.5682288
0
ARC
8
DEFAULT_255_1_388
10
22.7950251
20
0.3388457
40
0.3694204
50
144.5883979
51
148.1161588
0
ARC
8
DEFAULT_255_1_388
10
22.7562996
20
0.3658667
40
0.322202
50
101.6440149
51
144.5142619
0
ARC
8
DEFAULT_255_1_388
10
22.8041189
20
0.1758337
40
0.5180451
50
89.528284
51
102.5820197
0
ARC
8
DEFAULT_255_1_388
10
22.8130181
20
0.1714376
40
0.5224441
50
77.0437914
51
90.508231
0
ARC
8
DEFAULT_255_1_388
10
22.8582434
20
0.3562272
40
0.3322297
50
48.2777708
51
77.4996087
0
ARC
8
DEFAULT_255_1_388
10
22.8664174
20
0.3707557
40
0.315966
50
36.3141586
51
47.6307332
0
ARC
8
DEFAULT_255_1_388
10
22.7686896
20
0.3049159
40
0.4337313
50
18.2931065
51
35.6770203
0
ARC
8
DEFAULT_255_1_388
10
22.4825737
20
0.2067107
40
0.7362203
50
8.0246996
51
18.5605636
0
ARC
8
DEFAULT_255_1_388
10
22.0142093
20
0.1375432
40
1.2096583
50
1.127539
51
8.1718423
0
ARC
8
DEFAULT_255_1_388
10
21.6493226
20
0.1232374
40
1.5747719
50
0.5432713
51
1.38669
0
ARC
8
DEFAULT_255_1_388
10
21.8550605
20
0.1539163
40
1.2018103
50
359.8092569
51
4.9408001
0
ARC
8
DEFAULT_255_1_388
10
22.3287186
20
0.19619
40
0.7262727
50
4.8364937
51
12.2906017
0
ARC
8
DEFAULT_255_1_388
10
22.6386651
20
0.2652485
40
0.4087324
50
12.0806994
51
23.8171225
0
ARC
8
DEFAULT_255_1_388
10
22.7707047
20
0.3211508
40
0.2653719
50
24.2874621
51
31.3934353
0
ARC
8
DEFAULT_255_1_388
10
22.8297483
20
0.3597822
40
0.1948607
50
30.7407708
51
82.4658033
0
ARC
8
DEFAULT_255_1_388
10
22.8095144
20
0.2604017
40
0.2961198
50
81.1057101
51
90.2187368
0
ARC
8
DEFAULT_255_1_388
10
22.8054956
20
0.2894421
40
0.2670929
50
89.380395
51
105.6763916
0
ARC
8
DEFAULT_255_1_388
10
22.7848678
20
0.364432
40
0.1893189
50
105.7980655
51
149.7387869
0
ARC
8
DEFAULT_255_1_388
10
22.9045818
20
0.2924719
40
0.3289892
50
149.4208441
51
163.628295
0
ARC
8
DEFAULT_255_1_388
10
23.1398047
20
0.2207345
40
0.5749004
50
163.3764549
51
172.141138
0
ARC
8
DEFAULT_255_1_388
10
23.5110769
20
0.1675582
40
0.9499585
50
172.0258462
51
178.0705453
0
ARC
8
DEFAULT_255_1_388
10
23.8532321
20
0.1513682
40
1.2924734
50
177.8639301
51
179.5036263
0
ARC
8
DEFAULT_255_1_388
10
23.731334
20
-0.1089849
40
1.170534
50
179.7995545
51
185.246089
0
ARC
8
DEFAULT_255_1_388
10
23.2764933
20
-0.1520596
40
0.7136613
50
185.1411911
51
193.0082205
0
ARC
8
DEFAULT_255_1_388
10
22.9791194
20
-0.2223559
40
0.4080987
50
192.7897338
51
205.2507384
0
ARC
8
DEFAULT_255_1_388
10
22.8613404
20
-0.2749462
40
0.2791522
50
205.8001921
51
211.2545876
0
ARC
8
DEFAULT_255_1_388
10
22.8024943
20
-0.3143868
40
0.2084074
50
210.3789935
51
238.4007996
0
ARC
8
DEFAULT_255_1_388
10
22.8003029
20
-0.3091214
40
0.2117943
50
239.6521916
51
265.9793852
0
ARC
8
DEFAULT_255_1_388
10
22.8098878
20
-0.2334642
40
0.2879689
50
265.1324455
51
270.0603288
0
ARC
8
DEFAULT_255_1_388
10
22.8131255
20
-0.2699582
40
0.2514919
50
269.3314378
51
287.2180039
0
ARC
8
DEFAULT_255_1_388
10
22.8286337
20
-0.3265709
40
0.1928357
50
287.7957942
51
329.0808983
0
ARC
8
DEFAULT_255_1_388
10
22.7209094
20
-0.2593349
40
0.319808
50
328.6635261
51
343.3325043
0
ARC
8
DEFAULT_255_1_388
10
22.4764553
20
-0.1831805
40
0.5758408
50
343.0498092
51
351.9392499
0
ARC
8
DEFAULT_255_1_388
10
22.0863875
20
-0.1256795
40
0.9701202
50
351.8071632
51
357.7957897
0
ARC
8
DEFAULT_255_1_388
10
21.7229352
20
-0.1068276
40
1.3340376
50
357.5870923
51
359.2682493
0
ARC
8
DEFAULT_255_2_778
10
7.7537338
20
92.0262992
40
3.0484709
50
251.6854144
51
258.6071955
0
ARC
8
DEFAULT_255_2_778
10
7.539521
20
90.9446738
40
1.9458471
50
258.4992492
51
268.3986479
0
ARC
8
DEFAULT_255_2_778
10
7.5172314
20
90.5144206
40
1.5151737
50
268.7865272
51
269.9950384
0
ARC
8
DEFAULT_255_2_778
10
7.5277432
20
90.0632355
40
1.0640417
50
269.426895
51
279.6711067
0
ARC
8
DEFAULT_255_2_778
10
7.6417753
20
89.4336746
40
0.4243233
50
278.7731084
51
300.3324923
0
ARC
8
DEFAULT_255_2_778
10
7.760746
20
89.2310552
40
0.1893587
50
300.2240287
51
1.9041213
0
ARC
8
DEFAULT_255_2_778
10
7.7452705
20
89.2402089
40
0.2047497
50
359.1991369
51
359.99965
0
ARC
8
DEFAULT_255_2_778
10
7.7523233
20
89.2410378
40
0.1976988
50
359.7594145
51
47.1793976
0
ARC
8
DEFAULT_255_2_778
10
7.6187277
20
89.092431
40
0.3975169
50
47.6144502
51
60.8366176
0
ARC
8
DEFAULT_255_2_778
10
7.0190958
20
88.0764865
40
1.5771337
50
59.799464
51
64.8885807
0
ARC
8
DEFAULT_255_2_778
10
6.0948833
20
86.1474682
40
3.7160912
50
64.6076081
51
66.8386974
0
ARC
8
DEFAULT_255_2_778
10
9.6419609
20
94.5105052
40
5.368109
50
244.3032309
51
247.1393781
0
ARC
8
DEFAULT_255_2_778
10
8.5507088
20
92.250518
40
2.8584574
50
240.2323579
51
244.3709759
0
ARC
8
DEFAULT_255_2_778
10
7.7800475
20
90.9136591
40
1.315392
50
233.2209971
51
240.4606284
0
ARC
8
DEFAULT_255_2_778
10
7.3561477
20
90.3425187
40
0.6041399
50
225.6990744
51
232.9899679
0
ARC
8
DEFAULT_255_2_778
10
7.3965073
20
90.3669214
40
0.6499005
50
178.2783416
51
224.6550883
0
ARC
8
DEFAULT_255_2_778
10
7.5059624
20
90.4002974
40
0.7591885
50
157.033673
51
181.0453383
0
ARC
8
DEFAULT_255_2_778
10
7.378439
20
90.4411396
40
0.6259551
50
124.9113017
51
155.9211516
0
ARC
8
DEFAULT_255_2_778
10
7.5960466
20
90.1325681
40
1.0035357
50
100.4079723
51
125.0168617
0
ARC
8
DEFAULT_255_2_778
10
7.6991199
20
89.6385046
40
1.5081396
50
89.6483922
51
100.8684975
0
ARC
8
DEFAULT_255_2_778
10
7.7083242
20
89.2862988
40
1.8603169
50
89.5079487
51
89.9984402
0
ARC
8
DEFAULT_255_2_778
10
7.7099573
20
89.2210694
40
1.9255311
50
83.9170631
51
89.5732113
0
ARC
8
DEFAULT_255_2_778
10
7.5071517
20
87.2134957
40
3.9433074
50
80.7325723
51
84.0779772
0
ARC
8
DEFAULT_255_2_778
10
7.0208457
20
84.190582
40
7.0050837
50
78.5086351
51
80.7886813
0
ARC
8
DEFAULT_255_2_778
10
7.6620177
20
88.7900544
40
1.9415426
50
67.135818
51
78.0934208
0
ARC
8
DEFAULT_255_2_778
10
7.7851814
20
89.3604809
40
1.3579807
50
78.2126325
51
89.7333975
0
ARC
8
DEFAULT_255_2_778
10
7.7793853
20
89.7756211
40
0.9429038
50
89.2638155
51
100.5666868
0
ARC
8
DEFAULT_255_2_778
10
7.6660949
20
90.3454419
40
0.362036
50
99.4784875
51
124.329414
0
ARC
8
DEFAULT_255_2_778
10
7.5705593
20
90.493551
40
0.1859067
50
125.7571195
51
182.2824883
0
ARC
8
DEFAULT_255_2_778
10
7.5493239
20
90.4868629
40
0.1645253
50
180.2492993
51
239.8144161
0
ARC
8
DEFAULT_255_2_778
10
7.932718
20
91.0869128
40
0.876484
50
237.8725734
51
242.8068846
0
ARC
8
DEFAULT_255_2_778
10
9.4175857
20
93.9034958
40
4.0604642
50
242.3328458
51
244.031083
0
ARC
8
DEFAULT_255_2_778
10
12.3804066
20
99.9519314
40
10.7955807
50
243.950624
51
244.8024316
0
ARC
8
DEFAULT_255_2_778
10
15.4009918
20
106.3359175
40
17.8580926
50
244.7535425
51
244.9563234
0
ARC
8
DEFAULT_255_2_778
10
5.8652927
20
85.8343264
40
4.7527588
50
62.2505456
51
65.4301556
0
ARC
8
DEFAULT_255_2_778
10
6.9275435
20
87.8424172
40
2.4810291
50
57.2951304
51
62.3684211
0
ARC
8
DEFAULT_255_2_778
10
7.6807233
20
89.0057235
40
1.0952081
50
48.7345704
51
57.5685367
0
ARC
8
DEFAULT_255_2_778
10
8.0117486
20
89.3932722
40
0.5856147
50
44.3236031
51
48.0704418
0
ARC
8
DEFAULT_255_2_778
10
7.9783002
20
89.3732468
40
0.6236013
50
1.3523843
51
43.4925744
0
ARC
8
DEFAULT_255_2_778
10
7.7103531
20
89.3403151
40
0.8926473
50
359.9763756
51
3.0599076
0
ARC
8
DEFAULT_255_2_778
10
7.8645343
20
89.3252407
40
0.7386124
50
333.0361889
51
1.1408766
0
ARC
8
DEFAULT_255_2_778
10
7.8947908
20
89.3321919
40
0.7150741
50
300.8430083
51
331.4403095
0
ARC
8
DEFAULT_255_2_778
10
7.694568
20
89.6457162
40
1.0869673
50
281.4258583
51
301.4316118
0
ARC
8
DEFAULT_255_2_778
10
7.5632666
20
90.2539414
40
1.7091691
50
270.2273513
51
281.7010805
0
ARC
8
DEFAULT_255_2_778
10
7.5453797
20
90.7306043
40
2.1859577
50
269.9983113
51
270.6466065
0
LINE
8
DEFAULT_255_2_778
10
7.5453153
20
88.5446465
11
7.5438002
21
88.544647
0
ARC
8
DEFAULT_255_2_778
10
7.5509161
20
91.7275969
40
3.1829579
50
256.2431122
51
269.871909
0
ARC
8
DEFAULT_255_2_778
10
21.7538511
20
91.9521629
40
2.9720345
50
251.5709223
51
258.7508181
0
ARC
8
DEFAULT_255_2_778
10
21.5538128
20
90.9289385
40
1.9294488
50
258.6495077
51
268.8281511
0
ARC
8
DEFAULT_255_2_778
10
21.5355488
20
90.5341193
40
1.5343723
50
269.2085037
51
269.9981866
0
ARC
8
DEFAULT_255_2_778
10
21.5473849
20
90.0657184
40
1.0660376
50
269.3612297
51
279.5899087
0
ARC
8
DEFAULT_255_2_778
10
21.6608439
20
89.4342324
40
0.424527
50
278.6895227
51
300.2363944
0
ARC
8
DEFAULT_255_2_778
10
21.7799083
20
89.2307793
40
0.188796
50
300.1108484
51
1.9024905
0
ARC
8
DEFAULT_255_2_778
10
21.7439577
20
89.2414221
40
0.2246851
50
358.8842611
51
0.0019649
0
ARC
8
DEFAULT_255_2_778
10
21.7769791
20
89.2453385
40
0.1917038
50
358.831716
51
47.0900458
0
ARC
8
DEFAULT_255_2_778
10
21.6364654
20
89.085984
40
0.4041259
50
47.8812665
51
61.174665
0
ARC
8
DEFAULT_255_2_778
10
21.0418848
20
88.0660117
40
1.5846568
50
60.1210877
51
65.1917015
0
ARC
8
DEFAULT_255_2_778
10
20.1415278
20
86.1604122
40
3.6922188
50
64.9168629
51
67.1565628
0
ARC
8
DEFAULT_255_2_778
10
23.6275467
20
94.4319888
40
5.2839333
50
244.2656926
51
247.1407051
0
ARC
8
DEFAULT_255_2_778
10
22.5594997
20
92.223765
40
2.8309849
50
240.1545061
51
244.3326325
0
ARC
8
DEFAULT_255_2_778
10
21.7856548
20
90.8877346
40
1.2870531
50
232.697515
51
240.4357497
0
ARC
8
DEFAULT_255_2_778
10
21.3705506
20
90.3367218
40
0.5972006
50
225.5850892
51
232.3393736
0
ARC
8
DEFAULT_255_2_778
10
21.4133941
20
90.3662933
40
0.6483829
50
178.7795739
51
224.7095916
0
ARC
8
DEFAULT_255_2_778
10
21.6669319
20
90.3903135
40
0.9018316
50
179.997867
51
180.6487041
0
ARC
8
DEFAULT_255_2_778
10
21.5167738
20
90.4041249
40
0.7517998
50
156.9195758
51
181.050088
0
ARC
8
DEFAULT_255_2_778
10
21.3928482
20
90.4435712
40
0.6224513
50
124.7111133
51
155.7879672
0
ARC
8
DEFAULT_255_2_778
10
21.6055459
20
90.1516942
40
0.9835402
50
101.7934503
51
125.2143527
0
ARC
8
DEFAULT_255_2_778
10
21.729848
20
89.5991326
40
1.5498677
50
89.5248728
51
102.1166783
0
ARC
8
DEFAULT_255_2_778
10
21.7283109
20
89.0455834
40
2.1034129
50
83.2889725
51
89.6080411
0
ARC
8
DEFAULT_255_2_778
10
21.529975
20
87.2777668
40
3.8823067
50
79.4764054
51
83.4308492
0
ARC
8
DEFAULT_255_2_778
10
21.2186357
20
85.5245673
40
5.6628977
50
78.2224868
51
79.6190915
0
ARC
8
DEFAULT_255_2_778
10
21.6838473
20
88.8020715
40
1.9311543
50
67.1323814
51
78.3148813
0
ARC
8
DEFAULT_255_2_778
10
21.801359
20
89.3535614
40
1.3672981
50
78.4565774
51
89.7552271
0
ARC
8
DEFAULT_255_2_778
10
21.7951366
20
89.784447
40
0.9364778
50
89.2619009
51
100.5950934
0
ARC
8
DEFAULT_255_2_778
10
21.6824182
20
90.3499169
40
0.3599879
50
99.5087086
51
124.406715
0
ARC
8
DEFAULT_255_2_778
10
21.5878565
20
90.496343
40
0.1858061
50
125.8630185
51
182.2986975
0
ARC
8
DEFAULT_255_2_778
10
21.5497296
20
90.4888047
40
0.1475296
50
179.9666559
51
180.100057
0
ARC
8
DEFAULT_255_2_778
10
21.566185
20
90.488793
40
0.163985
50
180.0859454
51
239.8819968
0
ARC
8
DEFAULT_255_2_778
10
21.9379018
20
91.0755619
40
0.8584853
50
238.072871
51
243.0442008
0
ARC
8
DEFAULT_255_2_778
10
23.4872034
20
94.0405845
40
4.2038426
50
242.5409111
51
244.1884903
0
ARC
8
DEFAULT_255_2_778
10
26.6463384
20
100.535196
40
11.4260319
50
244.1076525
51
244.9219574
0
ARC
8
DEFAULT_255_2_778
10
29.9038827
20
107.458855
40
19.0777309
50
244.8743531
51
245.066969
0
ARC
8
DEFAULT_255_2_778
10
19.8865272
20
85.8666274
40
4.7250654
50
62.0340028
51
65.293009
0
ARC
8
DEFAULT_255_2_778
10
20.9507744
20
87.8615758
40
2.464003
50
57.1127289
51
62.13736
0
ARC
8
DEFAULT_255_2_778
10
21.7037139
20
89.0152906
40
1.0863604
50
48.3695509
51
57.4197129
0
ARC
8
DEFAULT_255_2_778
10
22.0286268
20
89.3920419
40
0.5889589
50
44.472493
51
47.6467012
0
ARC
8
DEFAULT_255_2_778
10
21.9979457
20
89.3749032
40
0.6229283
50
1.2061613
51
43.6203607
0
ARC
8
DEFAULT_255_2_778
10
21.7312413
20
89.3424903
40
0.890659
50
359.9779196
51
2.9299178
0
ARC
8
DEFAULT_255_2_778
10
21.8802547
20
89.3273837
40
0.7417924
50
333.172934
51
1.140392
0
ARC
8
DEFAULT_255_2_778
10
21.9146167
20
89.3320736
40
0.7135172
50
300.9808035
51
331.5913995
0
ARC
8
DEFAULT_255_2_778
10
21.7182603
20
89.6419862
40
1.0803281
50
281.9040909
51
301.4483918
0
ARC
8
DEFAULT_255_2_778
10
21.5848425
20
90.2405518
40
1.6935565
50
270.5796874
51
282.1436175
0
ARC
8
DEFAULT_255_2_778
10
21.5636722
20
90.7354735
40
2.1887267
50
269.9959074
51
271.0027751
0
LINE
8
DEFAULT_255_2_778
10
21.5635158
20
88.5467468
11
21.5625002
21
88.546747
0
ARC
8
DEFAULT_255_2_778
10
21.5700221
20
91.7355174
40
3.1887792
50
256.2556596
51
269.8648469
0
LINE
8
DEFAULT_255_2_778
10
6.7958002
20
88.637547
11
6.7958002
21
89.132247
0
LINE
8
DEFAULT_255_2_778
10
8.4164002
20
91.055247
11
8.4164002
21
90.579047
0
LINE
8
DEFAULT_255_2_778
10
6.7940002
20
88.635947
11
6.7958002
21
88.637547
0
LINE
8
DEFAULT_255_2_778
10
8.9866002
20
91.104747
11
9.6629002
21
91.104747
0
LINE
8
DEFAULT_255_2_778
10
9.6629002
20
91.104747
11
9.6629002
21
88.597347
0
LINE
8
DEFAULT_255_2_778
10
9.6629002
20
88.597347
11
8.9866002
21
88.597347
0
LINE
8
DEFAULT_255_2_778
10
8.9866002
20
88.597347
11
8.9866002
21
91.104747
0
LINE
8
DEFAULT_255_2_778
10
10.2809002
20
88.597347
11
10.2809002
21
91.104747
0
LINE
8
DEFAULT_255_2_778
10
10.2809002
20
91.104747
11
12.0132002
21
91.104747
0
LINE
8
DEFAULT_255_2_778
10
12.0132002
20
91.104747
11
12.0132002
21
90.651047
0
LINE
8
DEFAULT_255_2_778
10
12.0132002
20
90.651047
11
10.9321002
21
90.651047
0
LINE
8
DEFAULT_255_2_778
10
10.9321002
20
90.651047
11
10.9321002
21
90.084747
0
LINE
8
DEFAULT_255_2_778
10
10.9321002
20
90.084747
11
11.8735002
21
90.084747
0
LINE
8
DEFAULT_255_2_778
10
11.8735002
20
90.084747
11
11.8735002
21
89.671247
0
LINE
8
DEFAULT_255_2_778
10
11.8735002
20
89.671247
11
10.9321002
21
89.671247
0
LINE
8
DEFAULT_255_2_778
10
10.9321002
20
89.671247
11
10.9321002
21
89.075947
0
LINE
8
DEFAULT_255_2_778
10
10.9321002
20
89.075947
11
12.0412002
21
89.075947
0
LINE
8
DEFAULT_255_2_778
10
12.0412002
20
89.075947
11
12.0412002
21
88.595747
0
LINE
8
DEFAULT_255_2_778
10
12.0412002
20
88.595747
11
10.2809002
21
88.597347
0
LINE
8
DEFAULT_255_2_778
10
12.4817002
20
88.597347
11
12.4817002
21
91.104747
0
LINE
8
DEFAULT_255_2_778
10
12.4817002
20
91.104747
11
13.3575002
21
91.104747
0
LINE
8
DEFAULT_255_2_778
10
13.3575002
20
91.104747
11
13.9671002
21
89.502447
0
LINE
8
DEFAULT_255_2_778
10
13.9671002
20
89.502447
11
14.5897002
21
91.104747
0
LINE
8
DEFAULT_255_2_778
10
14.5897002
20
91.104747
11
15.4215002
21
91.104747
0
LINE
8
DEFAULT_255_2_778
10
15.4215002
20
91.104747
11
15.4215002
21
88.597347
0
LINE
8
DEFAULT_255_2_778
10
15.4215002
20
88.597347
11
14.7812002
21
88.597347
0
LINE
8
DEFAULT_255_2_778
10
14.7812002
20
88.597347
11
14.7812002
21
90.373147
0
LINE
8
DEFAULT_255_2_778
10
14.7812002
20
90.373147
11
14.0724002
21
88.572947
0
LINE
8
DEFAULT_255_2_778
10
14.0724002
20
88.572947
11
13.6515002
21
88.572947
0
LINE
8
DEFAULT_255_2_778
10
13.6515002
20
88.572947
11
12.9559002
21
90.373147
0
LINE
8
DEFAULT_255_2_778
10
12.9559002
20
90.373147
11
12.9559002
21
88.597047
0
LINE
8
DEFAULT_255_2_778
10
12.9559002
20
88.597047
11
12.4817002
21
88.597347
0
LINE
8
DEFAULT_255_2_778
10
16.0409002
20
88.597347
11
16.0409002
21
91.104747
0
LINE
8
DEFAULT_255_2_778
10
16.0409002
20
91.104747
11
17.7731002
21
91.104747
0
LINE
8
DEFAULT_255_2_778
10
17.7731002
20
91.104747
11
17.7731002
21
90.651047
0
LINE
8
DEFAULT_255_2_778
10
17.7731002
20
90.651047
11
16.6921002
21
90.651047
0
LINE
8
DEFAULT_255_2_778
10
16.6921002
20
90.651047
11
16.6921002
21
90.084747
0
LINE
8
DEFAULT_255_2_778
10
16.6921002
20
90.084747
11
17.6334002
21
90.084747
0
LINE
8
DEFAULT_255_2_778
10
17.6334002
20
90.084747
11
17.6334002
21
89.671247
0
LINE
8
DEFAULT_255_2_778
10
17.6334002
20
89.671247
11
16.6921002
21
89.671247
0
LINE
8
DEFAULT_255_2_778
10
16.6921002
20
89.671247
11
16.6921002
21
89.075947
0
LINE
8
DEFAULT_255_2_778
10
16.6921002
20
89.075947
11
17.8030002
21
89.075947
0
LINE
8
DEFAULT_255_2_778
10
17.8030002
20
89.075947
11
17.8030002
21
88.595747
0
LINE
8
DEFAULT_255_2_778
10
17.8030002
20
88.595747
11
16.0409002
21
88.597347
0
LINE
8
DEFAULT_255_2_778
10
18.2454002
20
88.597347
11
18.2454002
21
91.104747
0
LINE
8
DEFAULT_255_2_778
10
18.2454002
20
91.104747
11
19.0283002
21
91.104747
0
LINE
8
DEFAULT_255_2_778
10
19.0283002
20
91.104747
11
19.8586002
21
89.425947
0
LINE
8
DEFAULT_255_2_778
10
19.8586002
20
89.425947
11
19.8586002
21
91.104747
0
LINE
8
DEFAULT_255_2_778
10
19.8586002
20
91.104747
11
20.3343002
21
91.104747
0
LINE
8
DEFAULT_255_2_778
10
20.3343002
20
91.104747
11
20.3343002
21
88.597347
0
LINE
8
DEFAULT_255_2_778
10
20.3343002
20
88.597347
11
19.5739002
21
88.597347
0
LINE
8
DEFAULT_255_2_778
10
19.5739002
20
88.597347
11
18.7214002
21
90.298547
0
LINE
8
DEFAULT_255_2_778
10
18.7214002
20
90.298547
11
18.7214002
21
88.597347
0
LINE
8
DEFAULT_255_2_778
10
18.7214002
20
88.597347
11
18.2454002
21
88.597347
0
LINE
8
DEFAULT_255_2_778
10
20.8143002
20
88.637747
11
20.8143002
21
89.132547
0
LINE
8
DEFAULT_255_2_778
10
22.3745002
20
91.068247
11
22.4343002
21
91.057647
0
LINE
8
DEFAULT_255_2_778
10
22.4343002
20
91.057647
11
22.4343002
21
90.581447
0
LINE
8
DEFAULT_255_2_778
10
20.8124002
20
88.638047
11
20.8143002
21
88.637747
0
LINE
8
DEFAULT_255_1_388
10
5.5069457
20
86.9464892
11
5.3325577
21
86.9464892
0
LINE
8
DEFAULT_255_1_388
10
4.5536852
20
86.3926042
11
4.7280731
21
86.3926042
0
ARC
8
DEFAULT_255_1_388
10
5.4066304
20
87.9528821
40
1.4087688
50
248.9196578
51
254.1442424
0
ARC
8
DEFAULT_255_1_388
10
5.2176184
20
87.4662805
40
0.8867498
50
241.6337352
51
249.0064643
0
ARC
8
DEFAULT_255_1_388
10
5.0456498
20
87.1511764
40
0.5277799
50
230.4982261
51
241.8087583
0
ARC
8
DEFAULT_255_1_388
10
4.9574269
20
87.0387686
40
0.3849419
50
227.4062979
51
229.9877433
0
ARC
8
DEFAULT_255_1_388
10
4.9025615
20
86.9852155
40
0.3084129
50
200.6782127
51
228.1765252
0
ARC
8
DEFAULT_255_1_388
10
4.9106984
20
86.9835277
40
0.315461
50
179.506278
51
199.8695278
0
ARC
8
DEFAULT_255_1_388
10
4.9096573
20
86.9918671
40
0.3144584
50
132.4834401
51
181.0242352
0
ARC
8
DEFAULT_255_1_388
10
4.9765777
20
86.9286788
40
0.4063094
50
129.2526113
51
133.4249077
0
ARC
8
DEFAULT_255_1_388
10
4.993137
20
86.9038619
40
0.436014
50
101.9878945
51
128.8741833
0
ARC
8
DEFAULT_255_1_388
10
5.0379785
20
86.710236
40
0.6347415
50
89.5906376
51
102.3170567
0
ARC
8
DEFAULT_255_1_388
10
5.0459097
20
86.7460586
40
0.5989122
50
77.2359491
51
90.3248968
0
ARC
8
DEFAULT_255_1_388
10
5.0692028
20
86.8548554
40
0.4876594
50
63.8379856
51
77.0808925
0
ARC
8
DEFAULT_255_1_388
10
5.1004561
20
86.9130882
40
0.4216191
50
45.9863127
51
64.1608798
0
ARC
8
DEFAULT_255_1_388
10
5.1297955
20
86.946599
40
0.3771394
50
32.2747934
51
45.6544796
0
ARC
8
DEFAULT_255_1_388
10
5.1372761
20
86.9487426
40
0.3696765
50
359.6507495
51
32.6129943
0
ARC
8
DEFAULT_255_1_388
10
5.0311944
20
86.9492788
40
0.3013762
50
359.469654
51
14.983205
0
ARC
8
DEFAULT_255_1_388
10
5.1105196
20
86.9705288
40
0.2192542
50
14.9781954
51
48.2004799
0
ARC
8
DEFAULT_255_1_388
10
5.0920307
20
86.9472937
40
0.2489048
50
48.5926661
51
74.1242559
0
ARC
8
DEFAULT_255_1_388
10
5.0545109
20
86.8234607
40
0.3782845
50
73.7889321
51
86.6653996
0
ARC
8
DEFAULT_255_1_388
10
5.0429924
20
86.6876955
40
0.5145025
50
86.2642725
51
90.0533288
0
ARC
8
DEFAULT_255_1_388
10
5.0398017
20
86.7321376
40
0.4700681
50
89.669455
51
99.2313411
0
ARC
8
DEFAULT_255_1_388
10
5.0125176
20
86.8946401
40
0.3052945
50
99.0695987
51
113.7659242
0
ARC
8
DEFAULT_255_1_388
10
4.9817171
20
86.9672772
40
0.226407
50
114.0402885
51
127.9848946
0
ARC
8
DEFAULT_255_1_388
10
4.9546647
20
87.0005884
40
0.1835045
50
127.7287217
51
176.7106493
0
ARC
8
DEFAULT_255_1_388
10
5.0310312
20
86.989221
40
0.2604907
50
175.1780759
51
180.0581213
0
ARC
8
DEFAULT_255_1_388
10
4.9361656
20
86.9878411
40
0.1656287
50
179.6140658
51
228.124674
0
ARC
8
DEFAULT_255_1_388
10
4.9859013
20
87.033894
40
0.2332038
50
226.5785315
51
230.8792476
0
ARC
8
DEFAULT_255_1_388
10
5.03885
20
87.1041908
40
0.3211664
50
231.4636401
51
241.9261664
0
ARC
8
DEFAULT_255_1_388
10
5.1735283
20
87.3520349
40
0.6032345
50
241.7177136
51
248.3259138
0
ARC
8
DEFAULT_255_1_388
10
5.3293878
20
87.7381771
40
1.0196417
50
248.2007377
51
252.4527713
0
ARC
8
DEFAULT_255_1_388
10
5.4647405
20
88.1566092
40
1.4594143
50
252.3388938
51
254.347037
0
ARC
8
DEFAULT_255_1_388
10
4.6162705
20
85.1218095
40
1.6917621
50
71.0197462
51
74.4085467
0
ARC
8
DEFAULT_255_1_388
10
4.8069793
20
85.6723144
40
1.1091618
50
66.1845203
51
71.086519
0
ARC
8
DEFAULT_255_1_388
10
4.9820342
20
86.0664439
40
0.6779073
50
59.3537334
51
66.269255
0
ARC
8
DEFAULT_255_1_388
10
5.0820068
20
86.2355777
40
0.4814366
50
49.1021732
51
59.3294421
0
ARC
8
DEFAULT_255_1_388
10
5.1741056
20
86.3405575
40
0.3417875
50
32.7924183
51
49.2503526
0
ARC
8
DEFAULT_255_1_388
10
5.209067
20
86.3655311
40
0.2988789
50
31.121225
51
32.3977355
0
ARC
8
DEFAULT_255_1_388
10
5.2002848
20
86.3622728
40
0.3080861
50
8.1116803
51
30.7958224
0
ARC
8
DEFAULT_255_1_388
10
5.1091194
20
86.3467437
40
0.4005385
50
359.8390945
51
8.4707348
0
ARC
8
DEFAULT_255_1_388
10
5.1795242
20
86.3412751
40
0.3301608
50
337.4732479
51
0.7538283
0
ARC
8
DEFAULT_255_1_388
10
5.1996267
20
86.3390554
40
0.3107929
50
307.5917028
51
336.4313755
0
ARC
8
DEFAULT_255_1_388
10
5.1485324
20
86.3958509
40
0.3870096
50
307.6560665
51
308.4561779
0
ARC
8
DEFAULT_255_1_388
10
5.1219541
20
86.4366832
40
0.435591
50
284.3733666
51
307.1426212
0
ARC
8
DEFAULT_255_1_388
10
5.0662435
20
86.6416391
40
0.6479685
50
272.4384566
51
284.6464689
0
ARC
8
DEFAULT_255_1_388
10
5.051982
20
86.8440434
40
0.8508149
50
269.9708517
51
272.8180721
0
ARC
8
DEFAULT_255_1_388
10
5.0471503
20
86.6148283
40
0.6216151
50
248.2707343
51
270.4054609
0
ARC
8
DEFAULT_255_1_388
10
5.0410374
20
86.5933673
40
0.5994203
50
246.1380358
51
248.054058
0
ARC
8
DEFAULT_255_1_388
10
4.9939517
20
86.4944705
40
0.4899388
50
233.1671897
51
246.4951656
0
ARC
8
DEFAULT_255_1_388
10
4.9316152
20
86.4103137
40
0.3852115
50
215.3403381
51
233.084328
0
ARC
8
DEFAULT_255_1_388
10
4.9009516
20
86.3880093
40
0.3472969
50
179.2419235
51
215.2648426
0
ARC
8
DEFAULT_255_1_388
10
4.9873067
20
86.3895979
40
0.259251
50
179.3355796
51
199.1045873
0
ARC
8
DEFAULT_255_1_388
10
4.9499209
20
86.3798223
40
0.2207454
50
199.8830064
51
232.7061328
0
ARC
8
DEFAULT_255_1_388
10
5.0030483
20
86.4466456
40
0.306101
50
232.3736206
51
255.5136621
0
ARC
8
DEFAULT_255_1_388
10
5.0413989
20
86.5866177
40
0.4512213
50
255.2447928
51
267.5318292
0
ARC
8
DEFAULT_255_1_388
10
5.0512456
20
86.7252709
40
0.5901825
50
267.1564563
51
270.0294721
0
ARC
8
DEFAULT_255_1_388
10
5.0543781
20
86.6753623
40
0.5402814
50
269.6999944
51
278.1662446
0
ARC
8
DEFAULT_255_1_388
10
5.0831809
20
86.4806974
40
0.3435003
50
278.0229022
51
290.6255326
0
ARC
8
DEFAULT_255_1_388
10
5.1222975
20
86.3763547
40
0.2320666
50
290.6616368
51
307.0374127
0
ARC
8
DEFAULT_255_1_388
10
5.1560875
20
86.334904
40
0.1786372
50
306.3942078
51
355.303191
0
ARC
8
DEFAULT_255_1_388
10
5.0985168
20
86.3435186
40
0.2367516
50
354.3662092
51
0.0709489
0
ARC
8
DEFAULT_255_1_388
10
5.1145037
20
86.3460561
40
0.2207761
50
359.4175379
51
16.1975911
0
ARC
8
DEFAULT_255_1_388
10
5.1657155
20
86.3600954
40
0.1676828
50
16.4721294
51
52.6261798
0
ARC
8
DEFAULT_255_1_388
10
5.0733662
20
86.2381606
40
0.3206412
50
52.7381828
51
62.4979144
0
ARC
8
DEFAULT_255_1_388
10
4.9175415
20
85.9449236
40
0.6527035
50
62.2517425
51
68.1219454
0
ARC
8
DEFAULT_255_1_388
10
4.7240903
20
85.4694951
40
1.1659797
50
68.006043
51
71.8055127
0
ARC
8
DEFAULT_255_1_388
10
4.5220811
20
84.8636723
40
1.8045908
50
71.718361
51
73.9260743
0
LINE
8
DEFAULT_255_1_388
10
5.9180675
20
87.3268898
11
5.9180675
21
86.0113
0
LINE
8
DEFAULT_255_1_388
10
5.9180675
20
86.0113
11
5.7445831
21
86.0113
0
LINE
8
DEFAULT_255_1_388
10
5.7445831
20
86.0113
11
5.7445831
21
87.3268898
0
LINE
8
DEFAULT_255_1_388
10
5.7445831
20
87.3268898
11
5.9180675
21
87.3268898
0
LINE
8
DEFAULT_255_1_388
10
6.2352186
20
87.3268898
11
6.4593026
21
87.3268898
0
LINE
8
DEFAULT_255_1_388
10
6.4593026
20
87.3268898
11
6.8893993
21
86.2534553
0
LINE
8
DEFAULT_255_1_388
10
6.8893993
20
86.2534553
11
7.3194959
21
87.3268898
0
LINE
8
DEFAULT_255_1_388
10
7.3194959
20
87.3268898
11
7.5444835
21
87.3268898
0
LINE
8
DEFAULT_255_1_388
10
7.5444835
20
87.3268898
11
7.5444835
21
86.0113
0
LINE
8
DEFAULT_255_1_388
10
7.5444835
20
86.0113
11
7.3709991
21
86.0113
0
LINE
8
DEFAULT_255_1_388
10
7.3709991
20
86.0113
11
7.3709991
21
86.523621
0
LINE
8
DEFAULT_255_1_388
10
7.3709991
20
86.523621
11
7.3872633
21
87.0766025
0
LINE
8
DEFAULT_255_1_388
10
7.3872633
20
87.0766025
11
6.9553595
21
86.0113
0
LINE
8
DEFAULT_255_1_388
10
6.9553595
20
86.0113
11
6.8225355
21
86.0113
0
LINE
8
DEFAULT_255_1_388
10
6.8225355
20
86.0113
11
6.3915353
21
87.0738918
0
LINE
8
DEFAULT_255_1_388
10
6.3915353
20
87.0738918
11
6.408703
21
86.523621
0
LINE
8
DEFAULT_255_1_388
10
6.408703
20
86.523621
11
6.408703
21
86.0113
0
LINE
8
DEFAULT_255_1_388
10
6.408703
20
86.0113
11
6.2352186
21
86.0113
0
LINE
8
DEFAULT_255_1_388
10
6.2352186
20
86.0113
11
6.2352186
21
87.3268898
0
LINE
8
DEFAULT_255_1_388
10
8.7191173
20
86.0113
11
8.5935218
21
86.3546545
0
LINE
8
DEFAULT_255_1_388
10
8.5935218
20
86.3546545
11
8.0423475
21
86.3546545
0
LINE
8
DEFAULT_255_1_388
10
8.0423475
20
86.3546545
11
7.9185592
21
86.0113
0
LINE
8
DEFAULT_255_1_388
10
7.9185592
20
86.0113
11
7.7396534
21
86.0113
0
LINE
8
DEFAULT_255_1_388
10
7.7396534
20
86.0113
11
8.2420353
21
87.3268898
0
LINE
8
DEFAULT_255_1_388
10
8.2420353
20
87.3268898
11
8.3938341
21
87.3268898
0
LINE
8
DEFAULT_255_1_388
10
8.3938341
20
87.3268898
11
8.8971195
21
86.0113
0
LINE
8
DEFAULT_255_1_388
10
8.8971195
20
86.0113
11
8.7191173
21
86.0113
0
LINE
8
DEFAULT_255_1_388
10
8.3179347
20
87.1127451
11
8.0947542
21
86.4974177
0
LINE
8
DEFAULT_255_1_388
10
8.0947542
20
86.4974177
11
8.5420187
21
86.4974177
0
LINE
8
DEFAULT_255_1_388
10
8.5420187
20
86.4974177
11
8.3179347
21
87.1127451
0
LINE
8
DEFAULT_255_1_388
10
9.8666441
20
87.3268898
11
9.8666441
21
87.1841267
0
LINE
8
DEFAULT_255_1_388
10
9.8666441
20
87.1841267
11
9.443776
21
87.1841267
0
LINE
8
DEFAULT_255_1_388
10
9.443776
20
87.1841267
11
9.443776
21
86.0113
0
LINE
8
DEFAULT_255_1_388
10
9.443776
20
86.0113
11
9.2711952
21
86.0113
0
LINE
8
DEFAULT_255_1_388
10
9.2711952
20
86.0113
11
9.2711952
21
87.1841267
0
LINE
8
DEFAULT_255_1_388
10
9.2711952
20
87.1841267
11
8.8492306
21
87.1841267
0
LINE
8
DEFAULT_255_1_388
10
8.8492306
20
87.1841267
11
8.8492306
21
87.3268898
0
LINE
8
DEFAULT_255_1_388
10
8.8492306
20
87.3268898
11
9.8666441
21
87.3268898
0
LINE
8
DEFAULT_255_1_388
10
10.2479483
20
87.3268898
11
10.2479483
21
86.0113
0
LINE
8
DEFAULT_255_1_388
10
10.2479483
20
86.0113
11
10.074464
21
86.0113
0
LINE
8
DEFAULT_255_1_388
10
10.074464
20
86.0113
11
10.074464
21
87.3268898
0
LINE
8
DEFAULT_255_1_388
10
10.074464
20
87.3268898
11
10.2479483
21
87.3268898
0
LINE
8
DEFAULT_255_1_388
10
11.3584291
20
86.4287468
11
11.532817
21
86.4287468
0
LINE
8
DEFAULT_255_1_388
10
10.5199212
20
86.6076525
11
10.5199212
21
86.7341516
0
LINE
8
DEFAULT_255_1_388
10
11.532817
20
86.9040217
11
11.3584291
21
86.9040217
0
LINE
8
DEFAULT_255_1_388
10
10.6943092
20
86.7296337
11
10.6943092
21
86.6022312
0
ARC
8
DEFAULT_255_1_388
10
10.9162404
20
86.4959329
40
0.6202263
50
340.1774904
51
353.7812217
0
ARC
8
DEFAULT_255_1_388
10
11.0930257
20
86.4300893
40
0.4315926
50
311.4560052
51
340.4420756
0
ARC
8
DEFAULT_255_1_388
10
11.0892796
20
86.4425665
40
0.4434573
50
282.4332229
51
310.7514507
0
ARC
8
DEFAULT_255_1_388
10
11.0398614
20
86.6467703
40
0.6535262
50
269.9358869
51
282.8096729
0
ARC
8
DEFAULT_255_1_388
10
11.0340554
20
86.7980329
40
0.8048043
50
269.9995752
51
270.3612856
0
ARC
8
DEFAULT_255_1_388
10
11.0281044
20
86.5181781
40
0.5249831
50
250.7885263
51
270.6488451
0
ARC
8
DEFAULT_255_1_388
10
11.0091868
20
86.4464853
40
0.4510942
50
219.3628377
51
250.0611024
0
ARC
8
DEFAULT_255_1_388
10
11.1024743
20
86.5257653
40
0.5735046
50
193.5480293
51
219.5755675
0
ARC
8
DEFAULT_255_1_388
10
11.3692952
20
86.595052
40
0.849146
50
181.1220183
51
193.8754971
0
ARC
8
DEFAULT_255_1_388
10
11.6016185
20
86.6074914
40
1.0816971
50
179.9914644
51
181.5398227
0
ARC
8
DEFAULT_255_1_388
10
11.3939495
20
86.7383586
40
0.8740384
50
169.5837606
51
180.275782
0
ARC
8
DEFAULT_255_1_388
10
11.1872844
20
86.7765439
40
0.6638751
50
155.0367033
51
169.6002779
0
ARC
8
DEFAULT_255_1_388
10
11.0595302
20
86.8381336
40
0.5220662
50
136.7831557
51
155.2472983
0
ARC
8
DEFAULT_255_1_388
10
11.0157092
20
86.8753577
40
0.4646502
50
121.7633063
51
136.4281161
0
ARC
8
DEFAULT_255_1_388
10
11.0308932
20
86.8473049
40
0.4964979
50
95.6460018
51
121.5489589
0
ARC
8
DEFAULT_255_1_388
10
11.0485907
20
86.7225704
40
0.6223912
50
89.9245727
51
96.1375919
0
ARC
8
DEFAULT_255_1_388
10
11.0542612
20
86.7359721
40
0.6090084
50
76.6779212
51
90.456405
0
ARC
8
DEFAULT_255_1_388
10
11.0985425
20
86.914906
40
0.42469
50
47.4858803
51
76.9287069
0
ARC
8
DEFAULT_255_1_388
10
11.0820038
20
86.9036623
40
0.4441778
50
16.5424081
51
46.8934505
0
ARC
8
DEFAULT_255_1_388
10
10.9011088
20
86.8442265
40
0.6345318
50
5.4072971
51
17.0363711
0
ARC
8
DEFAULT_255_1_388
10
10.7392813
20
86.8182304
40
0.6250632
50
7.8888693
51
15.9242022
0
ARC
8
DEFAULT_255_1_388
10
10.9627799
20
86.8831309
40
0.3923364
50
15.7650676
51
27.9410069
0
ARC
8
DEFAULT_255_1_388
10
11.0869968
20
86.9496317
40
0.2514401
50
27.8167196
51
46.4007942
0
ARC
8
DEFAULT_255_1_388
10
11.0925809
20
86.9489882
40
0.2480958
50
47.4372362
51
75.0695672
0
ARC
8
DEFAULT_255_1_388
10
11.0578646
20
86.8281277
40
0.3738281
50
74.7009379
51
87.8124314
0
ARC
8
DEFAULT_255_1_388
10
11.0496262
20
86.7097659
40
0.4924321
50
87.3802571
51
90.0251599
0
ARC
8
DEFAULT_255_1_388
10
11.045291
20
86.8417997
40
0.3604218
50
89.3451886
51
108.5744412
0
ARC
8
DEFAULT_255_1_388
10
11.0298902
20
86.8995836
40
0.3007661
50
109.2998307
51
143.3037387
0
ARC
8
DEFAULT_255_1_388
10
11.1156192
20
86.8336584
40
0.4089031
50
143.075267
51
163.1918576
0
ARC
8
DEFAULT_255_1_388
10
11.3352026
20
86.7643652
40
0.6391492
50
162.9375929
51
174.6208776
0
ARC
8
DEFAULT_255_1_388
10
11.6306408
20
86.7319711
40
0.9363344
50
174.342123
51
180.1430283
0
ARC
8
DEFAULT_255_1_388
10
11.5258949
20
86.5976117
40
0.8315986
50
179.6817261
51
189.150555
0
ARC
8
DEFAULT_255_1_388
10
11.2445698
20
86.5507559
40
0.5464044
50
188.9911061
51
203.5772363
0
ARC
8
DEFAULT_255_1_388
10
11.123099
20
86.5003539
40
0.4149206
50
203.9075402
51
215.1312435
0
ARC
8
DEFAULT_255_1_388
10
11.0192788
20
86.4198907
40
0.2837747
50
213.9071511
51
263.8848919
0
ARC
8
DEFAULT_255_1_388
10
11.0333781
20
86.5081519
40
0.3730641
50
263.1757928
51
270.1031044
0
ARC
8
DEFAULT_255_1_388
10
11.036986
20
86.6484511
40
0.5133712
50
269.6722503
51
279.0606936
0
ARC
8
DEFAULT_255_1_388
10
11.0670016
20
86.467015
40
0.3294739
50
278.8749101
51
293.6349581
0
ARC
8
DEFAULT_255_1_388
10
11.1030219
20
86.3824251
40
0.2375405
50
293.8553806
51
310.0518171
0
ARC
8
DEFAULT_255_1_388
10
11.1035728
20
86.3754021
40
0.2318463
50
311.0644687
51
332.0111037
0
ARC
8
DEFAULT_255_1_388
10
10.9694402
20
86.4493702
40
0.3850112
50
331.6586806
51
343.2877423
0
ARC
8
DEFAULT_255_1_388
10
10.7373867
20
86.5206806
40
0.6277712
50
343.1446576
51
351.0103568
0
ARC
8
DEFAULT_255_1_388
10
10.574119
20
86.5506873
40
0.7937327
50
350.71248
51
351.1626997
0
LINE
8
DEFAULT_255_1_388
10
12.9712916
20
86.7612585
11
12.9712916
21
86.6193989
0
LINE
8
DEFAULT_255_1_388
10
12.9712916
20
86.6193989
11
12.4011424
21
86.6193989
0
LINE
8
DEFAULT_255_1_388
10
12.4011424
20
86.6193989
11
12.4011424
21
86.1531596
0
LINE
8
DEFAULT_255_1_388
10
12.4011424
20
86.1531596
11
13.0634552
21
86.1531596
0
LINE
8
DEFAULT_255_1_388
10
13.0634552
20
86.1531596
11
13.0634552
21
86.0113
0
LINE
8
DEFAULT_255_1_388
10
13.0634552
20
86.0113
11
12.2276581
21
86.0113
0
LINE
8
DEFAULT_255_1_388
10
12.2276581
20
86.0113
11
12.2276581
21
87.3268898
0
LINE
8
DEFAULT_255_1_388
10
12.2276581
20
87.3268898
11
13.0544195
21
87.3268898
0
LINE
8
DEFAULT_255_1_388
10
13.0544195
20
87.3268898
11
13.0544195
21
87.1841267
0
LINE
8
DEFAULT_255_1_388
10
13.0544195
20
87.1841267
11
12.4011424
21
87.1841267
0
LINE
8
DEFAULT_255_1_388
10
12.4011424
20
87.1841267
11
12.4011424
21
86.7612585
0
LINE
8
DEFAULT_255_1_388
10
12.4011424
20
86.7612585
11
12.9712916
21
86.7612585
0
LINE
8
DEFAULT_255_1_388
10
14.2064642
20
87.3268898
11
14.2064642
21
87.1841267
0
LINE
8
DEFAULT_255_1_388
10
14.2064642
20
87.1841267
11
13.783596
21
87.1841267
0
LINE
8
DEFAULT_255_1_388
10
13.783596
20
87.1841267
11
13.783596
21
86.0113
0
LINE
8
DEFAULT_255_1_388
10
13.783596
20
86.0113
11
13.6110152
21
86.0113
0
LINE
8
DEFAULT_255_1_388
10
13.6110152
20
86.0113
11
13.6110152
21
87.1841267
0
LINE
8
DEFAULT_255_1_388
10
13.6110152
20
87.1841267
11
13.1890506
21
87.1841267
0
LINE
8
DEFAULT_255_1_388
10
13.1890506
20
87.1841267
11
13.1890506
21
87.3268898
0
LINE
8
DEFAULT_255_1_388
10
13.1890506
20
87.3268898
11
14.2064642
21
87.3268898
0
LINE
8
DEFAULT_255_1_388
10
15.2202635
20
86.1477382
11
15.2202635
21
86.0113
0
LINE
8
DEFAULT_255_1_388
10
15.2202635
20
86.0113
11
14.358263
21
86.0113
0
LINE
8
DEFAULT_255_1_388
10
14.358263
20
86.0113
11
14.358263
21
86.1314741
0
LINE
8
DEFAULT_255_1_388
10
14.358263
20
86.1314741
11
14.8136595
21
86.6374702
0
LINE
8
DEFAULT_255_1_388
10
14.5001227
20
86.9392607
11
14.3329632
21
86.9392607
0
LINE
8
DEFAULT_255_1_388
10
14.912148
20
86.529946
11
14.5597579
21
86.1477382
0
LINE
8
DEFAULT_255_1_388
10
14.5597579
20
86.1477382
11
15.2202635
21
86.1477382
0
ARC
8
DEFAULT_255_1_388
10
13.2960655
20
87.9794983
40
2.0258655
50
318.5132526
51
320.7829045
0
ARC
8
DEFAULT_255_1_388
10
13.8908612
20
87.4953929
40
1.2589638
50
320.7372878
51
323.9739031
0
ARC
8
DEFAULT_255_1_388
10
14.3317543
20
87.1759554
40
0.7145141
50
323.8962701
51
328.64194
0
ARC
8
DEFAULT_255_1_388
10
14.5619801
20
87.0339545
40
0.4440242
50
328.8294576
51
331.7891185
0
ARC
8
DEFAULT_255_1_388
10
14.6742121
20
86.9760374
40
0.3177517
50
331.4254512
51
352.9365785
0
ARC
8
DEFAULT_255_1_388
10
14.6895121
20
86.972605
40
0.3021496
50
353.2257659
51
0.0166158
0
ARC
8
DEFAULT_255_1_388
10
14.7131882
20
86.9751894
40
0.2784847
50
359.486299
51
15.9343185
0
ARC
8
DEFAULT_255_1_388
10
14.7702148
20
86.9905269
40
0.2194403
50
16.1712913
51
43.5286088
0
ARC
8
DEFAULT_255_1_388
10
14.7789093
20
86.9992191
40
0.2071504
50
43.4417391
51
83.1661095
0
ARC
8
DEFAULT_255_1_388
10
14.7638254
20
86.9163316
40
0.2912888
50
82.160179
51
90.1505708
0
ARC
8
DEFAULT_255_1_388
10
14.7602736
20
86.8559279
40
0.3517025
50
89.5460741
51
102.5418361
0
ARC
8
DEFAULT_255_1_388
10
14.7329456
20
86.9718933
40
0.2325748
50
102.1738499
51
129.206123
0
ARC
8
DEFAULT_255_1_388
10
14.7240909
20
86.9858664
40
0.2161591
50
129.72865
51
135.753947
0
ARC
8
DEFAULT_255_1_388
10
14.7377391
20
86.9749728
40
0.2335433
50
136.1757367
51
166.3673339
0
ARC
8
DEFAULT_255_1_388
10
14.851008
20
86.9446148
40
0.3507873
50
165.9090694
51
178.8684636
0
ARC
8
DEFAULT_255_1_388
10
14.9485851
20
86.9393263
40
0.4484624
50
178.4391136
51
180.0083808
0
ARC
8
DEFAULT_255_1_388
10
14.7906553
20
86.9437197
40
0.4577138
50
163.2878482
51
180.5581842
0
ARC
8
DEFAULT_255_1_388
10
14.7004594
20
86.9685393
40
0.3641968
50
133.4540601
51
162.947111
0
ARC
8
DEFAULT_255_1_388
10
14.7205476
20
86.9471789
40
0.3935189
50
100.7869829
51
133.4382499
0
ARC
8
DEFAULT_255_1_388
10
14.7596721
20
86.7729399
40
0.5720313
50
89.660664
51
101.3702276
0
ARC
8
DEFAULT_255_1_388
10
14.767133
20
86.7798263
40
0.5651495
50
78.2172678
51
90.412935
0
ARC
8
DEFAULT_255_1_388
10
14.8070795
20
86.9625511
40
0.378122
50
55.9269121
51
78.4888449
0
ARC
8
DEFAULT_255_1_388
10
14.829151
20
87.0006187
40
0.3342379
50
47.929771
51
55.4049217
0
ARC
8
DEFAULT_255_1_388
10
14.8406041
20
87.0122618
40
0.3179217
50
4.334829
51
48.0560205
0
ARC
8
DEFAULT_255_1_388
10
14.7173842
20
86.9931487
40
0.442341
50
359.9251713
51
5.5971671
0
ARC
8
DEFAULT_255_1_388
10
14.7655997
20
86.9994728
40
0.3941854
50
337.8914027
51
358.9967534
0
ARC
8
DEFAULT_255_1_388
10
14.4603567
20
87.1172295
40
0.7213271
50
326.9132501
51
338.3508308
0
ARC
8
DEFAULT_255_1_388
10
14.0119679
20
87.4046105
40
1.2538973
50
319.6471833
51
327.0959558
0
ARC
8
DEFAULT_255_1_388
10
13.5806337
20
87.760405
40
1.8129975
50
317.2588228
51
319.9045804
0
LINE
8
DEFAULT_255_1_388
10
16.2223165
20
86.789269
11
16.2223165
21
86.5724135
0
LINE
8
DEFAULT_255_1_388
10
15.3919408
20
86.5498244
11
15.3919408
21
86.7730048
0
LINE
8
DEFAULT_255_1_388
10
16.0551571
20
86.5272353
11
16.0551571
21
86.8010153
0
LINE
8
DEFAULT_255_1_388
10
15.5591002
20
86.8136652
11
15.5591002
21
86.5462102
0
ARC
8
DEFAULT_255_1_388
10
14.8445499
20
86.5669118
40
1.3777776
50
353.8440855
51
0.2287917
0
ARC
8
DEFAULT_255_1_388
10
15.3664516
20
86.5086414
40
0.852639
50
344.4934746
51
353.9763743
0
ARC
8
DEFAULT_255_1_388
10
15.7031324
20
86.4129191
40
0.5026273
50
329.2803599
51
344.7473406
0
ARC
8
DEFAULT_255_1_388
10
15.8146819
20
86.3517038
40
0.3754848
50
324.9361395
51
328.6153007
0
ARC
8
DEFAULT_255_1_388
10
15.8572469
20
86.3219586
40
0.3235566
50
280.5801797
51
324.9173226
0
ARC
8
DEFAULT_255_1_388
10
15.8121098
20
86.5099236
40
0.5167077
50
269.5979457
51
281.6732777
0
ARC
8
DEFAULT_255_1_388
10
15.8040001
20
86.4964113
40
0.5032026
50
256.6228565
51
270.5105488
0
ARC
8
DEFAULT_255_1_388
10
15.7587744
20
86.3222345
40
0.3233092
50
215.8618351
51
257.2787793
0
ARC
8
DEFAULT_255_1_388
10
15.8736451
20
86.3993106
40
0.4615831
50
197.9695203
51
215.2622745
0
ARC
8
DEFAULT_255_1_388
10
16.1532127
20
86.4936641
40
0.7566307
50
187.8816486
51
198.2346584
0
ARC
8
DEFAULT_255_1_388
10
16.5985365
20
86.5579453
40
1.2065653
50
180.8977266
51
188.0054894
0
ARC
8
DEFAULT_255_1_388
10
16.9035579
20
86.56944
40
1.5117443
50
180.7434591
51
181.152202
0
ARC
8
DEFAULT_255_1_388
10
16.7360575
20
86.7784371
40
1.3441277
50
173.7674302
51
180.2315596
0
ARC
8
DEFAULT_255_1_388
10
16.2278443
20
86.8358779
40
0.8326847
50
164.3058537
51
173.9000553
0
ARC
8
DEFAULT_255_1_388
10
15.9002443
20
86.9302652
40
0.4917711
50
148.7922028
51
164.5682288
0
ARC
8
DEFAULT_255_1_388
10
15.7933181
20
86.9899457
40
0.3694204
50
144.5883979
51
148.1161588
0
ARC
8
DEFAULT_255_1_388
10
15.7545926
20
87.0169667
40
0.322202
50
101.6440149
51
144.5142619
0
ARC
8
DEFAULT_255_1_388
10
15.8024118
20
86.8269337
40
0.5180451
50
89.528284
51
102.5820197
0
ARC
8
DEFAULT_255_1_388
10
15.811311
20
86.8225376
40
0.5224441
50
77.0437914
51
90.508231
0
ARC
8
DEFAULT_255_1_388
10
15.8565364
20
87.0073272
40
0.3322297
50
48.2777708
51
77.4996087
0
ARC
8
DEFAULT_255_1_388
10
15.8647104
20
87.0218557
40
0.315966
50
36.3141586
51
47.6307332
0
ARC
8
DEFAULT_255_1_388
10
15.7669826
20
86.9560159
40
0.4337313
50
18.2931065
51
35.6770203
0
ARC
8
DEFAULT_255_1_388
10
15.4808667
20
86.8578107
40
0.7362203
50
8.0246996
51
18.5605636
0
ARC
8
DEFAULT_255_1_388
10
15.0125022
20
86.7886432
40
1.2096583
50
1.127539
51
8.1718423
0
ARC
8
DEFAULT_255_1_388
10
14.6476156
20
86.7743374
40
1.5747719
50
0.5432713
51
1.38669
0
ARC
8
DEFAULT_255_1_388
10
14.8533535
20
86.8050163
40
1.2018103
50
359.8092569
51
4.9408001
0
ARC
8
DEFAULT_255_1_388
10
15.3270116
20
86.84729
40
0.7262727
50
4.8364937
51
12.2906017
0
ARC
8
DEFAULT_255_1_388
10
15.6369581
20
86.9163485
40
0.4087324
50
12.0806994
51
23.8171225
0
ARC
8
DEFAULT_255_1_388
10
15.7689977
20
86.9722508
40
0.2653719
50
24.2874621
51
31.3934353
0
ARC
8
DEFAULT_255_1_388
10
15.8280413
20
87.0108822
40
0.1948607
50
30.7407708
51
82.4658033
0
ARC
8
DEFAULT_255_1_388
10
15.8078073
20
86.9115017
40
0.2961198
50
81.1057101
51
90.2187368
0
ARC
8
DEFAULT_255_1_388
10
15.8037885
20
86.9405421
40
0.2670929
50
89.380395
51
105.6763916
0
ARC
8
DEFAULT_255_1_388
10
15.7831607
20
87.015532
40
0.1893189
50
105.7980655
51
149.7387869
0
ARC
8
DEFAULT_255_1_388
10
15.9028747
20
86.9435719
40
0.3289892
50
149.4208441
51
163.628295
0
ARC
8
DEFAULT_255_1_388
10
16.1380977
20
86.8718345
40
0.5749004
50
163.3764549
51
172.141138
0
ARC
8
DEFAULT_255_1_388
10
16.5093698
20
86.8186582
40
0.9499585
50
172.0258462
51
178.0705453
0
ARC
8
DEFAULT_255_1_388
10
16.8515251
20
86.8024682
40
1.2924734
50
177.8639301
51
179.5036263
0
ARC
8
DEFAULT_255_1_388
10
16.729627
20
86.5421151
40
1.170534
50
179.7995545
51
185.246089
0
ARC
8
DEFAULT_255_1_388
10
16.2747863
20
86.4990404
40
0.7136613
50
185.1411911
51
193.0082205
0
ARC
8
DEFAULT_255_1_388
10
15.9774124
20
86.4287441
40
0.4080987
50
192.7897338
51
205.2507384
0
ARC
8
DEFAULT_255_1_388
10
15.8596334
20
86.3761538
40
0.2791522
50
205.8001921
51
211.2545876
0
ARC
8
DEFAULT_255_1_388
10
15.8007873
20
86.3367132
40
0.2084074
50
210.3789935
51
238.4007996
0
ARC
8
DEFAULT_255_1_388
10
15.7985959
20
86.3419786
40
0.2117943
50
239.6521916
51
265.9793852
0
ARC
8
DEFAULT_255_1_388
10
15.8081808
20
86.4176358
40
0.2879689
50
265.1324455
51
270.0603288
0
ARC
8
DEFAULT_255_1_388
10
15.8114185
20
86.3811418
40
0.2514919
50
269.3314378
51
287.2180039
0
ARC
8
DEFAULT_255_1_388
10
15.8269267
20
86.3245291
40
0.1928357
50
287.7957942
51
329.0808983
0
ARC
8
DEFAULT_255_1_388
10
15.7192024
20
86.3917651
40
0.319808
50
328.6635261
51
343.3325043
0
ARC
8
DEFAULT_255_1_388
10
15.4747483
20
86.4679195
40
0.5758408
50
343.0498092
51
351.9392499
0
ARC
8
DEFAULT_255_1_388
10
15.0846804
20
86.5254205
40
0.9701202
50
351.8071632
51
357.7957897
0
ARC
8
DEFAULT_255_1_388
10
14.7212281
20
86.5442724
40
1.3340376
50
357.5870923
51
359.2682493
0
LINE
8
DEFAULT_255_1_388
10
17.2614156
20
86.789269
11
17.2614156
21
86.5724135
0
LINE
8
DEFAULT_255_1_388
10
16.4310399
20
86.5498244
11
16.4310399
21
86.7730048
0
LINE
8
DEFAULT_255_1_388
10
17.0942562
20
86.5272353
11
17.0942562
21
86.8010153
0
LINE
8
DEFAULT_255_1_388
10
16.5981993
20
86.8136652
11
16.5981993
21
86.5462102
0
ARC
8
DEFAULT_255_1_388
10
15.883649
20
86.5669118
40
1.3777776
50
353.8440855
51
0.2287917
0
ARC
8
DEFAULT_255_1_388
10
16.4055508
20
86.5086414
40
0.852639
50
344.4934746
51
353.9763743
0
ARC
8
DEFAULT_255_1_388
10
16.7422315
20
86.4129191
40
0.5026273
50
329.2803599
51
344.7473406
0
ARC
8
DEFAULT_255_1_388
10
16.8537811
20
86.3517038
40
0.3754848
50
324.9361395
51
328.6153007
0
ARC
8
DEFAULT_255_1_388
10
16.896346
20
86.3219586
40
0.3235566
50
280.5801797
51
324.9173226
0
ARC
8
DEFAULT_255_1_388
10
16.8512089
20
86.5099236
40
0.5167077
50
269.5979457
51
281.6732777
0
ARC
8
DEFAULT_255_1_388
10
16.8430992
20
86.4964113
40
0.5032026
50
256.6228565
51
270.5105488
0
ARC
8
DEFAULT_255_1_388
10
16.7978735
20
86.3222345
40
0.3233092
50
215.8618351
51
257.2787793
0
ARC
8
DEFAULT_255_1_388
10
16.9127442
20
86.3993106
40
0.4615831
50
197.9695203
51
215.2622745
0
ARC
8
DEFAULT_255_1_388
10
17.1923118
20
86.4936641
40
0.7566307
50
187.8816486
51
198.2346584
0
ARC
8
DEFAULT_255_1_388
10
17.6376356
20
86.5579453
40
1.2065653
50
180.8977266
51
188.0054894
0
ARC
8
DEFAULT_255_1_388
10
17.942657
20
86.56944
40
1.5117443
50
180.7434591
51
181.152202
0
ARC
8
DEFAULT_255_1_388
10
17.7751566
20
86.7784371
40
1.3441277
50
173.7674302
51
180.2315596
0
ARC
8
DEFAULT_255_1_388
10
17.2669435
20
86.8358779
40
0.8326847
50
164.3058537
51
173.9000553
0
ARC
8
DEFAULT_255_1_388
10
16.9393435
20
86.9302652
40
0.4917711
50
148.7922028
51
164.5682288
0
ARC
8
DEFAULT_255_1_388
10
16.8324172
20
86.9899457
40
0.3694204
50
144.5883979
51
148.1161588
0
ARC
8
DEFAULT_255_1_388
10
16.7936917
20
87.0169667
40
0.322202
50
101.6440149
51
144.5142619
0
ARC
8
DEFAULT_255_1_388
10
16.841511
20
86.8269337
40
0.5180451
50
89.528284
51
102.5820197
0
ARC
8
DEFAULT_255_1_388
10
16.8504102
20
86.8225376
40
0.5224441
50
77.0437914
51
90.508231
0
ARC
8
DEFAULT_255_1_388
10
16.8956355
20
87.0073272
40
0.3322297
50
48.2777708
51
77.4996087
0
ARC
8
DEFAULT_255_1_388
10
16.9038095
20
87.0218557
40
0.315966
50
36.3141586
51
47.6307332
0
ARC
8
DEFAULT_255_1_388
10
16.8060817
20
86.9560159
40
0.4337313
50
18.2931065
51
35.6770203
0
ARC
8
DEFAULT_255_1_388
10
16.5199658
20
86.8578107
40
0.7362203
50
8.0246996
51
18.5605636
0
ARC
8
DEFAULT_255_1_388
10
16.0516014
20
86.7886432
40
1.2096583
50
1.127539
51
8.1718423
0
ARC
8
DEFAULT_255_1_388
10
15.6867147
20
86.7743374
40
1.5747719
50
0.5432713
51
1.38669
0
ARC
8
DEFAULT_255_1_388
10
15.8924526
20
86.8050163
40
1.2018103
50
359.8092569
51
4.9408001
0
ARC
8
DEFAULT_255_1_388
10
16.3661107
20
86.84729
40
0.7262727
50
4.8364937
51
12.2906017
0
ARC
8
DEFAULT_255_1_388
10
16.6760572
20
86.9163485
40
0.4087324
50
12.0806994
51
23.8171225
0
ARC
8
DEFAULT_255_1_388
10
16.8080968
20
86.9722508
40
0.2653719
50
24.2874621
51
31.3934353
0
ARC
8
DEFAULT_255_1_388
10
16.8671404
20
87.0108822
40
0.1948607
50
30.7407708
51
82.4658033
0
ARC
8
DEFAULT_255_1_388
10
16.8469065
20
86.9115017
40
0.2961198
50
81.1057101
51
90.2187368
0
ARC
8
DEFAULT_255_1_388
10
16.8428877
20
86.9405421
40
0.2670929
50
89.380395
51
105.6763916
0
ARC
8
DEFAULT_255_1_388
10
16.8222598
20
87.015532
40
0.1893189
50
105.7980655
51
149.7387869
0
ARC
8
DEFAULT_255_1_388
10
16.9419739
20
86.9435719
40
0.3289892
50
149.4208441
51
163.628295
0
ARC
8
DEFAULT_255_1_388
10
17.1771968
20
86.8718345
40
0.5749004
50
163.3764549
51
172.141138
0
ARC
8
DEFAULT_255_1_388
10
17.548469
20
86.8186582
40
0.9499585
50
172.0258462
51
178.0705453
0
ARC
8
DEFAULT_255_1_388
10
17.8906242
20
86.8024682
40
1.2924734
50
177.8639301
51
179.5036263
0
ARC
8
DEFAULT_255_1_388
10
17.7687261
20
86.5421151
40
1.170534
50
179.7995545
51
185.246089
0
ARC
8
DEFAULT_255_1_388
10
17.3138854
20
86.4990404
40
0.7136613
50
185.1411911
51
193.0082205
0
ARC
8
DEFAULT_255_1_388
10
17.0165115
20
86.4287441
40
0.4080987
50
192.7897338
51
205.2507384
0
ARC
8
DEFAULT_255_1_388
10
16.8987325
20
86.3761538
40
0.2791522
50
205.8001921
51
211.2545876
0
ARC
8
DEFAULT_255_1_388
10
16.8398864
20
86.3367132
40
0.2084074
50
210.3789935
51
238.4007996
0
ARC
8
DEFAULT_255_1_388
10
16.837695
20
86.3419786
40
0.2117943
50
239.6521916
51
265.9793852
0
ARC
8
DEFAULT_255_1_388
10
16.8472799
20
86.4176358
40
0.2879689
50
265.1324455
51
270.0603288
0
ARC
8
DEFAULT_255_1_388
10
16.8505176
20
86.3811418
40
0.2514919
50
269.3314378
51
287.2180039
0
ARC
8
DEFAULT_255_1_388
10
16.8660258
20
86.3245291
40
0.1928357
50
287.7957942
51
329.0808983
0
ARC
8
DEFAULT_255_1_388
10
16.7583015
20
86.3917651
40
0.319808
50
328.6635261
51
343.3325043
0
ARC
8
DEFAULT_255_1_388
10
16.5138474
20
86.4679195
40
0.5758408
50
343.0498092
51
351.9392499
0
ARC
8
DEFAULT_255_1_388
10
16.1237795
20
86.5254205
40
0.9701202
50
351.8071632
51
357.7957897
0
ARC
8
DEFAULT_255_1_388
10
15.7603272
20
86.5442724
40
1.3340376
50
357.5870923
51
359.2682493
0
LINE
8
DEFAULT_255_1_388
10
18.262565
20
86.7612585
11
18.262565
21
86.6193989
0
LINE
8
DEFAULT_255_1_388
10
18.262565
20
86.6193989
11
17.6924159
21
86.6193989
0
LINE
8
DEFAULT_255_1_388
10
17.6924159
20
86.6193989
11
17.6924159
21
86.1531596
0
LINE
8
DEFAULT_255_1_388
10
17.6924159
20
86.1531596
11
18.3547286
21
86.1531596
0
LINE
8
DEFAULT_255_1_388
10
18.3547286
20
86.1531596
11
18.3547286
21
86.0113
0
LINE
8
DEFAULT_255_1_388
10
18.3547286
20
86.0113
11
17.5189315
21
86.0113
0
LINE
8
DEFAULT_255_1_388
10
17.5189315
20
86.0113
11
17.5189315
21
87.3268898
0
LINE
8
DEFAULT_255_1_388
10
17.5189315
20
87.3268898
11
18.345693
21
87.3268898
0
LINE
8
DEFAULT_255_1_388
10
18.345693
20
87.3268898
11
18.345693
21
87.1841267
0
LINE
8
DEFAULT_255_1_388
10
18.345693
20
87.1841267
11
17.6924159
21
87.1841267
0
LINE
8
DEFAULT_255_1_388
10
17.6924159
20
87.1841267
11
17.6924159
21
86.7612585
0
LINE
8
DEFAULT_255_1_388
10
17.6924159
20
86.7612585
11
18.262565
21
86.7612585
0
LINE
8
DEFAULT_255_1_388
10
19.3640101
20
86.4287468
11
19.538398
21
86.4287468
0
LINE
8
DEFAULT_255_1_388
10
18.5255023
20
86.6076525
11
18.5255023
21
86.7341516
0
LINE
8
DEFAULT_255_1_388
10
19.538398
20
86.9040217
11
19.3640101
21
86.9040217
0
LINE
8
DEFAULT_255_1_388
10
18.6998902
20
86.7296337
11
18.6998902
21
86.6022312
0
ARC
8
DEFAULT_255_1_388
10
18.9218214
20
86.4959329
40
0.6202263
50
340.1774904
51
353.7812217
0
ARC
8
DEFAULT_255_1_388
10
19.0986067
20
86.4300893
40
0.4315926
50
311.4560052
51
340.4420756
0
ARC
8
DEFAULT_255_1_388
10
19.0948607
20
86.4425665
40
0.4434573
50
282.4332229
51
310.7514507
0
ARC
8
DEFAULT_255_1_388
10
19.0454425
20
86.6467703
40
0.6535262
50
269.9358869
51
282.8096729
0
ARC
8
DEFAULT_255_1_388
10
19.0396364
20
86.7980329
40
0.8048043
50
269.9995752
51
270.3612856
0
ARC
8
DEFAULT_255_1_388
10
19.0336854
20
86.5181781
40
0.5249831
50
250.7885263
51
270.6488451
0
ARC
8
DEFAULT_255_1_388
10
19.0147679
20
86.4464853
40
0.4510942
50
219.3628377
51
250.0611024
0
ARC
8
DEFAULT_255_1_388
10
19.1080553
20
86.5257653
40
0.5735046
50
193.5480293
51
219.5755675
0
ARC
8
DEFAULT_255_1_388
10
19.3748762
20
86.595052
40
0.849146
50
181.1220183
51
193.8754971
0
ARC
8
DEFAULT_255_1_388
10
19.6071996
20
86.6074914
40
1.0816971
50
179.9914644
51
181.5398227
0
ARC
8
DEFAULT_255_1_388
10
19.3995306
20
86.7383586
40
0.8740384
50
169.5837606
51
180.275782
0
ARC
8
DEFAULT_255_1_388
10
19.1928654
20
86.7765439
40
0.6638751
50
155.0367033
51
169.6002779
0
ARC
8
DEFAULT_255_1_388
10
19.0651112
20
86.8381336
40
0.5220662
50
136.7831557
51
155.2472983
0
ARC
8
DEFAULT_255_1_388
10
19.0212903
20
86.8753577
40
0.4646502
50
121.7633063
51
136.4281161
0
ARC
8
DEFAULT_255_1_388
10
19.0364743
20
86.8473049
40
0.4964979
50
95.6460018
51
121.5489589
0
ARC
8
DEFAULT_255_1_388
10
19.0541717
20
86.7225704
40
0.6223912
50
89.9245727
51
96.1375919
0
ARC
8
DEFAULT_255_1_388
10
19.0598422
20
86.7359721
40
0.6090084
50
76.6779212
51
90.456405
0
ARC
8
DEFAULT_255_1_388
10
19.1041235
20
86.914906
40
0.42469
50
47.4858803
51
76.9287069
0
ARC
8
DEFAULT_255_1_388
10
19.0875849
20
86.9036623
40
0.4441778
50
16.5424081
51
46.8934505
0
ARC
8
DEFAULT_255_1_388
10
18.9066899
20
86.8442265
40
0.6345318
50
5.4072971
51
17.0363711
0
ARC
8
DEFAULT_255_1_388
10
18.7448624
20
86.8182304
40
0.6250632
50
7.8888693
51
15.9242022
0
ARC
8
DEFAULT_255_1_388
10
18.9683609
20
86.8831309
40
0.3923364
50
15.7650676
51
27.9410069
0
ARC
8
DEFAULT_255_1_388
10
19.0925779
20
86.9496317
40
0.2514401
50
27.8167196
51
46.4007942
0
ARC
8
DEFAULT_255_1_388
10
19.098162
20
86.9489882
40
0.2480958
50
47.4372362
51
75.0695672
0
ARC
8
DEFAULT_255_1_388
10
19.0634456
20
86.8281277
40
0.3738281
50
74.7009379
51
87.8124314
0
ARC
8
DEFAULT_255_1_388
10
19.0552073
20
86.7097659
40
0.4924321
50
87.3802571
51
90.0251599
0
ARC
8
DEFAULT_255_1_388
10
19.050872
20
86.8417997
40
0.3604218
50
89.3451886
51
108.5744412
0
ARC
8
DEFAULT_255_1_388
10
19.0354713
20
86.8995836
40
0.3007661
50
109.2998307
51
143.3037387
0
ARC
8
DEFAULT_255_1_388
10
19.1212002
20
86.8336584
40
0.4089031
50
143.075267
51
163.1918576
0
ARC
8
DEFAULT_255_1_388
10
19.3407837
20
86.7643652
40
0.6391492
50
162.9375929
51
174.6208776
0
ARC
8
DEFAULT_255_1_388
10
19.6362218
20
86.7319711
40
0.9363344
50
174.342123
51
180.1430283
0
ARC
8
DEFAULT_255_1_388
10
19.531476
20
86.5976117
40
0.8315986
50
179.6817261
51
189.150555
0
ARC
8
DEFAULT_255_1_388
10
19.2501509
20
86.5507559
40
0.5464044
50
188.9911061
51
203.5772363
0
ARC
8
DEFAULT_255_1_388
10
19.12868
20
86.5003539
40
0.4149206
50
203.9075402
51
215.1312435
0
ARC
8
DEFAULT_255_1_388
10
19.0248598
20
86.4198907
40
0.2837747
50
213.9071511
51
263.8848919
0
ARC
8
DEFAULT_255_1_388
10
19.0389591
20
86.5081519
40
0.3730641
50
263.1757928
51
270.1031044
0
ARC
8
DEFAULT_255_1_388
10
19.0425671
20
86.6484511
40
0.5133712
50
269.6722503
51
279.0606936
0
ARC
8
DEFAULT_255_1_388
10
19.0725826
20
86.467015
40
0.3294739
50
278.8749101
51
293.6349581
0
ARC
8
DEFAULT_255_1_388
10
19.108603
20
86.3824251
40
0.2375405
50
293.8553806
51
310.0518171
0
ARC
8
DEFAULT_255_1_388
10
19.1091539
20
86.3754021
40
0.2318463
50
311.0644687
51
332.0111037
0
ARC
8
DEFAULT_255_1_388
10
18.9750212
20
86.4493702
40
0.3850112
50
331.6586806
51
343.2877423
0
ARC
8
DEFAULT_255_1_388
10
18.7429678
20
86.5206806
40
0.6277712
50
343.1446576
51
351.0103568
0
ARC
8
DEFAULT_255_1_388
10
18.5797001
20
86.5506873
40
0.7937327
50
350.71248
51
351.1626997
0
LINE
8
DEFAULT_255_1_388
10
20.7871241
20
86.7097553
11
20.7871241
21
86.6266274
0
LINE
8
DEFAULT_255_1_388
10
19.7290501
20
86.6148811
11
19.7290501
21
86.7097553
0
LINE
8
DEFAULT_255_1_388
10
20.6145433
20
86.6139775
11
20.6145433
21
86.7115625
0
LINE
8
DEFAULT_255_1_388
10
19.901631
20
86.7233088
11
19.901631
21
86.6266274
0
ARC
8
DEFAULT_255_1_388
10
19.814898
20
86.6221726
40
0.9722364
50
350.4878118
51
0.2625322
0
ARC
8
DEFAULT_255_1_388
10
20.072894
20
86.5777994
40
0.7104556
50
336.0277991
51
350.5787241
0
ARC
8
DEFAULT_255_1_388
10
20.2242046
20
86.5094243
40
0.544417
50
319.887443
51
336.1331163
0
ARC
8
DEFAULT_255_1_388
10
20.2919859
20
86.4551733
40
0.4576311
50
302.4806296
51
319.6144102
0
ARC
8
DEFAULT_255_1_388
10
20.279048
20
86.4801067
40
0.4856183
50
275.8196423
51
302.1885521
0
ARC
8
DEFAULT_255_1_388
10
20.2603341
20
86.6086466
40
0.6154183
50
269.9169897
51
276.339506
0
ARC
8
DEFAULT_255_1_388
10
20.2552942
20
86.531468
40
0.5382553
50
252.5221437
51
270.441579
0
ARC
8
DEFAULT_255_1_388
10
20.2391192
20
86.4708046
40
0.4755426
50
237.5349961
51
252.1858334
0
ARC
8
DEFAULT_255_1_388
10
20.2491568
20
86.483612
40
0.4917393
50
209.0632754
51
237.3492577
0
ARC
8
DEFAULT_255_1_388
10
20.3470894
20
86.5451104
40
0.6072464
50
205.118533
51
209.6465345
0
ARC
8
DEFAULT_255_1_388
10
20.4366896
20
86.5831174
40
0.7045164
50
188.7216633
51
204.8239753
0
ARC
8
DEFAULT_255_1_388
10
20.6613672
20
86.6209387
40
0.9323368
50
180.3722704
51
188.9253909
0
ARC
8
DEFAULT_255_1_388
10
20.6583233
20
86.7142416
40
0.929284
50
169.5253055
51
180.2766048
0
ARC
8
DEFAULT_255_1_388
10
20.4443032
20
86.7536024
40
0.7116745
50
155.8314601
51
169.5088611
0
ARC
8
DEFAULT_255_1_388
10
20.3002495
20
86.8204312
40
0.5528904
50
139.6259579
51
156.0379072
0
ARC
8
DEFAULT_255_1_388
10
20.2339029
20
86.8738143
40
0.4677708
50
122.6414784
51
139.3431662
0
ARC
8
DEFAULT_255_1_388
10
20.2452284
20
86.8531787
40
0.4912586
50
93.0224537
51
122.4556091
0
ARC
8
DEFAULT_255_1_388
10
20.2573805
20
86.7445776
40
0.6003837
50
89.9756766
51
93.6340839
0
ARC
8
DEFAULT_255_1_388
10
20.2617402
20
86.7894879
40
0.5554884
50
73.7463329
51
90.4234008
0
ARC
8
DEFAULT_255_1_388
10
20.2814876
20
86.8659772
40
0.4765353
50
57.663051
51
73.4516911
0
ARC
8
DEFAULT_255_1_388
10
20.2805913
20
86.8684108
40
0.4749629
50
29.1441355
51
57.4146687
0
ARC
8
DEFAULT_255_1_388
10
20.1753725
20
86.8027046
40
0.5988917
50
24.0985653
51
29.732054
0
ARC
8
DEFAULT_255_1_388
10
20.0591356
20
86.7545154
40
0.7246823
50
8.6654943
51
23.8241215
0
ARC
8
DEFAULT_255_1_388
10
19.8077775
20
86.7135037
40
0.9793537
50
359.7807044
51
8.8218476
0
ARC
8
DEFAULT_255_1_388
10
19.6787479
20
86.7163731
40
0.9358078
50
359.7054632
51
8.0359751
0
ARC
8
DEFAULT_255_1_388
10
20.0162531
20
86.7655252
40
0.5947474
50
7.8926278
51
20.2962188
0
ARC
8
DEFAULT_255_1_388
10
20.1993381
20
86.8330367
40
0.3996117
50
20.3231056
51
36.4990255
0
ARC
8
DEFAULT_255_1_388
10
20.2764678
20
86.8924399
40
0.3022818
50
36.1436715
51
85.6627846
0
ARC
8
DEFAULT_255_1_388
10
20.2581934
20
86.7754881
40
0.4203853
50
84.3845912
51
90.076054
0
ARC
8
DEFAULT_255_1_388
10
20.2534288
20
86.8497416
40
0.346157
50
89.3037228
51
109.9046209
0
ARC
8
DEFAULT_255_1_388
10
20.2430121
20
86.8927379
40
0.3022217
50
110.8229774
51
143.917961
0
ARC
8
DEFAULT_255_1_388
10
20.3480481
20
86.8125455
40
0.434348
50
143.5289166
51
163.2980252
0
ARC
8
DEFAULT_255_1_388
10
20.5626768
20
86.7450685
40
0.659321
50
163.0418884
51
174.3139873
0
ARC
8
DEFAULT_255_1_388
10
20.8331733
20
86.7138378
40
0.9315905
50
174.050934
51
179.4174954
0
ARC
8
DEFAULT_255_1_388
10
20.7763677
20
86.6219382
40
0.8747493
50
179.6928582
51
188.7908948
0
ARC
8
DEFAULT_255_1_388
10
20.4767476
20
86.5740086
40
0.5713262
50
188.6328449
51
202.5630732
0
ARC
8
DEFAULT_255_1_388
10
20.3356313
20
86.5173142
40
0.4192612
50
202.8078931
51
216.1195888
0
ARC
8
DEFAULT_255_1_388
10
20.244583
20
86.4440479
40
0.3025752
50
215.0755613
51
264.6379773
0
ARC
8
DEFAULT_255_1_388
10
20.2588668
20
86.5375376
40
0.3970284
50
263.8464302
51
270.0830805
0
ARC
8
DEFAULT_255_1_388
10
20.2635213
20
86.5084808
40
0.3679937
50
269.3649295
51
287.5149684
0
ARC
8
DEFAULT_255_1_388
10
20.2835653
20
86.4356714
40
0.2925408
50
288.0629019
51
323.8115617
0
ARC
8
DEFAULT_255_1_388
10
20.185563
20
86.5087754
40
0.4148018
50
323.6546541
51
342.6591359
0
ARC
8
DEFAULT_255_1_388
10
19.9570287
20
86.583128
40
0.6551163
50
342.4092446
51
353.6451501
0
ARC
8
DEFAULT_255_1_388
10
19.6385081
20
86.6227565
40
0.9760748
50
353.4027553
51
359.4846611
0
LINE
8
DEFAULT_255_1_388
10
21.9888648
20
86.5263317
11
21.6789422
21
86.5263317
0
LINE
8
DEFAULT_255_1_388
10
21.6789422
20
86.5263317
11
21.6789422
21
86.0113
0
LINE
8
DEFAULT_255_1_388
10
21.6789422
20
86.0113
11
21.5054579
21
86.0113
0
LINE
8
DEFAULT_255_1_388
10
21.5054579
20
86.0113
11
21.5054579
21
87.3268898
0
LINE
8
DEFAULT_255_1_388
10
21.5054579
20
87.3268898
11
21.990672
21
87.3268898
0
LINE
8
DEFAULT_255_1_388
10
21.6789422
20
87.1841267
11
21.6789422
21
86.6681914
0
LINE
8
DEFAULT_255_1_388
10
21.6789422
20
86.6681914
11
21.990672
21
86.6681914
0
LINE
8
DEFAULT_255_1_388
10
22.0006112
20
87.1841267
11
21.6789422
21
87.1841267
0
ARC
8
DEFAULT_255_1_388
10
21.9954093
20
86.6452334
40
0.6816729
50
78.8380084
51
90.398184
0
ARC
8
DEFAULT_255_1_388
10
22.0422123
20
86.8725796
40
0.449571
50
58.9633273
51
79.0810717
0
ARC
8
DEFAULT_255_1_388
10
22.0761508
20
86.9355823
40
0.3781049
50
48.0194715
51
58.4475592
0
ARC
8
DEFAULT_255_1_388
10
22.0861328
20
86.9451818
40
0.3642936
50
3.3374546
51
48.1766642
0
ARC
8
DEFAULT_255_1_388
10
21.9476135
20
86.9252581
40
0.5038766
50
359.9483251
51
4.6822857
0
ARC
8
DEFAULT_255_1_388
10
21.9616058
20
86.9204779
40
0.4899031
50
346.1879032
51
0.5059221
0
ARC
8
DEFAULT_255_1_388
10
22.1144849
20
86.8807763
40
0.3319729
50
310.8832219
51
346.5426612
0
ARC
8
DEFAULT_255_1_388
10
22.0797698
20
86.9276853
40
0.3901853
50
286.6925305
51
310.228778
0
ARC
8
DEFAULT_255_1_388
10
22.0157428
20
87.1290585
40
0.6014737
50
274.6848219
51
287.0247342
0
ARC
8
DEFAULT_255_1_388
10
21.9903976
20
87.3775088
40
0.8511785
50
269.8968222
51
275.0192639
0
ARC
8
DEFAULT_255_1_388
10
21.993497
20
87.1437144
40
0.4755314
50
269.6596206
51
279.4150542
0
ARC
8
DEFAULT_255_1_388
10
22.0224428
20
86.9759945
40
0.3053379
50
279.2050006
51
294.9901776
0
ARC
8
DEFAULT_255_1_388
10
22.0551062
20
86.9031353
40
0.2255036
50
295.2886769
51
311.2912669
0
ARC
8
DEFAULT_255_1_388
10
22.0630803
20
86.8912938
40
0.2113522
50
311.7853512
51
347.2860549
0
ARC
8
DEFAULT_255_1_388
10
21.9523965
20
86.919743
40
0.3256011
50
346.6891629
51
0.1057086
0
ARC
8
DEFAULT_255_1_388
10
21.8601425
20
86.9230247
40
0.417863
50
359.63239
51
359.9961329
0
ARC
8
DEFAULT_255_1_388
10
21.976603
20
86.9257987
40
0.3014155
50
359.4673371
51
15.5931159
0
ARC
8
DEFAULT_255_1_388
10
22.0469092
20
86.9447937
40
0.2285918
50
15.7441779
51
46.620186
0
ARC
8
DEFAULT_255_1_388
10
22.0302852
20
86.9256361
40
0.2539359
50
46.8628482
51
75.6676625
0
ARC
8
DEFAULT_255_1_388
10
21.9971909
20
86.8065243
40
0.3775415
50
75.2763152
51
88.2916439
0
ARC
8
DEFAULT_255_1_388
10
21.9905908
20
86.7063097
40
0.4779221
50
87.8589087
51
88.7986197
0
LINE
8
DEFAULT_255_1_388
10
23.6839518
20
87.3268898
11
23.6839518
21
86.0113
0
LINE
8
DEFAULT_255_1_388
10
23.6839518
20
86.0113
11
23.5095638
21
86.0113
0
LINE
8
DEFAULT_255_1_388
10
23.5095638
20
86.0113
11
22.8472511
21
87.0250993
0
LINE
8
DEFAULT_255_1_388
10
22.8472511
20
87.0250993
11
22.8472511
21
86.0113
0
LINE
8
DEFAULT_255_1_388
10
22.8472511
20
86.0113
11
22.6728631
21
86.0113
0
LINE
8
DEFAULT_255_1_388
10
22.6728631
20
86.0113
11
22.6728631
21
87.3268898
0
LINE
8
DEFAULT_255_1_388
10
22.6728631
20
87.3268898
11
22.8472511
21
87.3268898
0
LINE
8
DEFAULT_255_1_388
10
22.8472511
20
87.3268898
11
23.5113709
21
86.3085727
0
LINE
8
DEFAULT_255_1_388
10
23.5113709
20
86.3085727
11
23.5113709
21
87.3268898
0
LINE
8
DEFAULT_255_1_388
10
23.5113709
20
87.3268898
11
23.6839518
21
87.3268898
0
LINE
8
DEFAULT_255_2_778
10
9.3927417
20
60.7218492
11
10.7156417
21
60.7218492
0
LINE
8
DEFAULT_255_2_778
10
10.7156417
20
60.7218492
11
10.7156417
21
35.2557492
0
LINE
8
DEFAULT_255_2_778
10
10.7156417
20
30.6254492
11
10.7156417
21
5.1593492
0
LINE
8
DEFAULT_255_2_778
10
10.7156417
20
5.1593492
11
9.3927417
21
5.1593492
0
LINE
8
DEFAULT_255_2_778
10
9.3926834
20
35.2557041
11
12.0384834
21
35.2557041
0
LINE
8
DEFAULT_255_2_778
10
12.0384834
20
35.2557041
11
12.0384834
21
30.6255041
0
LINE
8
DEFAULT_255_2_778
10
12.0384834
20
30.6255041
11
9.3926834
21
30.6255041
0
LINE
8
DEFAULT_255_2_778
10
9.3926834
20
30.6255041
11
9.3926834
21
35.2557041
0
LINE
8
DEFAULT_255_2_778
10
10.1865
20
31.0884833
11
10.1865
21
34.7926833
0
LINE
8
DEFAULT_255_2_778
10
9.9219167
20
34.0981656
11
10.1865167
21
34.7926656
0
LINE
8
DEFAULT_255_2_778
10
10.1865167
20
34.7926656
11
10.4511167
21
34.0981656
0
LINE
8
DEFAULT_255_2_778
10
10.4511167
20
34.0981656
11
9.9219167
21
34.0981656
0
LINE
8
DEFAULT_255_2_778
10
11.2448
20
34.7926833
11
11.2448
21
31.0884833
0
LINE
8
DEFAULT_255_2_778
10
10.9802167
20
31.7830656
11
11.2448167
21
31.0885656
0
LINE
8
DEFAULT_255_2_778
10
11.2448167
20
31.0885656
11
11.5094167
21
31.7830656
0
LINE
8
DEFAULT_255_2_778
10
11.5094167
20
31.7830656
11
10.9802167
21
31.7830656
0
LINE
8
DEFAULT_255_1_388
10
4.5007985
20
85.3488148
11
4.5007985
21
84.0269
0
LINE
8
DEFAULT_255_1_388
10
4.5007985
20
84.0269
11
4.3327355
21
84.0269
0
LINE
8
DEFAULT_255_1_388
10
4.3327355
20
84.0269
11
4.3327355
21
85.140995
0
LINE
8
DEFAULT_255_1_388
10
4.3327355
20
85.140995
11
3.995706
21
85.0172066
0
LINE
8
DEFAULT_255_1_388
10
3.995706
20
85.0172066
11
3.995706
21
85.1690055
0
LINE
8
DEFAULT_255_1_388
10
3.995706
20
85.1690055
11
4.4745951
21
85.3488148
0
LINE
8
DEFAULT_255_1_388
10
4.4745951
20
85.3488148
11
4.5007985
21
85.3488148
0
LINE
8
DEFAULT_255_1_388
10
5.2082895
20
85.3424898
11
5.2082895
21
84.1687596
0
LINE
8
DEFAULT_255_1_388
10
5.2082895
20
84.1687596
11
5.8317489
21
84.1687596
0
LINE
8
DEFAULT_255_1_388
10
5.8317489
20
84.1687596
11
5.8317489
21
84.0269
0
LINE
8
DEFAULT_255_1_388
10
5.8317489
20
84.0269
11
5.0339015
21
84.0269
0
LINE
8
DEFAULT_255_1_388
10
5.0339015
20
84.0269
11
5.0339015
21
85.3424898
0
LINE
8
DEFAULT_255_1_388
10
5.0339015
20
85.3424898
11
5.2082895
21
85.3424898
0
LINE
8
DEFAULT_255_1_388
10
6.4823153
20
85.1165987
11
6.4823153
21
84.7325838
0
LINE
8
DEFAULT_255_1_388
10
6.4823153
20
84.7325838
11
6.8491625
21
84.7325838
0
LINE
8
DEFAULT_255_1_388
10
6.8491625
20
84.7325838
11
6.8491625
21
84.5744601
0
LINE
8
DEFAULT_255_1_388
10
6.8491625
20
84.5744601
11
6.4823153
21
84.5744601
0
LINE
8
DEFAULT_255_1_388
10
6.4823153
20
84.5744601
11
6.4823153
21
84.1588204
0
LINE
8
DEFAULT_255_1_388
10
6.4823153
20
84.1588204
11
6.3142523
21
84.1588204
0
LINE
8
DEFAULT_255_1_388
10
6.3142523
20
84.1588204
11
6.3142523
21
84.5744601
0
LINE
8
DEFAULT_255_1_388
10
6.3142523
20
84.5744601
11
5.9474052
21
84.5744601
0
LINE
8
DEFAULT_255_1_388
10
5.9474052
20
84.5744601
11
5.9474052
21
84.7325838
0
LINE
8
DEFAULT_255_1_388
10
5.9474052
20
84.7325838
11
6.3142523
21
84.7325838
0
LINE
8
DEFAULT_255_1_388
10
6.3142523
20
84.7325838
11
6.3142523
21
85.1165987
0
LINE
8
DEFAULT_255_1_388
10
6.3142523
20
85.1165987
11
6.4823153
21
85.1165987
0
LINE
8
DEFAULT_255_1_388
10
4.2438444
20
5.9674898
11
4.5609955
21
5.4633009
0
LINE
8
DEFAULT_255_1_388
10
4.5609955
20
5.4633009
11
4.8763395
21
5.9674898
0
LINE
8
DEFAULT_255_1_388
10
4.8763395
20
5.9674898
11
5.0805451
21
5.9674898
0
LINE
8
DEFAULT_255_1_388
10
5.0805451
20
5.9674898
11
4.6649054
21
5.3151163
0
LINE
8
DEFAULT_255_1_388
10
4.6649054
20
5.3151163
11
5.0904843
21
4.6519
0
LINE
8
DEFAULT_255_1_388
10
5.0904843
20
4.6519
11
4.8844716
21
4.6519
0
LINE
8
DEFAULT_255_1_388
10
4.8844716
20
4.6519
11
4.5609955
21
5.1651246
0
LINE
8
DEFAULT_255_1_388
10
4.5609955
20
5.1651246
11
4.2357123
21
4.6519
0
LINE
8
DEFAULT_255_1_388
10
4.2357123
20
4.6519
11
4.0306032
21
4.6519
0
LINE
8
DEFAULT_255_1_388
10
4.0306032
20
4.6519
11
4.4570856
21
5.3151163
0
LINE
8
DEFAULT_255_1_388
10
4.4570856
20
5.3151163
11
4.0405424
21
5.9674898
0
LINE
8
DEFAULT_255_1_388
10
4.0405424
20
5.9674898
11
4.2438444
21
5.9674898
0
ARC
8
DEFAULT_255_1_388
10
5.7289586
20
5.621272
40
0.3175098
50
338.8762533
51
0.5167111
0
ARC
8
DEFAULT_255_1_388
10
5.747918
20
5.61616
40
0.2979894
50
325.8415285
51
338.4793574
0
ARC
8
DEFAULT_255_1_388
10
5.7039813
20
5.6466242
40
0.351452
50
296.7587686
51
325.7536481
0
ARC
8
DEFAULT_255_1_388
10
5.6711441
20
5.7020363
40
0.4157374
50
296.0927901
51
297.3613472
0
ARC
8
DEFAULT_255_1_388
10
5.7005636
20
4.9637593
40
0.395855
50
47.9007294
51
67.1948823
0
ARC
8
DEFAULT_255_1_388
10
5.7226279
20
4.9914599
40
0.360516
50
35.2363914
51
47.551141
0
ARC
8
DEFAULT_255_1_388
10
5.7520682
20
5.0111093
40
0.3251343
50
359.2759765
51
35.4014143
0
ARC
8
DEFAULT_255_1_388
10
5.6682609
20
5.0028787
40
0.4089365
50
343.1293083
51
0.5775513
0
ARC
8
DEFAULT_255_1_388
10
5.7497722
20
4.9804336
40
0.3244269
50
310.8496669
51
342.7449331
0
ARC
8
DEFAULT_255_1_388
10
5.7027597
20
5.0340913
40
0.3957651
50
281.5472888
51
310.9170406
0
ARC
8
DEFAULT_255_1_388
10
5.6626472
20
5.2087814
40
0.5749654
50
269.619248
51
281.9789564
0
ARC
8
DEFAULT_255_1_388
10
5.6545249
20
5.2088776
40
0.5750649
50
257.4585678
51
270.4285689
0
ARC
8
DEFAULT_255_1_388
10
5.6116769
20
5.0284741
40
0.389671
50
228.7554326
51
257.8484789
0
ARC
8
DEFAULT_255_1_388
10
5.5768255
20
4.9865228
40
0.335154
50
184.0104975
51
228.5071184
0
ARC
8
DEFAULT_255_1_388
10
5.7076647
20
5.006443
40
0.4671891
50
179.9315832
51
185.3253753
0
ARC
8
DEFAULT_255_1_388
10
5.575316
20
5.0106592
40
0.33486
50
145.6796023
51
180.6259786
0
ARC
8
DEFAULT_255_1_388
10
5.5936926
20
4.9978271
40
0.3572723
50
115.5537685
51
145.6415986
0
ARC
8
DEFAULT_255_1_388
10
5.631997
20
4.9292087
40
0.4357296
50
113.243307
51
116.2057839
0
ARC
8
DEFAULT_255_1_388
10
5.6148621
20
5.6489379
40
0.3549126
50
222.9549744
51
244.1370481
0
ARC
8
DEFAULT_255_1_388
10
5.6011265
20
5.6335378
40
0.3343711
50
213.3436887
51
222.6274467
0
ARC
8
DEFAULT_255_1_388
10
5.5795334
20
5.6188653
40
0.3082678
50
180.431584
51
213.271499
0
ARC
8
DEFAULT_255_1_388
10
5.6430333
20
5.6241296
40
0.3718363
50
179.9991191
51
181.1690594
0
ARC
8
DEFAULT_255_1_388
10
5.6902789
20
5.6280072
40
0.4190996
50
164.6186169
51
180.529336
0
ARC
8
DEFAULT_255_1_388
10
5.5892438
20
5.655178
40
0.3144772
50
132.2455553
51
164.5090724
0
ARC
8
DEFAULT_255_1_388
10
5.6215416
20
5.618607
40
0.3632644
50
100.7053914
51
132.1386381
0
ARC
8
DEFAULT_255_1_388
10
5.6558477
20
5.4636118
40
0.5219578
50
89.6730358
51
101.2451698
0
ARC
8
DEFAULT_255_1_388
10
5.6628468
20
5.4832648
40
0.5023124
50
76.287748
51
90.4586006
0
ARC
8
DEFAULT_255_1_388
10
5.697297
20
5.6207671
40
0.3605639
50
47.8240511
51
76.4266241
0
ARC
8
DEFAULT_255_1_388
10
5.7223355
20
5.6500599
40
0.3220463
50
6.9168387
51
47.6262497
0
ARC
8
DEFAULT_255_1_388
10
5.5888808
20
5.6254004
40
0.4575765
50
359.8415968
51
7.9697453
0
ARC
8
DEFAULT_255_1_388
10
5.6273077
20
5.0133519
40
0.2827228
50
359.445363
51
16.9256873
0
ARC
8
DEFAULT_255_1_388
10
5.6800511
20
5.0278781
40
0.2280396
50
17.2920767
51
45.4630727
0
ARC
8
DEFAULT_255_1_388
10
5.6739647
20
5.0226324
40
0.2360485
50
45.30305
51
83.1920945
0
ARC
8
DEFAULT_255_1_388
10
5.6578391
20
4.9324473
40
0.3275527
50
82.2612665
51
90.1434275
0
ARC
8
DEFAULT_255_1_388
10
5.6543668
20
4.9586869
40
0.3013237
50
89.4956434
51
104.8580688
0
ARC
8
DEFAULT_255_1_388
10
5.6344857
20
5.0340455
40
0.2233867
50
104.8856641
51
135.244616
0
ARC
8
DEFAULT_255_1_388
10
5.6400846
20
5.0290352
40
0.2308906
50
135.3399546
51
172.1044062
0
ARC
8
DEFAULT_255_1_388
10
5.7308371
20
5.0116667
40
0.3232034
50
171.2645637
51
180.186429
0
ARC
8
DEFAULT_255_1_388
10
5.7118375
20
5.0080426
40
0.304213
50
179.5154935
51
193.6464289
0
ARC
8
DEFAULT_255_1_388
10
5.6200051
20
4.9846473
40
0.209456
50
193.3540274
51
225.8258581
0
ARC
8
DEFAULT_255_1_388
10
5.6245924
20
4.9926076
40
0.2183738
50
226.4180634
51
255.8552336
0
ARC
8
DEFAULT_255_1_388
10
5.653439
20
5.0979521
40
0.3275812
50
255.4654104
51
268.7987425
0
ARC
8
DEFAULT_255_1_388
10
5.6587567
20
5.1921545
40
0.4218877
50
268.3449238
51
270.0094605
0
ARC
8
DEFAULT_255_1_388
10
5.66138
20
5.1153094
40
0.3450519
50
269.5759586
51
282.0820163
0
ARC
8
DEFAULT_255_1_388
10
5.6866836
20
5.0034363
40
0.2303642
50
281.752014
51
306.6056188
0
ARC
8
DEFAULT_255_1_388
10
5.6977644
20
4.9852802
40
0.2091906
50
307.1346085
51
314.027845
0
ARC
8
DEFAULT_255_1_388
10
5.6937156
20
4.9882459
40
0.2141385
50
314.2552483
51
350.1694025
0
ARC
8
DEFAULT_255_1_388
10
5.5979393
20
5.0090175
40
0.312082
50
349.4140529
51
0.2933014
0
ARC
8
DEFAULT_255_1_388
10
5.656467
20
5.5893924
40
0.2588377
50
89.477747
51
105.729729
0
ARC
8
DEFAULT_255_1_388
10
5.641159
20
5.6462367
40
0.1999733
50
105.9233417
51
135.1660906
0
ARC
8
DEFAULT_255_1_388
10
5.6434621
20
5.6446412
40
0.2027322
50
135.3052302
51
168.9883645
0
ARC
8
DEFAULT_255_1_388
10
5.7365638
20
5.6232996
40
0.2982129
50
168.3801673
51
180.3602268
0
ARC
8
DEFAULT_255_1_388
10
5.7108754
20
5.6190622
40
0.2725291
50
179.5033122
51
194.9125571
0
ARC
8
DEFAULT_255_1_388
10
5.6450161
20
5.6017427
40
0.204431
50
194.9720816
51
224.194444
0
ARC
8
DEFAULT_255_1_388
10
5.6418527
20
5.5991635
40
0.2003651
50
224.2962453
51
262.015664
0
ARC
8
DEFAULT_255_1_388
10
5.657853
20
5.6814315
40
0.2840925
50
261.1245923
51
270.1962896
0
ARC
8
DEFAULT_255_1_388
10
5.6612012
20
5.6603859
40
0.2630559
50
269.4827276
51
285.0987215
0
ARC
8
DEFAULT_255_1_388
10
5.6785448
20
5.5953175
40
0.1957162
50
285.1585357
51
315.9484501
0
ARC
8
DEFAULT_255_1_388
10
5.6685322
20
5.6045315
40
0.2093195
50
316.0413965
51
351.916092
0
ARC
8
DEFAULT_255_1_388
10
5.5860696
20
5.6204323
40
0.2932279
50
351.105835
51
0.1939062
0
ARC
8
DEFAULT_255_1_388
10
5.615633
20
5.6238224
40
0.2636739
50
359.4789618
51
16.0678224
0
ARC
8
DEFAULT_255_1_388
10
5.6691802
20
5.6382721
40
0.2082215
50
16.3252067
51
44.7913869
0
ARC
8
DEFAULT_255_1_388
10
5.6671864
20
5.638332
40
0.2095992
50
44.3957814
51
88.2499162
0
ARC
8
DEFAULT_255_1_388
10
5.6589198
20
5.5695006
40
0.2787189
50
86.9833854
51
90.0192215
0
LINE
8
DEFAULT_255_1_388
10
4.2438444
20
13.9049898
11
4.5609955
21
13.4008009
0
LINE
8
DEFAULT_255_1_388
10
4.5609955
20
13.4008009
11
4.8763395
21
13.9049898
0
LINE
8
DEFAULT_255_1_388
10
4.8763395
20
13.9049898
11
5.0805451
21
13.9049898
0
LINE
8
DEFAULT_255_1_388
10
5.0805451
20
13.9049898
11
4.6649054
21
13.2526163
0
LINE
8
DEFAULT_255_1_388
10
4.6649054
20
13.2526163
11
5.0904843
21
12.5894
0
LINE
8
DEFAULT_255_1_388
10
5.0904843
20
12.5894
11
4.8844716
21
12.5894
0
LINE
8
DEFAULT_255_1_388
10
4.8844716
20
12.5894
11
4.5609955
21
13.1026246
0
LINE
8
DEFAULT_255_1_388
10
4.5609955
20
13.1026246
11
4.2357123
21
12.5894
0
LINE
8
DEFAULT_255_1_388
10
4.2357123
20
12.5894
11
4.0306032
21
12.5894
0
LINE
8
DEFAULT_255_1_388
10
4.0306032
20
12.5894
11
4.4570856
21
13.2526163
0
LINE
8
DEFAULT_255_1_388
10
4.4570856
20
13.2526163
11
4.0405424
21
13.9049898
0
LINE
8
DEFAULT_255_1_388
10
4.0405424
20
13.9049898
11
4.2438444
21
13.9049898
0
LINE
8
DEFAULT_255_1_388
10
6.0979586
20
13.9049898
11
6.0979586
21
13.8110191
0
LINE
8
DEFAULT_255_1_388
10
6.0979586
20
13.8110191
11
5.5531093
21
12.5894
0
LINE
8
DEFAULT_255_1_388
10
5.5531093
20
12.5894
11
5.3778178
21
12.5894
0
LINE
8
DEFAULT_255_1_388
10
5.3778178
20
12.5894
11
5.92086
21
13.767648
0
LINE
8
DEFAULT_255_1_388
10
5.92086
20
13.767648
11
5.2088512
21
13.767648
0
LINE
8
DEFAULT_255_1_388
10
5.2088512
20
13.767648
11
5.2088512
21
13.9049898
0
LINE
8
DEFAULT_255_1_388
10
5.2088512
20
13.9049898
11
6.0979586
21
13.9049898
0
LINE
8
DEFAULT_255_1_388
10
4.2438444
20
21.8424898
11
4.5609955
21
21.3383009
0
LINE
8
DEFAULT_255_1_388
10
4.5609955
20
21.3383009
11
4.8763395
21
21.8424898
0
LINE
8
DEFAULT_255_1_388
10
4.8763395
20
21.8424898
11
5.0805451
21
21.8424898
0
LINE
8
DEFAULT_255_1_388
10
5.0805451
20
21.8424898
11
4.6649054
21
21.1901163
0
LINE
8
DEFAULT_255_1_388
10
4.6649054
20
21.1901163
11
5.0904843
21
20.5269
0
LINE
8
DEFAULT_255_1_388
10
5.0904843
20
20.5269
11
4.8844716
21
20.5269
0
LINE
8
DEFAULT_255_1_388
10
4.8844716
20
20.5269
11
4.5609955
21
21.0401246
0
LINE
8
DEFAULT_255_1_388
10
4.5609955
20
21.0401246
11
4.2357123
21
20.5269
0
LINE
8
DEFAULT_255_1_388
10
4.2357123
20
20.5269
11
4.0306032
21
20.5269
0
LINE
8
DEFAULT_255_1_388
10
4.0306032
20
20.5269
11
4.4570856
21
21.1901163
0
LINE
8
DEFAULT_255_1_388
10
4.4570856
20
21.1901163
11
4.0405424
21
21.8424898
0
LINE
8
DEFAULT_255_1_388
10
4.0405424
20
21.8424898
11
4.2438444
21
21.8424898
0
LINE
8
DEFAULT_255_1_388
10
5.8747782
20
21.8433934
11
5.9045958
21
21.8433934
0
LINE
8
DEFAULT_255_1_388
10
5.9045958
20
21.8433934
11
5.9045958
21
21.7015338
0
LINE
8
DEFAULT_255_1_388
10
5.9045958
20
21.7015338
11
5.8738747
21
21.7015338
0
LINE
8
DEFAULT_255_1_388
10
5.2585473
20
21.0274747
11
5.2585473
21
21.0916278
0
LINE
8
DEFAULT_255_1_388
10
5.4266103
20
21.0699422
11
5.4266103
21
21.0084999
0
ARC
8
DEFAULT_255_1_388
10
5.8797638
20
21.1392826
40
0.562282
50
90.6001079
51
104.5146616
0
ARC
8
DEFAULT_255_1_388
10
5.8360598
20
21.30181
40
0.3939917
50
104.2855758
51
133.8630124
0
ARC
8
DEFAULT_255_1_388
10
5.854485
20
21.2896243
40
0.4155734
50
134.5304124
51
161.6210222
0
ARC
8
DEFAULT_255_1_388
10
6.0404782
20
21.2240421
40
0.6127682
50
161.2850533
51
174.2074364
0
ARC
8
DEFAULT_255_1_388
10
6.1994349
20
21.2021437
40
0.7731446
50
173.7817938
51
174.9251711
0
ARC
8
DEFAULT_255_1_388
10
5.6868543
20
21.046627
40
0.3412588
50
95.8332067
51
138.995412
0
ARC
8
DEFAULT_255_1_388
10
5.7119823
20
20.9027695
40
0.4870358
50
89.8755506
51
97.0540979
0
ARC
8
DEFAULT_255_1_388
10
5.7173212
20
20.9967841
40
0.3930432
50
71.6407016
51
90.6240821
0
ARC
8
DEFAULT_255_1_388
10
5.7342606
20
21.0591433
40
0.3285421
50
39.6368051
51
71.0190743
0
ARC
8
DEFAULT_255_1_388
10
5.6626513
20
20.9972586
40
0.4231706
50
10.6588054
51
39.9044509
0
ARC
8
DEFAULT_255_1_388
10
5.4885059
20
20.9594223
40
0.60133
50
359.6827842
51
11.1326896
0
ARC
8
DEFAULT_255_1_388
10
5.4840395
20
20.9514715
40
0.6058047
50
347.2485908
51
0.4371098
0
ARC
8
DEFAULT_255_1_388
10
5.671618
20
20.9063379
40
0.4128987
50
318.1408565
51
347.6118497
0
ARC
8
DEFAULT_255_1_388
10
5.7081777
20
20.8762903
40
0.3656244
50
275.6342406
51
317.824739
0
ARC
8
DEFAULT_255_1_388
10
5.6833298
20
21.0224827
40
0.513655
50
269.8872513
51
276.7916069
0
ARC
8
DEFAULT_255_1_388
10
5.677149
20
20.9071181
40
0.398323
50
246.9139443
51
270.7436787
0
ARC
8
DEFAULT_255_1_388
10
5.6778686
20
20.8911044
40
0.3839368
50
218.1665534
51
245.8780431
0
ARC
8
DEFAULT_255_1_388
10
5.7768059
20
20.9738903
40
0.5128958
50
191.4115343
51
218.6077624
0
ARC
8
DEFAULT_255_1_388
10
5.9948375
20
21.0227777
40
0.7363054
50
179.6344971
51
191.7836758
0
ARC
8
DEFAULT_255_1_388
10
6.6228249
20
21.0991495
40
1.3642984
50
171.4523743
51
180.3158856
0
ARC
8
DEFAULT_255_1_388
10
6.1283976
20
21.1760895
40
0.8639311
50
157.9802296
51
171.6246761
0
ARC
8
DEFAULT_255_1_388
10
5.8793327
20
21.2754038
40
0.5958004
50
141.4299236
51
157.8541251
0
ARC
8
DEFAULT_255_1_388
10
5.807141
20
21.3264746
40
0.5075416
50
102.871586
51
140.8564533
0
ARC
8
DEFAULT_255_1_388
10
5.8799963
20
21.0519943
40
0.7914163
50
90.377773
51
103.5868422
0
ARC
8
DEFAULT_255_1_388
10
5.6844484
20
20.9839543
40
0.2667015
50
89.8751238
51
126.2072139
0
ARC
8
DEFAULT_255_1_388
10
5.6895955
20
20.9665847
40
0.2838229
50
124.9742447
51
144.8960197
0
ARC
8
DEFAULT_255_1_388
10
5.66982
20
20.9826981
40
0.2583845
50
145.2974778
51
160.2660922
0
ARC
8
DEFAULT_255_1_388
10
6.0154689
20
21.0049151
40
0.5888695
50
179.6512124
51
190.285571
0
ARC
8
DEFAULT_255_1_388
10
5.8249168
20
20.9689968
40
0.3949683
50
190.0944895
51
207.5099647
0
ARC
8
DEFAULT_255_1_388
10
5.761275
20
20.9387177
40
0.3245464
50
207.9585471
51
216.325377
0
ARC
8
DEFAULT_255_1_388
10
5.7230387
20
20.9072712
40
0.2751259
50
215.7661336
51
232.5457193
0
ARC
8
DEFAULT_255_1_388
10
5.6799503
20
20.8525273
40
0.2054668
50
232.8005815
51
270.6605497
0
ARC
8
DEFAULT_255_1_388
10
5.6850927
20
20.8934853
40
0.2464268
50
269.3550767
51
288.474612
0
ARC
8
DEFAULT_255_1_388
10
5.6955434
20
20.8541721
40
0.2058436
50
289.1831976
51
322.9685307
0
ARC
8
DEFAULT_255_1_388
10
5.6267536
20
20.9084279
40
0.2934408
50
322.6007085
51
346.5183319
0
ARC
8
DEFAULT_255_1_388
10
5.4965292
20
20.9416434
40
0.4278249
50
346.2584622
51
358.7739592
0
ARC
8
DEFAULT_255_1_388
10
5.3813867
20
20.9478829
40
0.5430876
50
358.3757628
51
0.0082477
0
ARC
8
DEFAULT_255_1_388
10
5.4670686
20
20.9509856
40
0.4574157
50
359.6211417
51
11.28403
0
ARC
8
DEFAULT_255_1_388
10
5.6107292
20
20.9809535
40
0.3106708
50
11.0483152
51
31.8145585
0
ARC
8
DEFAULT_255_1_388
10
5.6454997
20
20.9998045
40
0.2711963
50
32.3028554
51
38.0820598
0
ARC
8
DEFAULT_255_1_388
10
5.692823
20
21.0426717
40
0.2075566
50
36.8249851
51
85.741667
0
ARC
8
DEFAULT_255_1_388
10
5.6852643
20
20.9863065
40
0.2643487
50
85.0150021
51
90.050843
0
LINE
8
DEFAULT_255_1_388
10
4.2438444
20
29.7799898
11
4.5609955
21
29.2758009
0
LINE
8
DEFAULT_255_1_388
10
4.5609955
20
29.2758009
11
4.8763395
21
29.7799898
0
LINE
8
DEFAULT_255_1_388
10
4.8763395
20
29.7799898
11
5.0805451
21
29.7799898
0
LINE
8
DEFAULT_255_1_388
10
5.0805451
20
29.7799898
11
4.6649054
21
29.1276163
0
LINE
8
DEFAULT_255_1_388
10
4.6649054
20
29.1276163
11
5.0904843
21
28.4644
0
LINE
8
DEFAULT_255_1_388
10
5.0904843
20
28.4644
11
4.8844716
21
28.4644
0
LINE
8
DEFAULT_255_1_388
10
4.8844716
20
28.4644
11
4.5609955
21
28.9776246
0
LINE
8
DEFAULT_255_1_388
10
4.5609955
20
28.9776246
11
4.2357123
21
28.4644
0
LINE
8
DEFAULT_255_1_388
10
4.2357123
20
28.4644
11
4.0306032
21
28.4644
0
LINE
8
DEFAULT_255_1_388
10
4.0306032
20
28.4644
11
4.4570856
21
29.1276163
0
LINE
8
DEFAULT_255_1_388
10
4.4570856
20
29.1276163
11
4.0405424
21
29.7799898
0
LINE
8
DEFAULT_255_1_388
10
4.0405424
20
29.7799898
11
4.2438444
21
29.7799898
0
LINE
8
DEFAULT_255_1_388
10
5.4591386
20
29.0896666
11
5.325411
21
29.1240021
0
LINE
8
DEFAULT_255_1_388
10
5.325411
20
29.1240021
11
5.3922748
21
29.7799898
0
LINE
8
DEFAULT_255_1_388
10
5.3922748
20
29.7799898
11
6.0663339
21
29.7799898
0
LINE
8
DEFAULT_255_1_388
10
6.0663339
20
29.7799898
11
6.0663339
21
29.6254803
0
LINE
8
DEFAULT_255_1_388
10
6.0663339
20
29.6254803
11
5.5341344
21
29.6254803
0
LINE
8
DEFAULT_255_1_388
10
5.5341344
20
29.6254803
11
5.4943776
21
29.2667652
0
LINE
8
DEFAULT_255_1_388
10
5.2784257
20
28.8104652
11
5.4365495
21
28.8104652
0
LINE
8
DEFAULT_255_1_388
10
5.5034132
20
29.1258092
11
5.4591386
21
29.0896666
0
ARC
8
DEFAULT_255_1_388
10
5.7030389
20
28.9090241
40
0.4141476
50
93.7181681
51
120.253934
0
ARC
8
DEFAULT_255_1_388
10
5.7136442
20
28.8181284
40
0.5055616
50
89.9660471
51
94.2495185
0
ARC
8
DEFAULT_255_1_388
10
5.7182263
20
28.8844154
40
0.4392953
50
73.8045384
51
90.5585736
0
ARC
8
DEFAULT_255_1_388
10
5.7446521
20
28.980952
40
0.3392225
50
41.3071072
51
73.543002
0
ARC
8
DEFAULT_255_1_388
10
5.6978341
20
28.9406461
40
0.4009977
50
13.5075837
51
41.2174839
0
ARC
8
DEFAULT_255_1_388
10
5.5131439
20
28.8922907
40
0.5918864
50
1.1330171
51
13.8830737
0
ARC
8
DEFAULT_255_1_388
10
5.3535084
20
28.8837522
40
0.7516787
50
359.9925091
51
1.5431298
0
ARC
8
DEFAULT_255_1_388
10
5.4979699
20
28.8791027
40
0.6072343
50
347.8572712
51
0.4294349
0
ARC
8
DEFAULT_255_1_388
10
5.6948834
20
28.8344898
40
0.4053482
50
323.6727442
51
348.1674594
0
ARC
8
DEFAULT_255_1_388
10
5.7279799
20
28.8143175
40
0.3667495
50
316.8171818
51
323.1486802
0
ARC
8
DEFAULT_255_1_388
10
5.7348922
20
28.8101612
40
0.358869
50
281.839603
51
316.5458142
0
ARC
8
DEFAULT_255_1_388
10
5.692621
20
28.9851363
40
0.5388223
50
269.5770964
51
282.4214641
0
ARC
8
DEFAULT_255_1_388
10
5.6846131
20
28.961093
40
0.5147801
50
256.2425863
51
270.4486481
0
ARC
8
DEFAULT_255_1_388
10
5.6509658
20
28.8261124
40
0.3756708
50
228.9024379
51
256.33135
0
ARC
8
DEFAULT_255_1_388
10
5.6426639
20
28.8130054
40
0.360344
50
193.7536029
51
228.5272638
0
ARC
8
DEFAULT_255_1_388
10
5.7819204
20
28.8538463
40
0.5053599
50
184.9244437
51
194.4976052
0
ARC
8
DEFAULT_255_1_388
10
5.8035845
20
28.8578722
40
0.3700839
50
187.3596909
51
198.6733728
0
ARC
8
DEFAULT_255_1_388
10
5.6855088
20
28.8169373
40
0.2451195
50
198.4453795
51
217.7945479
0
ARC
8
DEFAULT_255_1_388
10
5.6522261
20
28.7933563
40
0.2043754
50
218.2887146
51
228.5613203
0
ARC
8
DEFAULT_255_1_388
10
5.6632268
20
28.8081902
40
0.2227819
50
228.9652423
51
258.1237049
0
ARC
8
DEFAULT_255_1_388
10
5.6863705
20
28.9072964
40
0.3245374
50
257.7260585
51
270.4013717
0
ARC
8
DEFAULT_255_1_388
10
5.6914203
20
28.8572255
40
0.2744726
50
269.4204315
51
286.420998
0
ARC
8
DEFAULT_255_1_388
10
5.7081259
20
28.7965705
40
0.2115721
50
286.7250065
51
320.6004665
0
ARC
8
DEFAULT_255_1_388
10
5.6650174
20
28.8315527
40
0.2670878
50
320.6712228
51
344.5440474
0
ARC
8
DEFAULT_255_1_388
10
5.5348888
20
28.8697394
40
0.4026927
50
344.241448
51
356.735803
0
ARC
8
DEFAULT_255_1_388
10
5.3945195
20
28.8813656
40
0.5435085
50
356.3547471
51
0.0507222
0
ARC
8
DEFAULT_255_1_388
10
5.544746
20
28.8848812
40
0.3932934
50
359.5579289
51
12.9534322
0
ARC
8
DEFAULT_255_1_388
10
5.66343
20
28.9136586
40
0.2711827
50
12.6489751
51
41.608121
0
ARC
8
DEFAULT_255_1_388
10
5.689346
20
28.9356946
40
0.2371737
50
41.7851122
51
85.9892156
0
ARC
8
DEFAULT_255_1_388
10
5.675477
20
28.8441738
40
0.3295244
50
84.6965848
51
90.0672125
0
ARC
8
DEFAULT_255_1_388
10
5.6728338
20
28.7690118
40
0.4046926
50
89.6804991
51
99.161352
0
ARC
8
DEFAULT_255_1_388
10
5.6497347
20
28.9070848
40
0.2647044
50
98.9836248
51
113.8905702
0
ARC
8
DEFAULT_255_1_388
10
5.6239022
20
28.9680118
40
0.1985386
50
114.195234
51
127.3641866
0
LINE
8
DEFAULT_255_1_388
10
4.3761444
20
37.7174898
11
4.6932955
21
37.2133009
0
LINE
8
DEFAULT_255_1_388
10
4.6932955
20
37.2133009
11
5.0086395
21
37.7174898
0
LINE
8
DEFAULT_255_1_388
10
5.0086395
20
37.7174898
11
5.2128451
21
37.7174898
0
LINE
8
DEFAULT_255_1_388
10
5.2128451
20
37.7174898
11
4.7972054
21
37.0651163
0
LINE
8
DEFAULT_255_1_388
10
4.7972054
20
37.0651163
11
5.2227843
21
36.4019
0
LINE
8
DEFAULT_255_1_388
10
5.2227843
20
36.4019
11
5.0167716
21
36.4019
0
LINE
8
DEFAULT_255_1_388
10
5.0167716
20
36.4019
11
4.6932955
21
36.9151246
0
LINE
8
DEFAULT_255_1_388
10
4.6932955
20
36.9151246
11
4.3680123
21
36.4019
0
LINE
8
DEFAULT_255_1_388
10
4.3680123
20
36.4019
11
4.1629032
21
36.4019
0
LINE
8
DEFAULT_255_1_388
10
4.1629032
20
36.4019
11
4.5893856
21
37.0651163
0
LINE
8
DEFAULT_255_1_388
10
4.5893856
20
37.0651163
11
4.1728424
21
37.7174898
0
LINE
8
DEFAULT_255_1_388
10
4.1728424
20
37.7174898
11
4.3761444
21
37.7174898
0
LINE
8
DEFAULT_255_1_388
10
6.0865919
20
37.7174898
11
6.0865919
21
36.843743
0
LINE
8
DEFAULT_255_1_388
10
6.0865919
20
36.843743
11
6.2691119
21
36.843743
0
LINE
8
DEFAULT_255_1_388
10
6.2691119
20
36.843743
11
6.2691119
21
36.7073048
0
LINE
8
DEFAULT_255_1_388
10
6.2691119
20
36.7073048
11
6.0865919
21
36.7073048
0
LINE
8
DEFAULT_255_1_388
10
6.0865919
20
36.7073048
11
6.0865919
21
36.4019
0
LINE
8
DEFAULT_255_1_388
10
6.0865919
20
36.4019
11
5.9185289
21
36.4019
0
LINE
8
DEFAULT_255_1_388
10
5.9185289
20
36.4019
11
5.9185289
21
36.7073048
0
LINE
8
DEFAULT_255_1_388
10
5.9185289
20
36.7073048
11
5.3194657
21
36.7073048
0
LINE
8
DEFAULT_255_1_388
10
5.3194657
20
36.7073048
11
5.3194657
21
36.8057933
0
LINE
8
DEFAULT_255_1_388
10
5.3194657
20
36.8057933
11
5.9085897
21
37.7174898
0
LINE
8
DEFAULT_255_1_388
10
5.9085897
20
37.7174898
11
6.0865919
21
37.7174898
0
LINE
8
DEFAULT_255_1_388
10
5.8986505
20
37.4527455
11
5.5092142
21
36.843743
0
LINE
8
DEFAULT_255_1_388
10
5.5092142
20
36.843743
11
5.9185289
21
36.843743
0
LINE
8
DEFAULT_255_1_388
10
5.9185289
20
36.843743
11
5.9185289
21
37.488888
0
LINE
8
DEFAULT_255_1_388
10
5.9185289
20
37.488888
11
5.8986505
21
37.4527455
0
LINE
8
DEFAULT_255_1_388
10
4.2438444
20
45.6549898
11
4.5609955
21
45.1508009
0
LINE
8
DEFAULT_255_1_388
10
4.5609955
20
45.1508009
11
4.8763395
21
45.6549898
0
LINE
8
DEFAULT_255_1_388
10
4.8763395
20
45.6549898
11
5.0805451
21
45.6549898
0
LINE
8
DEFAULT_255_1_388
10
5.0805451
20
45.6549898
11
4.6649054
21
45.0026163
0
LINE
8
DEFAULT_255_1_388
10
4.6649054
20
45.0026163
11
5.0904843
21
44.3394
0
LINE
8
DEFAULT_255_1_388
10
5.0904843
20
44.3394
11
4.8844716
21
44.3394
0
LINE
8
DEFAULT_255_1_388
10
4.8844716
20
44.3394
11
4.5609955
21
44.8526246
0
LINE
8
DEFAULT_255_1_388
10
4.5609955
20
44.8526246
11
4.2357123
21
44.3394
0
LINE
8
DEFAULT_255_1_388
10
4.2357123
20
44.3394
11
4.0306032
21
44.3394
0
LINE
8
DEFAULT_255_1_388
10
4.0306032
20
44.3394
11
4.4570856
21
45.0026163
0
LINE
8
DEFAULT_255_1_388
10
4.4570856
20
45.0026163
11
4.0405424
21
45.6549898
0
LINE
8
DEFAULT_255_1_388
10
4.0405424
20
45.6549898
11
4.2438444
21
45.6549898
0
LINE
8
DEFAULT_255_1_388
10
5.4916669
20
44.9420775
11
5.4916669
21
45.0785157
0
LINE
8
DEFAULT_255_1_388
10
5.4916669
20
45.0785157
11
5.6172624
21
45.0785157
0
LINE
8
DEFAULT_255_1_388
10
5.4031176
20
45.3098282
11
5.2359582
21
45.3098282
0
LINE
8
DEFAULT_255_1_388
10
5.2242118
20
44.6863688
11
5.3922748
21
44.6863688
0
LINE
8
DEFAULT_255_1_388
10
5.6172624
20
44.9420775
11
5.4916669
21
44.9420775
0
ARC
8
DEFAULT_255_1_388
10
5.613985
20
45.4601922
40
0.3816905
50
270.491971
51
281.8953028
0
ARC
8
DEFAULT_255_1_388
10
5.6411277
20
45.3362199
40
0.2547877
50
281.6690378
51
301.2943765
0
ARC
8
DEFAULT_255_1_388
10
5.6602728
20
45.3011926
40
0.2149197
50
301.7834992
51
311.754567
0
ARC
8
DEFAULT_255_1_388
10
5.670577
20
45.289765
40
0.1995326
50
311.7325027
51
354.2803031
0
ARC
8
DEFAULT_255_1_388
10
5.5888186
20
45.303828
40
0.2823461
50
353.0941646
51
0.1174696
0
ARC
8
DEFAULT_255_1_388
10
5.5369744
20
45.3091874
40
0.3342238
50
359.1804452
51
15.0452323
0
ARC
8
DEFAULT_255_1_388
10
5.6883802
20
45.3533546
40
0.1765747
50
13.957816
51
77.6713812
0
ARC
8
DEFAULT_255_1_388
10
5.6449038
20
45.1975464
40
0.3381982
50
76.111571
51
90.7028736
0
ARC
8
DEFAULT_255_1_388
10
5.638245
20
45.228325
40
0.3074046
50
89.5321574
51
103.5319393
0
ARC
8
DEFAULT_255_1_388
10
5.6156833
20
45.3182443
40
0.2147041
50
103.2930114
51
133.5619756
0
ARC
8
DEFAULT_255_1_388
10
5.6106775
20
45.3249351
40
0.2064084
50
133.8349761
51
173.5343225
0
ARC
8
DEFAULT_255_1_388
10
5.6920432
20
45.3105144
40
0.2889266
50
172.5097183
51
180.1360699
0
ARC
8
DEFAULT_255_1_388
10
5.5850196
20
45.314388
40
0.3490913
50
155.3483706
51
180.7484035
0
ARC
8
DEFAULT_255_1_388
10
5.5795172
20
45.3111519
40
0.3454798
50
131.5745177
51
154.4799474
0
ARC
8
DEFAULT_255_1_388
10
5.6147455
20
45.2755422
40
0.3955058
50
96.9874487
51
131.9690874
0
ARC
8
DEFAULT_255_1_388
10
5.6394347
20
45.1354407
40
0.537622
50
89.8592909
51
97.7827481
0
ARC
8
DEFAULT_255_1_388
10
5.6448456
20
45.105936
40
0.5671399
50
78.3654493
51
90.4132586
0
ARC
8
DEFAULT_255_1_388
10
5.6851097
20
45.2925918
40
0.3762034
50
56.6229818
51
78.6387103
0
ARC
8
DEFAULT_255_1_388
10
5.7092927
20
45.3348846
40
0.3275964
50
47.0254604
51
56.085558
0
ARC
8
DEFAULT_255_1_388
10
5.7115178
20
45.3393189
40
0.3228382
50
10.9207523
51
46.777927
0
ARC
8
DEFAULT_255_1_388
10
5.5580772
20
45.3038401
40
0.4802559
50
359.6364235
51
11.6087615
0
ARC
8
DEFAULT_255_1_388
10
5.7644937
20
45.3021404
40
0.273833
50
332.3549969
51
359.7179765
0
ARC
8
DEFAULT_255_1_388
10
5.6913338
20
45.3368285
40
0.3547505
50
325.2332381
51
332.8746682
0
ARC
8
DEFAULT_255_1_388
10
5.7084921
20
45.3248763
40
0.3338396
50
292.9803892
51
325.2391113
0
ARC
8
DEFAULT_255_1_388
10
5.6774117
20
45.3853679
40
0.4016959
50
292.542178
51
293.6931461
0
ARC
8
DEFAULT_255_1_388
10
5.7217688
20
44.6588036
40
0.372079
50
57.643292
51
72.8626085
0
ARC
8
DEFAULT_255_1_388
10
5.7616523
20
44.7234273
40
0.2961455
50
36.7246661
51
57.4701329
0
ARC
8
DEFAULT_255_1_388
10
5.760368
20
44.724847
40
0.2963321
50
8.054535
51
36.3561529
0
ARC
8
DEFAULT_255_1_388
10
5.6633352
20
44.7074073
40
0.3948682
50
359.8316595
51
8.5873361
0
ARC
8
DEFAULT_255_1_388
10
5.6210827
20
44.701997
40
0.4371398
50
343.9831631
51
0.557075
0
ARC
8
DEFAULT_255_1_388
10
5.7207876
20
44.6746963
40
0.3337749
50
311.6358204
51
343.7652116
0
ARC
8
DEFAULT_255_1_388
10
5.678213
20
44.7226955
40
0.3979351
50
279.7829743
51
311.625622
0
ARC
8
DEFAULT_255_1_388
10
5.6443265
20
44.8843642
40
0.5630417
50
269.7285092
51
280.3857694
0
ARC
8
DEFAULT_255_1_388
10
5.6373578
20
44.8797241
40
0.5584119
50
256.6827433
51
270.4412869
0
ARC
8
DEFAULT_255_1_388
10
5.5992565
20
44.7239698
40
0.3980715
50
229.4223821
51
256.8554507
0
ARC
8
DEFAULT_255_1_388
10
5.5526118
20
44.6714683
40
0.3278564
50
181.8183354
51
229.6455015
0
ARC
8
DEFAULT_255_1_388
10
5.6695727
20
44.6861825
40
0.4453611
50
179.9760419
51
183.2330638
0
ARC
8
DEFAULT_255_1_388
10
5.650228
20
44.6838781
40
0.2579652
50
179.4467996
51
196.2871626
0
ARC
8
DEFAULT_255_1_388
10
5.5953733
20
44.6688709
40
0.2011057
50
196.5661293
51
227.7059371
0
ARC
8
DEFAULT_255_1_388
10
5.6138341
20
44.6895155
40
0.2287994
50
227.7653015
51
257.8763321
0
ARC
8
DEFAULT_255_1_388
10
5.6391424
20
44.7955961
40
0.3378385
50
257.4583525
51
270.4267406
0
ARC
8
DEFAULT_255_1_388
10
5.6442673
20
44.828223
40
0.3704652
50
269.5965319
51
280.8788143
0
ARC
8
DEFAULT_255_1_388
10
5.6700901
20
44.6992529
40
0.2389415
50
280.6347277
51
299.8594068
0
ARC
8
DEFAULT_255_1_388
10
5.6915671
20
44.6584736
40
0.19289
50
300.3575552
51
314.5515667
0
ARC
8
DEFAULT_255_1_388
10
5.6822347
20
44.6653025
40
0.204312
50
315.0730962
51
345.0429362
0
ARC
8
DEFAULT_255_1_388
10
5.5783854
20
44.6955539
40
0.31246
50
344.598526
51
357.9270698
0
ARC
8
DEFAULT_255_1_388
10
5.4774159
20
44.7024705
40
0.4136265
50
357.4755098
51
0.0224936
0
ARC
8
DEFAULT_255_1_388
10
5.5927037
20
44.7052099
40
0.2983498
50
359.5051035
51
13.4236939
0
ARC
8
DEFAULT_255_1_388
10
5.6902127
20
44.7301637
40
0.1977186
50
12.9497905
51
48.7550905
0
ARC
8
DEFAULT_255_1_388
10
5.6697048
20
44.7021373
40
0.2323321
50
49.509109
51
72.1832965
0
ARC
8
DEFAULT_255_1_388
10
5.6294517
20
44.5826632
40
0.358397
50
71.9008458
51
84.3555134
0
ARC
8
DEFAULT_255_1_388
10
5.6112911
20
44.4294712
40
0.512641
50
84.019632
51
89.3326067
0
LINE
8
DEFAULT_255_1_388
10
4.2438444
20
53.5924898
11
4.5609955
21
53.0883009
0
LINE
8
DEFAULT_255_1_388
10
4.5609955
20
53.0883009
11
4.8763395
21
53.5924898
0
LINE
8
DEFAULT_255_1_388
10
4.8763395
20
53.5924898
11
5.0805451
21
53.5924898
0
LINE
8
DEFAULT_255_1_388
10
5.0805451
20
53.5924898
11
4.6649054
21
52.9401163
0
LINE
8
DEFAULT_255_1_388
10
4.6649054
20
52.9401163
11
5.0904843
21
52.2769
0
LINE
8
DEFAULT_255_1_388
10
5.0904843
20
52.2769
11
4.8844716
21
52.2769
0
LINE
8
DEFAULT_255_1_388
10
4.8844716
20
52.2769
11
4.5609955
21
52.7901246
0
LINE
8
DEFAULT_255_1_388
10
4.5609955
20
52.7901246
11
4.2357123
21
52.2769
0
LINE
8
DEFAULT_255_1_388
10
4.2357123
20
52.2769
11
4.0306032
21
52.2769
0
LINE
8
DEFAULT_255_1_388
10
4.0306032
20
52.2769
11
4.4570856
21
52.9401163
0
LINE
8
DEFAULT_255_1_388
10
4.4570856
20
52.9401163
11
4.0405424
21
53.5924898
0
LINE
8
DEFAULT_255_1_388
10
4.0405424
20
53.5924898
11
4.2438444
21
53.5924898
0
LINE
8
DEFAULT_255_1_388
10
6.1106085
20
52.4133382
11
6.1106085
21
52.2769
0
LINE
8
DEFAULT_255_1_388
10
6.1106085
20
52.2769
11
5.2486081
21
52.2769
0
LINE
8
DEFAULT_255_1_388
10
5.2486081
20
52.2769
11
5.2486081
21
52.3970741
0
LINE
8
DEFAULT_255_1_388
10
5.2486081
20
52.3970741
11
5.7040045
21
52.9030702
0
LINE
8
DEFAULT_255_1_388
10
5.3904677
20
53.2048607
11
5.2233083
21
53.2048607
0
LINE
8
DEFAULT_255_1_388
10
5.8024931
20
52.795546
11
5.4501029
21
52.4133382
0
LINE
8
DEFAULT_255_1_388
10
5.4501029
20
52.4133382
11
6.1106085
21
52.4133382
0
ARC
8
DEFAULT_255_1_388
10
4.1864105
20
54.2450983
40
2.0258655
50
318.5132526
51
320.7829045
0
ARC
8
DEFAULT_255_1_388
10
4.7812062
20
53.7609929
40
1.2589638
50
320.7372878
51
323.9739031
0
ARC
8
DEFAULT_255_1_388
10
5.2220994
20
53.4415554
40
0.7145141
50
323.8962701
51
328.64194
0
ARC
8
DEFAULT_255_1_388
10
5.4523251
20
53.2995545
40
0.4440242
50
328.8294576
51
331.7891185
0
ARC
8
DEFAULT_255_1_388
10
5.5645571
20
53.2416374
40
0.3177517
50
331.4254512
51
352.9365785
0
ARC
8
DEFAULT_255_1_388
10
5.5798571
20
53.238205
40
0.3021496
50
353.2257659
51
0.0166158
0
ARC
8
DEFAULT_255_1_388
10
5.6035332
20
53.2407894
40
0.2784847
50
359.486299
51
15.9343185
0
ARC
8
DEFAULT_255_1_388
10
5.6605599
20
53.2561269
40
0.2194403
50
16.1712913
51
43.5286088
0
ARC
8
DEFAULT_255_1_388
10
5.6692543
20
53.2648191
40
0.2071504
50
43.4417391
51
83.1661095
0
ARC
8
DEFAULT_255_1_388
10
5.6541704
20
53.1819316
40
0.2912888
50
82.160179
51
90.1505708
0
ARC
8
DEFAULT_255_1_388
10
5.6506186
20
53.1215279
40
0.3517025
50
89.5460741
51
102.5418361
0
ARC
8
DEFAULT_255_1_388
10
5.6232906
20
53.2374933
40
0.2325748
50
102.1738499
51
129.206123
0
ARC
8
DEFAULT_255_1_388
10
5.6144359
20
53.2514664
40
0.2161591
50
129.72865
51
135.753947
0
ARC
8
DEFAULT_255_1_388
10
5.6280841
20
53.2405728
40
0.2335433
50
136.1757367
51
166.3673339
0
ARC
8
DEFAULT_255_1_388
10
5.741353
20
53.2102148
40
0.3507873
50
165.9090694
51
178.8684636
0
ARC
8
DEFAULT_255_1_388
10
5.8389301
20
53.2049263
40
0.4484624
50
178.4391136
51
180.0083808
0
ARC
8
DEFAULT_255_1_388
10
5.6810003
20
53.2093197
40
0.4577138
50
163.2878482
51
180.5581842
0
ARC
8
DEFAULT_255_1_388
10
5.5908044
20
53.2341393
40
0.3641968
50
133.4540601
51
162.947111
0
ARC
8
DEFAULT_255_1_388
10
5.6108926
20
53.2127789
40
0.3935189
50
100.7869829
51
133.4382499
0
ARC
8
DEFAULT_255_1_388
10
5.6500171
20
53.0385399
40
0.5720313
50
89.660664
51
101.3702276
0
ARC
8
DEFAULT_255_1_388
10
5.657478
20
53.0454263
40
0.5651495
50
78.2172678
51
90.412935
0
ARC
8
DEFAULT_255_1_388
10
5.6974245
20
53.2281511
40
0.378122
50
55.9269121
51
78.4888449
0
ARC
8
DEFAULT_255_1_388
10
5.7194961
20
53.2662187
40
0.3342379
50
47.929771
51
55.4049217
0
ARC
8
DEFAULT_255_1_388
10
5.7309491
20
53.2778618
40
0.3179217
50
4.334829
51
48.0560205
0
ARC
8
DEFAULT_255_1_388
10
5.6077293
20
53.2587487
40
0.442341
50
359.9251713
51
5.5971671
0
ARC
8
DEFAULT_255_1_388
10
5.6559447
20
53.2650728
40
0.3941854
50
337.8914027
51
358.9967534
0
ARC
8
DEFAULT_255_1_388
10
5.3507017
20
53.3828295
40
0.7213271
50
326.9132501
51
338.3508308
0
ARC
8
DEFAULT_255_1_388
10
4.9023129
20
53.6702105
40
1.2538973
50
319.6471833
51
327.0959558
0
ARC
8
DEFAULT_255_1_388
10
4.4709787
20
54.026005
40
1.8129975
50
317.2588228
51
319.9045804
0
LINE
8
DEFAULT_255_1_388
10
4.2358444
20
61.5299898
11
4.5529955
21
61.0258009
0
LINE
8
DEFAULT_255_1_388
10
4.5529955
20
61.0258009
11
4.8683395
21
61.5299898
0
LINE
8
DEFAULT_255_1_388
10
4.8683395
20
61.5299898
11
5.0725451
21
61.5299898
0
LINE
8
DEFAULT_255_1_388
10
5.0725451
20
61.5299898
11
4.6569054
21
60.8776163
0
LINE
8
DEFAULT_255_1_388
10
4.6569054
20
60.8776163
11
5.0824843
21
60.2144
0
LINE
8
DEFAULT_255_1_388
10
5.0824843
20
60.2144
11
4.8764716
21
60.2144
0
LINE
8
DEFAULT_255_1_388
10
4.8764716
20
60.2144
11
4.5529955
21
60.7276246
0
LINE
8
DEFAULT_255_1_388
10
4.5529955
20
60.7276246
11
4.2277123
21
60.2144
0
LINE
8
DEFAULT_255_1_388
10
4.2277123
20
60.2144
11
4.0226032
21
60.2144
0
LINE
8
DEFAULT_255_1_388
10
4.0226032
20
60.2144
11
4.4490856
21
60.8776163
0
LINE
8
DEFAULT_255_1_388
10
4.4490856
20
60.8776163
11
4.0325424
21
61.5299898
0
LINE
8
DEFAULT_255_1_388
10
4.0325424
20
61.5299898
11
4.2358444
21
61.5299898
0
LINE
8
DEFAULT_255_1_388
10
5.7899752
20
61.5363148
11
5.7899752
21
60.2144
0
LINE
8
DEFAULT_255_1_388
10
5.7899752
20
60.2144
11
5.6219123
21
60.2144
0
LINE
8
DEFAULT_255_1_388
10
5.6219123
20
60.2144
11
5.6219123
21
61.328495
0
LINE
8
DEFAULT_255_1_388
10
5.6219123
20
61.328495
11
5.2848827
21
61.2047066
0
LINE
8
DEFAULT_255_1_388
10
5.2848827
20
61.2047066
11
5.2848827
21
61.3565055
0
LINE
8
DEFAULT_255_1_388
10
5.2848827
20
61.3565055
11
5.7637719
21
61.5363148
0
LINE
8
DEFAULT_255_1_388
10
5.7637719
20
61.5363148
11
5.7899752
21
61.5363148
0
LINE
8
DEFAULT_255_1_388
10
4.4824094
20
68.6669317
11
4.1724868
21
68.6669317
0
LINE
8
DEFAULT_255_1_388
10
4.1724868
20
68.6669317
11
4.1724868
21
68.1519
0
LINE
8
DEFAULT_255_1_388
10
4.1724868
20
68.1519
11
3.9990024
21
68.1519
0
LINE
8
DEFAULT_255_1_388
10
3.9990024
20
68.1519
11
3.9990024
21
69.4674898
0
LINE
8
DEFAULT_255_1_388
10
3.9990024
20
69.4674898
11
4.4842165
21
69.4674898
0
LINE
8
DEFAULT_255_1_388
10
4.1724868
20
69.3247267
11
4.1724868
21
68.8087914
0
LINE
8
DEFAULT_255_1_388
10
4.1724868
20
68.8087914
11
4.4842165
21
68.8087914
0
LINE
8
DEFAULT_255_1_388
10
4.4941557
20
69.3247267
11
4.1724868
21
69.3247267
0
ARC
8
DEFAULT_255_1_388
10
4.4889538
20
68.7858334
40
0.6816729
50
78.8380084
51
90.398184
0
ARC
8
DEFAULT_255_1_388
10
4.5357569
20
69.0131796
40
0.449571
50
58.9633273
51
79.0810717
0
ARC
8
DEFAULT_255_1_388
10
4.5696953
20
69.0761823
40
0.3781049
50
48.0194715
51
58.4475592
0
ARC
8
DEFAULT_255_1_388
10
4.5796773
20
69.0857818
40
0.3642936
50
3.3374546
51
48.1766642
0
ARC
8
DEFAULT_255_1_388
10
4.441158
20
69.0658581
40
0.5038766
50
359.9483251
51
4.6822857
0
ARC
8
DEFAULT_255_1_388
10
4.4551503
20
69.0610779
40
0.4899031
50
346.1879032
51
0.5059221
0
ARC
8
DEFAULT_255_1_388
10
4.6080295
20
69.0213763
40
0.3319729
50
310.8832219
51
346.5426612
0
ARC
8
DEFAULT_255_1_388
10
4.5733143
20
69.0682853
40
0.3901853
50
286.6925305
51
310.228778
0
ARC
8
DEFAULT_255_1_388
10
4.5092873
20
69.2696585
40
0.6014737
50
274.6848219
51
287.0247342
0
ARC
8
DEFAULT_255_1_388
10
4.4839422
20
69.5181088
40
0.8511785
50
269.8968222
51
275.0192639
0
ARC
8
DEFAULT_255_1_388
10
4.4870415
20
69.2843144
40
0.4755314
50
269.6596206
51
279.4150542
0
ARC
8
DEFAULT_255_1_388
10
4.5159873
20
69.1165945
40
0.3053379
50
279.2050006
51
294.9901776
0
ARC
8
DEFAULT_255_1_388
10
4.5486508
20
69.0437353
40
0.2255036
50
295.2886769
51
311.2912669
0
ARC
8
DEFAULT_255_1_388
10
4.5566249
20
69.0318938
40
0.2113522
50
311.7853512
51
347.2860549
0
ARC
8
DEFAULT_255_1_388
10
4.445941
20
69.060343
40
0.3256011
50
346.6891629
51
0.1057086
0
ARC
8
DEFAULT_255_1_388
10
4.353687
20
69.0636247
40
0.417863
50
359.63239
51
359.9961329
0
ARC
8
DEFAULT_255_1_388
10
4.4701475
20
69.0663987
40
0.3014155
50
359.4673371
51
15.5931159
0
ARC
8
DEFAULT_255_1_388
10
4.5404538
20
69.0853937
40
0.2285918
50
15.7441779
51
46.620186
0
ARC
8
DEFAULT_255_1_388
10
4.5238298
20
69.0662361
40
0.2539359
50
46.8628482
51
75.6676625
0
ARC
8
DEFAULT_255_1_388
10
4.4907354
20
68.9471243
40
0.3775415
50
75.2763152
51
88.2916439
0
ARC
8
DEFAULT_255_1_388
10
4.4841354
20
68.8469097
40
0.4779221
50
87.8589087
51
88.7986197
0
LINE
8
DEFAULT_255_1_388
10
5.9850371
20
68.2883382
11
5.9850371
21
68.1519
0
LINE
8
DEFAULT_255_1_388
10
5.9850371
20
68.1519
11
5.1230366
21
68.1519
0
LINE
8
DEFAULT_255_1_388
10
5.1230366
20
68.1519
11
5.1230366
21
68.2720741
0
LINE
8
DEFAULT_255_1_388
10
5.1230366
20
68.2720741
11
5.5784331
21
68.7780702
0
LINE
8
DEFAULT_255_1_388
10
5.2648962
20
69.0798607
11
5.0977368
21
69.0798607
0
LINE
8
DEFAULT_255_1_388
10
5.6769216
20
68.670546
11
5.3245314
21
68.2883382
0
LINE
8
DEFAULT_255_1_388
10
5.3245314
20
68.2883382
11
5.9850371
21
68.2883382
0
ARC
8
DEFAULT_255_1_388
10
4.060839
20
70.1200983
40
2.0258655
50
318.5132526
51
320.7829045
0
ARC
8
DEFAULT_255_1_388
10
4.6556347
20
69.6359929
40
1.2589638
50
320.7372878
51
323.9739031
0
ARC
8
DEFAULT_255_1_388
10
5.0965279
20
69.3165554
40
0.7145141
50
323.8962701
51
328.64194
0
ARC
8
DEFAULT_255_1_388
10
5.3267536
20
69.1745545
40
0.4440242
50
328.8294576
51
331.7891185
0
ARC
8
DEFAULT_255_1_388
10
5.4389856
20
69.1166374
40
0.3177517
50
331.4254512
51
352.9365785
0
ARC
8
DEFAULT_255_1_388
10
5.4542856
20
69.113205
40
0.3021496
50
353.2257659
51
0.0166158
0
ARC
8
DEFAULT_255_1_388
10
5.4779617
20
69.1157894
40
0.2784847
50
359.486299
51
15.9343185
0
ARC
8
DEFAULT_255_1_388
10
5.5349884
20
69.1311269
40
0.2194403
50
16.1712913
51
43.5286088
0
ARC
8
DEFAULT_255_1_388
10
5.5436828
20
69.1398191
40
0.2071504
50
43.4417391
51
83.1661095
0
ARC
8
DEFAULT_255_1_388
10
5.5285989
20
69.0569316
40
0.2912888
50
82.160179
51
90.1505708
0
ARC
8
DEFAULT_255_1_388
10
5.5250471
20
68.9965279
40
0.3517025
50
89.5460741
51
102.5418361
0
ARC
8
DEFAULT_255_1_388
10
5.4977191
20
69.1124933
40
0.2325748
50
102.1738499
51
129.206123
0
ARC
8
DEFAULT_255_1_388
10
5.4888644
20
69.1264664
40
0.2161591
50
129.72865
51
135.753947
0
ARC
8
DEFAULT_255_1_388
10
5.5025127
20
69.1155728
40
0.2335433
50
136.1757367
51
166.3673339
0
ARC
8
DEFAULT_255_1_388
10
5.6157815
20
69.0852148
40
0.3507873
50
165.9090694
51
178.8684636
0
ARC
8
DEFAULT_255_1_388
10
5.7133586
20
69.0799263
40
0.4484624
50
178.4391136
51
180.0083808
0
ARC
8
DEFAULT_255_1_388
10
5.5554288
20
69.0843197
40
0.4577138
50
163.2878482
51
180.5581842
0
ARC
8
DEFAULT_255_1_388
10
5.4652329
20
69.1091393
40
0.3641968
50
133.4540601
51
162.947111
0
ARC
8
DEFAULT_255_1_388
10
5.4853211
20
69.0877789
40
0.3935189
50
100.7869829
51
133.4382499
0
ARC
8
DEFAULT_255_1_388
10
5.5244456
20
68.9135399
40
0.5720313
50
89.660664
51
101.3702276
0
ARC
8
DEFAULT_255_1_388
10
5.5319065
20
68.9204263
40
0.5651495
50
78.2172678
51
90.412935
0
ARC
8
DEFAULT_255_1_388
10
5.5718531
20
69.1031511
40
0.378122
50
55.9269121
51
78.4888449
0
ARC
8
DEFAULT_255_1_388
10
5.5939246
20
69.1412187
40
0.3342379
50
47.929771
51
55.4049217
0
ARC
8
DEFAULT_255_1_388
10
5.6053776
20
69.1528618
40
0.3179217
50
4.334829
51
48.0560205
0
ARC
8
DEFAULT_255_1_388
10
5.4821578
20
69.1337487
40
0.442341
50
359.9251713
51
5.5971671
0
ARC
8
DEFAULT_255_1_388
10
5.5303732
20
69.1400728
40
0.3941854
50
337.8914027
51
358.9967534
0
ARC
8
DEFAULT_255_1_388
10
5.2251303
20
69.2578295
40
0.7213271
50
326.9132501
51
338.3508308
0
ARC
8
DEFAULT_255_1_388
10
4.7767414
20
69.5452105
40
1.2538973
50
319.6471833
51
327.0959558
0
ARC
8
DEFAULT_255_1_388
10
4.3454073
20
69.901005
40
1.8129975
50
317.2588228
51
319.9045804
0
LINE
8
DEFAULT_255_1_388
10
4.4749094
20
76.6044317
11
4.1649868
21
76.6044317
0
LINE
8
DEFAULT_255_1_388
10
4.1649868
20
76.6044317
11
4.1649868
21
76.0894
0
LINE
8
DEFAULT_255_1_388
10
4.1649868
20
76.0894
11
3.9915024
21
76.0894
0
LINE
8
DEFAULT_255_1_388
10
3.9915024
20
76.0894
11
3.9915024
21
77.4049898
0
LINE
8
DEFAULT_255_1_388
10
3.9915024
20
77.4049898
11
4.4767165
21
77.4049898
0
LINE
8
DEFAULT_255_1_388
10
4.1649868
20
77.2622267
11
4.1649868
21
76.7462914
0
LINE
8
DEFAULT_255_1_388
10
4.1649868
20
76.7462914
11
4.4767165
21
76.7462914
0
LINE
8
DEFAULT_255_1_388
10
4.4866557
20
77.2622267
11
4.1649868
21
77.2622267
0
ARC
8
DEFAULT_255_1_388
10
4.4814538
20
76.7233334
40
0.6816729
50
78.8380084
51
90.398184
0
ARC
8
DEFAULT_255_1_388
10
4.5282569
20
76.9506796
40
0.449571
50
58.9633273
51
79.0810717
0
ARC
8
DEFAULT_255_1_388
10
4.5621953
20
77.0136823
40
0.3781049
50
48.0194715
51
58.4475592
0
ARC
8
DEFAULT_255_1_388
10
4.5721773
20
77.0232818
40
0.3642936
50
3.3374546
51
48.1766642
0
ARC
8
DEFAULT_255_1_388
10
4.433658
20
77.0033581
40
0.5038766
50
359.9483251
51
4.6822857
0
ARC
8
DEFAULT_255_1_388
10
4.4476503
20
76.9985779
40
0.4899031
50
346.1879032
51
0.5059221
0
ARC
8
DEFAULT_255_1_388
10
4.6005295
20
76.9588763
40
0.3319729
50
310.8832219
51
346.5426612
0
ARC
8
DEFAULT_255_1_388
10
4.5658143
20
77.0057853
40
0.3901853
50
286.6925305
51
310.228778
0
ARC
8
DEFAULT_255_1_388
10
4.5017873
20
77.2071585
40
0.6014737
50
274.6848219
51
287.0247342
0
ARC
8
DEFAULT_255_1_388
10
4.4764422
20
77.4556088
40
0.8511785
50
269.8968222
51
275.0192639
0
ARC
8
DEFAULT_255_1_388
10
4.4795415
20
77.2218144
40
0.4755314
50
269.6596206
51
279.4150542
0
ARC
8
DEFAULT_255_1_388
10
4.5084873
20
77.0540945
40
0.3053379
50
279.2050006
51
294.9901776
0
ARC
8
DEFAULT_255_1_388
10
4.5411508
20
76.9812353
40
0.2255036
50
295.2886769
51
311.2912669
0
ARC
8
DEFAULT_255_1_388
10
4.5491249
20
76.9693938
40
0.2113522
50
311.7853512
51
347.2860549
0
ARC
8
DEFAULT_255_1_388
10
4.438441
20
76.997843
40
0.3256011
50
346.6891629
51
0.1057086
0
ARC
8
DEFAULT_255_1_388
10
4.346187
20
77.0011247
40
0.417863
50
359.63239
51
359.9961329
0
ARC
8
DEFAULT_255_1_388
10
4.4626475
20
77.0038987
40
0.3014155
50
359.4673371
51
15.5931159
0
ARC
8
DEFAULT_255_1_388
10
4.5329538
20
77.0228937
40
0.2285918
50
15.7441779
51
46.620186
0
ARC
8
DEFAULT_255_1_388
10
4.5163298
20
77.0037361
40
0.2539359
50
46.8628482
51
75.6676625
0
ARC
8
DEFAULT_255_1_388
10
4.4832354
20
76.8846243
40
0.3775415
50
75.2763152
51
88.2916439
0
ARC
8
DEFAULT_255_1_388
10
4.4766354
20
76.7844097
40
0.4779221
50
87.8589087
51
88.7986197
0
LINE
8
DEFAULT_255_1_388
10
5.6649038
20
77.4113148
11
5.6649038
21
76.0894
0
LINE
8
DEFAULT_255_1_388
10
5.6649038
20
76.0894
11
5.4968408
21
76.0894
0
LINE
8
DEFAULT_255_1_388
10
5.4968408
20
76.0894
11
5.4968408
21
77.203495
0
LINE
8
DEFAULT_255_1_388
10
5.4968408
20
77.203495
11
5.1598112
21
77.0797066
0
LINE
8
DEFAULT_255_1_388
10
5.1598112
20
77.0797066
11
5.1598112
21
77.2315055
0
LINE
8
DEFAULT_255_1_388
10
5.1598112
20
77.2315055
11
5.6387004
21
77.4113148
0
LINE
8
DEFAULT_255_1_388
10
5.6387004
20
77.4113148
11
5.6649038
21
77.4113148
0
LINE
8
DEFAULT_255_1_388
10
22.4761985
20
85.3488148
11
22.4761985
21
84.0269
0
LINE
8
DEFAULT_255_1_388
10
22.4761985
20
84.0269
11
22.3081355
21
84.0269
0
LINE
8
DEFAULT_255_1_388
10
22.3081355
20
84.0269
11
22.3081355
21
85.140995
0
LINE
8
DEFAULT_255_1_388
10
22.3081355
20
85.140995
11
21.971106
21
85.0172066
0
LINE
8
DEFAULT_255_1_388
10
21.971106
20
85.0172066
11
21.971106
21
85.1690055
0
LINE
8
DEFAULT_255_1_388
10
21.971106
20
85.1690055
11
22.4499951
21
85.3488148
0
LINE
8
DEFAULT_255_1_388
10
22.4499951
20
85.3488148
11
22.4761985
21
85.3488148
0
LINE
8
DEFAULT_255_1_388
10
23.0093015
20
85.3424898
11
23.2333855
21
85.3424898
0
LINE
8
DEFAULT_255_1_388
10
23.2333855
20
85.3424898
11
23.6634822
21
84.2690553
0
LINE
8
DEFAULT_255_1_388
10
23.6634822
20
84.2690553
11
24.0935789
21
85.3424898
0
LINE
8
DEFAULT_255_1_388
10
24.0935789
20
85.3424898
11
24.3185664
21
85.3424898
0
LINE
8
DEFAULT_255_1_388
10
24.3185664
20
85.3424898
11
24.3185664
21
84.0269
0
LINE
8
DEFAULT_255_1_388
10
24.3185664
20
84.0269
11
24.145082
21
84.0269
0
LINE
8
DEFAULT_255_1_388
10
24.145082
20
84.0269
11
24.145082
21
84.539221
0
LINE
8
DEFAULT_255_1_388
10
24.145082
20
84.539221
11
24.1613462
21
85.0922025
0
LINE
8
DEFAULT_255_1_388
10
24.1613462
20
85.0922025
11
23.7294424
21
84.0269
0
LINE
8
DEFAULT_255_1_388
10
23.7294424
20
84.0269
11
23.5966184
21
84.0269
0
LINE
8
DEFAULT_255_1_388
10
23.5966184
20
84.0269
11
23.1656182
21
85.0894918
0
LINE
8
DEFAULT_255_1_388
10
23.1656182
20
85.0894918
11
23.1827859
21
84.539221
0
LINE
8
DEFAULT_255_1_388
10
23.1827859
20
84.539221
11
23.1827859
21
84.0269
0
LINE
8
DEFAULT_255_1_388
10
23.1827859
20
84.0269
11
23.0093015
21
84.0269
0
LINE
8
DEFAULT_255_1_388
10
23.0093015
20
84.0269
11
23.0093015
21
85.3424898
0
ENDSEC
0
EOF