0
SECTION
2
HEADER
9
$MEASUREMENT
70
1
0
ENDSEC
0
SECTION
2
TABLES
0
TABLE
2
LTYPE
0
LTYPE
72
65
70
64
2
CONTINUOUS
3
______
73
0
40
0
0
ENDTAB
0
TABLE
2
LAYER
0
LAYER
2
DEFAULT_255_2_778
70
0
62
255
6
CONTINUOUS
0
LAYER
2
DEFAULT_255_1_388
70
0
62
255
6
CONTINUOUS
0
ENDTAB
0
ENDSEC
0
SECTION
2
ENTITIES
0
ARC
8
DEFAULT_255_2_778
10
3.5695693
20
75.805203
40
0.7914215
50
129.1312896
51
180.1450914
0
ARC
8
DEFAULT_255_2_778
10
3.5698345
20
75.8056901
40
0.7912112
50
89.854026
51
129.1684493
0
ARC
8
DEFAULT_255_2_778
10
25.7988937
20
75.8053767
40
0.7915249
50
39.4792447
51
90.147911
0
ARC
8
DEFAULT_255_2_778
10
25.7994935
20
75.8052233
40
0.7911595
50
359.8533901
51
39.5154338
0
ARC
8
DEFAULT_255_2_778
10
25.7991693
20
-1.9863492
40
0.7914836
50
309.4761667
51
0.1482649
0
ARC
8
DEFAULT_255_2_778
10
25.798898
20
-1.9867803
40
0.7913235
50
269.8517415
51
309.511178
0
ARC
8
DEFAULT_255_2_778
10
3.569842
20
-1.9867221
40
0.7913815
50
219.1282118
51
270.1454017
0
ARC
8
DEFAULT_255_2_778
10
3.5695247
20
-1.9863397
40
0.7913769
50
179.8524075
51
219.1641908
0
LINE
8
DEFAULT_255_2_778
10
3.5718503
20
76.5968989
11
25.7968503
21
76.5968989
0
LINE
8
DEFAULT_255_2_778
10
26.5906503
20
75.8031989
11
26.5906503
21
-1.9843011
0
LINE
8
DEFAULT_255_2_778
10
25.7968503
20
-2.7781011
11
3.5718503
21
-2.7781011
0
LINE
8
DEFAULT_255_2_778
10
2.7781503
20
-1.9843011
11
2.7781503
21
75.8031989
0
LINE
8
DEFAULT_255_1_388
10
5.7268015
20
0.6766934
11
5.7566191
21
0.6766934
0
LINE
8
DEFAULT_255_1_388
10
5.7566191
20
0.6766934
11
5.7566191
21
0.5348338
0
LINE
8
DEFAULT_255_1_388
10
5.7566191
20
0.5348338
11
5.7258979
21
0.5348338
0
LINE
8
DEFAULT_255_1_388
10
5.1105705
20
-0.1392253
11
5.1105705
21
-0.0750722
0
LINE
8
DEFAULT_255_1_388
10
5.2786335
20
-0.0967578
11
5.2786335
21
-0.1582001
0
ARC
8
DEFAULT_255_1_388
10
5.7317871
20
-0.0274174
40
0.562282
50
90.6001079
51
104.5146616
0
ARC
8
DEFAULT_255_1_388
10
5.688083
20
0.13511
40
0.3939917
50
104.2855758
51
133.8630124
0
ARC
8
DEFAULT_255_1_388
10
5.7065083
20
0.1229243
40
0.4155734
50
134.5304124
51
161.6210222
0
ARC
8
DEFAULT_255_1_388
10
5.8925015
20
0.0573421
40
0.6127682
50
161.2850533
51
174.2074364
0
ARC
8
DEFAULT_255_1_388
10
6.0514582
20
0.0354437
40
0.7731446
50
173.7817938
51
174.9251711
0
ARC
8
DEFAULT_255_1_388
10
5.5388775
20
-0.120073
40
0.3412588
50
95.8332067
51
138.995412
0
ARC
8
DEFAULT_255_1_388
10
5.5640056
20
-0.2639305
40
0.4870358
50
89.8755506
51
97.0540979
0
ARC
8
DEFAULT_255_1_388
10
5.5693445
20
-0.1699159
40
0.3930432
50
71.6407016
51
90.6240821
0
ARC
8
DEFAULT_255_1_388
10
5.5862838
20
-0.1075567
40
0.3285421
50
39.6368051
51
71.0190743
0
ARC
8
DEFAULT_255_1_388
10
5.5146746
20
-0.1694414
40
0.4231706
50
10.6588054
51
39.9044509
0
ARC
8
DEFAULT_255_1_388
10
5.3405291
20
-0.2072777
40
0.60133
50
359.6827842
51
11.1326896
0
ARC
8
DEFAULT_255_1_388
10
5.3360627
20
-0.2152285
40
0.6058047
50
347.2485908
51
0.4371098
0
ARC
8
DEFAULT_255_1_388
10
5.5236413
20
-0.2603621
40
0.4128987
50
318.1408565
51
347.6118497
0
ARC
8
DEFAULT_255_1_388
10
5.5602009
20
-0.2904097
40
0.3656244
50
275.6342406
51
317.824739
0
ARC
8
DEFAULT_255_1_388
10
5.535353
20
-0.1442173
40
0.513655
50
269.8872513
51
276.7916069
0
ARC
8
DEFAULT_255_1_388
10
5.5291723
20
-0.2595819
40
0.398323
50
246.9139443
51
270.7436787
0
ARC
8
DEFAULT_255_1_388
10
5.5298919
20
-0.2755956
40
0.3839368
50
218.1665534
51
245.8780431
0
ARC
8
DEFAULT_255_1_388
10
5.6288291
20
-0.1928097
40
0.5128958
50
191.4115343
51
218.6077624
0
ARC
8
DEFAULT_255_1_388
10
5.8468607
20
-0.1439223
40
0.7363054
50
179.6344971
51
191.7836758
0
ARC
8
DEFAULT_255_1_388
10
6.4748482
20
-0.0675505
40
1.3642984
50
171.4523743
51
180.3158856
0
ARC
8
DEFAULT_255_1_388
10
5.9804209
20
0.0093895
40
0.8639311
50
157.9802296
51
171.6246761
0
ARC
8
DEFAULT_255_1_388
10
5.7313559
20
0.1087038
40
0.5958004
50
141.4299236
51
157.8541251
0
ARC
8
DEFAULT_255_1_388
10
5.6591643
20
0.1597746
40
0.5075416
50
102.871586
51
140.8564533
0
ARC
8
DEFAULT_255_1_388
10
5.7320195
20
-0.1147057
40
0.7914163
50
90.377773
51
103.5868422
0
ARC
8
DEFAULT_255_1_388
10
5.5364717
20
-0.1827457
40
0.2667015
50
89.8751238
51
126.2072139
0
ARC
8
DEFAULT_255_1_388
10
5.5416188
20
-0.2001153
40
0.2838229
50
124.9742447
51
144.8960197
0
ARC
8
DEFAULT_255_1_388
10
5.5218433
20
-0.1840019
40
0.2583845
50
145.2974778
51
160.2660922
0
ARC
8
DEFAULT_255_1_388
10
5.8674921
20
-0.1617849
40
0.5888695
50
179.6512124
51
190.285571
0
ARC
8
DEFAULT_255_1_388
10
5.6769401
20
-0.1977032
40
0.3949683
50
190.0944895
51
207.5099647
0
ARC
8
DEFAULT_255_1_388
10
5.6132982
20
-0.2279823
40
0.3245464
50
207.9585471
51
216.325377
0
ARC
8
DEFAULT_255_1_388
10
5.5750619
20
-0.2594288
40
0.2751259
50
215.7661336
51
232.5457193
0
ARC
8
DEFAULT_255_1_388
10
5.5319735
20
-0.3141727
40
0.2054668
50
232.8005815
51
270.6605497
0
ARC
8
DEFAULT_255_1_388
10
5.537116
20
-0.2732147
40
0.2464268
50
269.3550767
51
288.474612
0
ARC
8
DEFAULT_255_1_388
10
5.5475667
20
-0.3125279
40
0.2058436
50
289.1831976
51
322.9685307
0
ARC
8
DEFAULT_255_1_388
10
5.4787768
20
-0.2582721
40
0.2934408
50
322.6007085
51
346.5183319
0
ARC
8
DEFAULT_255_1_388
10
5.3485524
20
-0.2250566
40
0.4278249
50
346.2584622
51
358.7739592
0
ARC
8
DEFAULT_255_1_388
10
5.23341
20
-0.2188171
40
0.5430876
50
358.3757628
51
0.0082477
0
ARC
8
DEFAULT_255_1_388
10
5.3190918
20
-0.2157144
40
0.4574157
50
359.6211417
51
11.28403
0
ARC
8
DEFAULT_255_1_388
10
5.4627524
20
-0.1857465
40
0.3106708
50
11.0483152
51
31.8145585
0
ARC
8
DEFAULT_255_1_388
10
5.4975229
20
-0.1668955
40
0.2711963
50
32.3028554
51
38.0820598
0
ARC
8
DEFAULT_255_1_388
10
5.5448462
20
-0.1240283
40
0.2075566
50
36.8249851
51
85.741667
0
ARC
8
DEFAULT_255_1_388
10
5.5372875
20
-0.1803935
40
0.2643487
50
85.0150021
51
90.050843
0
LINE
8
DEFAULT_255_1_388
10
6.9267351
20
0.1101585
11
6.9267351
21
-0.0317011
0
LINE
8
DEFAULT_255_1_388
10
6.9267351
20
-0.0317011
11
6.3565859
21
-0.0317011
0
LINE
8
DEFAULT_255_1_388
10
6.3565859
20
-0.0317011
11
6.3565859
21
-0.4979404
0
LINE
8
DEFAULT_255_1_388
10
6.3565859
20
-0.4979404
11
7.0188986
21
-0.4979404
0
LINE
8
DEFAULT_255_1_388
10
7.0188986
20
-0.4979404
11
7.0188986
21
-0.6398
0
LINE
8
DEFAULT_255_1_388
10
7.0188986
20
-0.6398
11
6.1831015
21
-0.6398
0
LINE
8
DEFAULT_255_1_388
10
6.1831015
20
-0.6398
11
6.1831015
21
0.6757898
0
LINE
8
DEFAULT_255_1_388
10
6.1831015
20
0.6757898
11
7.009863
21
0.6757898
0
LINE
8
DEFAULT_255_1_388
10
7.009863
20
0.6757898
11
7.009863
21
0.5330267
0
LINE
8
DEFAULT_255_1_388
10
7.009863
20
0.5330267
11
6.3565859
21
0.5330267
0
LINE
8
DEFAULT_255_1_388
10
6.3565859
20
0.5330267
11
6.3565859
21
0.1101585
0
LINE
8
DEFAULT_255_1_388
10
6.3565859
20
0.1101585
11
6.9267351
21
0.1101585
0
LINE
8
DEFAULT_255_1_388
10
8.1076938
20
0.2953892
11
7.9333059
21
0.2953892
0
LINE
8
DEFAULT_255_1_388
10
7.1544333
20
-0.2584958
11
7.3288212
21
-0.2584958
0
ARC
8
DEFAULT_255_1_388
10
8.0073786
20
1.3017821
40
1.4087688
50
248.9196578
51
254.1442424
0
ARC
8
DEFAULT_255_1_388
10
7.8183666
20
0.8151805
40
0.8867498
50
241.6337352
51
249.0064643
0
ARC
8
DEFAULT_255_1_388
10
7.6463979
20
0.5000764
40
0.5277799
50
230.4982261
51
241.8087583
0
ARC
8
DEFAULT_255_1_388
10
7.558175
20
0.3876686
40
0.3849419
50
227.4062979
51
229.9877433
0
ARC
8
DEFAULT_255_1_388
10
7.5033097
20
0.3341155
40
0.3084129
50
200.6782127
51
228.1765252
0
ARC
8
DEFAULT_255_1_388
10
7.5114466
20
0.3324277
40
0.315461
50
179.506278
51
199.8695278
0
ARC
8
DEFAULT_255_1_388
10
7.5104054
20
0.3407671
40
0.3144584
50
132.4834401
51
181.0242352
0
ARC
8
DEFAULT_255_1_388
10
7.5773259
20
0.2775788
40
0.4063094
50
129.2526113
51
133.4249077
0
ARC
8
DEFAULT_255_1_388
10
7.5938851
20
0.2527619
40
0.436014
50
101.9878945
51
128.8741833
0
ARC
8
DEFAULT_255_1_388
10
7.6387267
20
0.059136
40
0.6347415
50
89.5906376
51
102.3170567
0
ARC
8
DEFAULT_255_1_388
10
7.6466578
20
0.0949586
40
0.5989122
50
77.2359491
51
90.3248968
0
ARC
8
DEFAULT_255_1_388
10
7.6699509
20
0.2037554
40
0.4876594
50
63.8379856
51
77.0808925
0
ARC
8
DEFAULT_255_1_388
10
7.7012043
20
0.2619882
40
0.4216191
50
45.9863127
51
64.1608798
0
ARC
8
DEFAULT_255_1_388
10
7.7305436
20
0.295499
40
0.3771394
50
32.2747934
51
45.6544796
0
ARC
8
DEFAULT_255_1_388
10
7.7380243
20
0.2976426
40
0.3696765
50
359.6507495
51
32.6129943
0
ARC
8
DEFAULT_255_1_388
10
7.6319425
20
0.2981788
40
0.3013762
50
359.469654
51
14.983205
0
ARC
8
DEFAULT_255_1_388
10
7.7112678
20
0.3194288
40
0.2192542
50
14.9781954
51
48.2004799
0
ARC
8
DEFAULT_255_1_388
10
7.6927788
20
0.2961937
40
0.2489048
50
48.5926661
51
74.1242559
0
ARC
8
DEFAULT_255_1_388
10
7.6552591
20
0.1723607
40
0.3782845
50
73.7889321
51
86.6653996
0
ARC
8
DEFAULT_255_1_388
10
7.6437405
20
0.0365955
40
0.5145025
50
86.2642725
51
90.0533288
0
ARC
8
DEFAULT_255_1_388
10
7.6405498
20
0.0810376
40
0.4700681
50
89.669455
51
99.2313411
0
ARC
8
DEFAULT_255_1_388
10
7.6132658
20
0.2435401
40
0.3052945
50
99.0695987
51
113.7659242
0
ARC
8
DEFAULT_255_1_388
10
7.5824652
20
0.3161772
40
0.226407
50
114.0402885
51
127.9848946
0
ARC
8
DEFAULT_255_1_388
10
7.5554129
20
0.3494884
40
0.1835045
50
127.7287217
51
176.7106493
0
ARC
8
DEFAULT_255_1_388
10
7.6317794
20
0.338121
40
0.2604907
50
175.1780759
51
180.0581213
0
ARC
8
DEFAULT_255_1_388
10
7.5369137
20
0.3367411
40
0.1656287
50
179.6140658
51
228.124674
0
ARC
8
DEFAULT_255_1_388
10
7.5866495
20
0.382794
40
0.2332038
50
226.5785315
51
230.8792476
0
ARC
8
DEFAULT_255_1_388
10
7.6395981
20
0.4530908
40
0.3211664
50
231.4636401
51
241.9261664
0
ARC
8
DEFAULT_255_1_388
10
7.7742765
20
0.7009349
40
0.6032345
50
241.7177136
51
248.3259138
0
ARC
8
DEFAULT_255_1_388
10
7.9301359
20
1.0870771
40
1.0196417
50
248.2007377
51
252.4527713
0
ARC
8
DEFAULT_255_1_388
10
8.0654886
20
1.5055092
40
1.4594143
50
252.3388938
51
254.347037
0
ARC
8
DEFAULT_255_1_388
10
7.2170187
20
-1.5292905
40
1.6917621
50
71.0197462
51
74.4085467
0
ARC
8
DEFAULT_255_1_388
10
7.4077275
20
-0.9787856
40
1.1091618
50
66.1845203
51
71.086519
0
ARC
8
DEFAULT_255_1_388
10
7.5827823
20
-0.5846561
40
0.6779073
50
59.3537334
51
66.269255
0
ARC
8
DEFAULT_255_1_388
10
7.6827549
20
-0.4155223
40
0.4814366
50
49.1021732
51
59.3294421
0
ARC
8
DEFAULT_255_1_388
10
7.7748538
20
-0.3105425
40
0.3417875
50
32.7924183
51
49.2503526
0
ARC
8
DEFAULT_255_1_388
10
7.8098152
20
-0.2855689
40
0.2988789
50
31.121225
51
32.3977355
0
ARC
8
DEFAULT_255_1_388
10
7.801033
20
-0.2888272
40
0.3080861
50
8.1116803
51
30.7958224
0
ARC
8
DEFAULT_255_1_388
10
7.7098675
20
-0.3043563
40
0.4005385
50
359.8390945
51
8.4707348
0
ARC
8
DEFAULT_255_1_388
10
7.7802723
20
-0.3098249
40
0.3301608
50
337.4732479
51
0.7538283
0
ARC
8
DEFAULT_255_1_388
10
7.8003748
20
-0.3120446
40
0.3107929
50
307.5917028
51
336.4313755
0
ARC
8
DEFAULT_255_1_388
10
7.7492806
20
-0.2552491
40
0.3870096
50
307.6560665
51
308.4561779
0
ARC
8
DEFAULT_255_1_388
10
7.7227022
20
-0.2144168
40
0.435591
50
284.3733666
51
307.1426212
0
ARC
8
DEFAULT_255_1_388
10
7.6669917
20
-0.0094609
40
0.6479685
50
272.4384566
51
284.6464689
0
ARC
8
DEFAULT_255_1_388
10
7.6527302
20
0.1929434
40
0.8508149
50
269.9708517
51
272.8180721
0
ARC
8
DEFAULT_255_1_388
10
7.6478984
20
-0.0362717
40
0.6216151
50
248.2707343
51
270.4054609
0
ARC
8
DEFAULT_255_1_388
10
7.6417856
20
-0.0577327
40
0.5994203
50
246.1380358
51
248.054058
0
ARC
8
DEFAULT_255_1_388
10
7.5946998
20
-0.1566295
40
0.4899388
50
233.1671897
51
246.4951656
0
ARC
8
DEFAULT_255_1_388
10
7.5323633
20
-0.2407863
40
0.3852115
50
215.3403381
51
233.084328
0
ARC
8
DEFAULT_255_1_388
10
7.5016997
20
-0.2630907
40
0.3472969
50
179.2419235
51
215.2648426
0
ARC
8
DEFAULT_255_1_388
10
7.5880548
20
-0.2615021
40
0.259251
50
179.3355796
51
199.1045873
0
ARC
8
DEFAULT_255_1_388
10
7.550669
20
-0.2712777
40
0.2207454
50
199.8830064
51
232.7061328
0
ARC
8
DEFAULT_255_1_388
10
7.6037965
20
-0.2044544
40
0.306101
50
232.3736206
51
255.5136621
0
ARC
8
DEFAULT_255_1_388
10
7.642147
20
-0.0644823
40
0.4512213
50
255.2447928
51
267.5318292
0
ARC
8
DEFAULT_255_1_388
10
7.6519937
20
0.0741709
40
0.5901825
50
267.1564563
51
270.0294721
0
ARC
8
DEFAULT_255_1_388
10
7.6551263
20
0.0242623
40
0.5402814
50
269.6999944
51
278.1662446
0
ARC
8
DEFAULT_255_1_388
10
7.683929
20
-0.1704026
40
0.3435003
50
278.0229022
51
290.6255326
0
ARC
8
DEFAULT_255_1_388
10
7.7230457
20
-0.2747453
40
0.2320666
50
290.6616368
51
307.0374127
0
ARC
8
DEFAULT_255_1_388
10
7.7568357
20
-0.316196
40
0.1786372
50
306.3942078
51
355.303191
0
ARC
8
DEFAULT_255_1_388
10
7.699265
20
-0.3075814
40
0.2367516
50
354.3662092
51
0.0709489
0
ARC
8
DEFAULT_255_1_388
10
7.7152518
20
-0.3050439
40
0.2207761
50
359.4175379
51
16.1975911
0
ARC
8
DEFAULT_255_1_388
10
7.7664636
20
-0.2910046
40
0.1676828
50
16.4721294
51
52.6261798
0
ARC
8
DEFAULT_255_1_388
10
7.6741144
20
-0.4129394
40
0.3206412
50
52.7381828
51
62.4979144
0
ARC
8
DEFAULT_255_1_388
10
7.5182896
20
-0.7061764
40
0.6527035
50
62.2517425
51
68.1219454
0
ARC
8
DEFAULT_255_1_388
10
7.3248384
20
-1.1816049
40
1.1659797
50
68.006043
51
71.8055127
0
ARC
8
DEFAULT_255_1_388
10
7.1228292
20
-1.7874277
40
1.8045908
50
71.718361
51
73.9260743
0
LINE
8
DEFAULT_255_1_388
10
9.1386608
20
0.6757898
11
9.1386608
21
0.5818191
0
LINE
8
DEFAULT_255_1_388
10
9.1386608
20
0.5818191
11
8.5938115
21
-0.6398
0
LINE
8
DEFAULT_255_1_388
10
8.5938115
20
-0.6398
11
8.41852
21
-0.6398
0
LINE
8
DEFAULT_255_1_388
10
8.41852
20
-0.6398
11
8.9615622
21
0.538448
0
LINE
8
DEFAULT_255_1_388
10
8.9615622
20
0.538448
11
8.2495534
21
0.538448
0
LINE
8
DEFAULT_255_1_388
10
8.2495534
20
0.538448
11
8.2495534
21
0.6757898
0
LINE
8
DEFAULT_255_1_388
10
8.2495534
20
0.6757898
11
9.1386608
21
0.6757898
0
LINE
8
DEFAULT_255_1_388
10
9.8777766
20
0.6821148
11
9.8777766
21
-0.6398
0
LINE
8
DEFAULT_255_1_388
10
9.8777766
20
-0.6398
11
9.7097136
21
-0.6398
0
LINE
8
DEFAULT_255_1_388
10
9.7097136
20
-0.6398
11
9.7097136
21
0.474295
0
LINE
8
DEFAULT_255_1_388
10
9.7097136
20
0.474295
11
9.372684
21
0.3505066
0
LINE
8
DEFAULT_255_1_388
10
9.372684
20
0.3505066
11
9.372684
21
0.5023055
0
LINE
8
DEFAULT_255_1_388
10
9.372684
20
0.5023055
11
9.8515732
21
0.6821148
0
LINE
8
DEFAULT_255_1_388
10
9.8515732
20
0.6821148
11
9.8777766
21
0.6821148
0
LINE
8
DEFAULT_255_1_388
10
11.0731923
20
0.6757898
11
11.0731923
21
-0.197957
0
LINE
8
DEFAULT_255_1_388
10
11.0731923
20
-0.197957
11
11.2557124
21
-0.197957
0
LINE
8
DEFAULT_255_1_388
10
11.2557124
20
-0.197957
11
11.2557124
21
-0.3343952
0
LINE
8
DEFAULT_255_1_388
10
11.2557124
20
-0.3343952
11
11.0731923
21
-0.3343952
0
LINE
8
DEFAULT_255_1_388
10
11.0731923
20
-0.3343952
11
11.0731923
21
-0.6398
0
LINE
8
DEFAULT_255_1_388
10
11.0731923
20
-0.6398
11
10.9051293
21
-0.6398
0
LINE
8
DEFAULT_255_1_388
10
10.9051293
20
-0.6398
11
10.9051293
21
-0.3343952
0
LINE
8
DEFAULT_255_1_388
10
10.9051293
20
-0.3343952
11
10.3060661
21
-0.3343952
0
LINE
8
DEFAULT_255_1_388
10
10.3060661
20
-0.3343952
11
10.3060661
21
-0.2359067
0
LINE
8
DEFAULT_255_1_388
10
10.3060661
20
-0.2359067
11
10.8951901
21
0.6757898
0
LINE
8
DEFAULT_255_1_388
10
10.8951901
20
0.6757898
11
11.0731923
21
0.6757898
0
LINE
8
DEFAULT_255_1_388
10
10.8852509
20
0.4110455
11
10.4958146
21
-0.197957
0
LINE
8
DEFAULT_255_1_388
10
10.4958146
20
-0.197957
11
10.9051293
21
-0.197957
0
LINE
8
DEFAULT_255_1_388
10
10.9051293
20
-0.197957
11
10.9051293
21
0.447188
0
LINE
8
DEFAULT_255_1_388
10
10.9051293
20
0.447188
11
10.8852509
21
0.4110455
0
LINE
8
DEFAULT_255_1_388
10
12.2686081
20
-0.5033618
11
12.2686081
21
-0.6398
0
LINE
8
DEFAULT_255_1_388
10
12.2686081
20
-0.6398
11
11.4066076
21
-0.6398
0
LINE
8
DEFAULT_255_1_388
10
11.4066076
20
-0.6398
11
11.4066076
21
-0.5196259
0
LINE
8
DEFAULT_255_1_388
10
11.4066076
20
-0.5196259
11
11.8620041
21
-0.0136298
0
LINE
8
DEFAULT_255_1_388
10
11.5484672
20
0.2881607
11
11.3813078
21
0.2881607
0
LINE
8
DEFAULT_255_1_388
10
11.9604926
20
-0.121154
11
11.6081025
21
-0.5033618
0
LINE
8
DEFAULT_255_1_388
10
11.6081025
20
-0.5033618
11
12.2686081
21
-0.5033618
0
ARC
8
DEFAULT_255_1_388
10
10.3444101
20
1.3283983
40
2.0258655
50
318.5132526
51
320.7829045
0
ARC
8
DEFAULT_255_1_388
10
10.9392057
20
0.8442929
40
1.2589638
50
320.7372878
51
323.9739031
0
ARC
8
DEFAULT_255_1_388
10
11.3800989
20
0.5248554
40
0.7145141
50
323.8962701
51
328.64194
0
ARC
8
DEFAULT_255_1_388
10
11.6103247
20
0.3828545
40
0.4440242
50
328.8294576
51
331.7891185
0
ARC
8
DEFAULT_255_1_388
10
11.7225567
20
0.3249374
40
0.3177517
50
331.4254512
51
352.9365785
0
ARC
8
DEFAULT_255_1_388
10
11.7378567
20
0.321505
40
0.3021496
50
353.2257659
51
0.0166158
0
ARC
8
DEFAULT_255_1_388
10
11.7615327
20
0.3240894
40
0.2784847
50
359.486299
51
15.9343185
0
ARC
8
DEFAULT_255_1_388
10
11.8185594
20
0.3394269
40
0.2194403
50
16.1712913
51
43.5286088
0
ARC
8
DEFAULT_255_1_388
10
11.8272539
20
0.3481191
40
0.2071504
50
43.4417391
51
83.1661095
0
ARC
8
DEFAULT_255_1_388
10
11.81217
20
0.2652316
40
0.2912888
50
82.160179
51
90.1505708
0
ARC
8
DEFAULT_255_1_388
10
11.8086182
20
0.2048279
40
0.3517025
50
89.5460741
51
102.5418361
0
ARC
8
DEFAULT_255_1_388
10
11.7812902
20
0.3207933
40
0.2325748
50
102.1738499
51
129.206123
0
ARC
8
DEFAULT_255_1_388
10
11.7724355
20
0.3347664
40
0.2161591
50
129.72865
51
135.753947
0
ARC
8
DEFAULT_255_1_388
10
11.7860837
20
0.3238728
40
0.2335433
50
136.1757367
51
166.3673339
0
ARC
8
DEFAULT_255_1_388
10
11.8993526
20
0.2935148
40
0.3507873
50
165.9090694
51
178.8684636
0
ARC
8
DEFAULT_255_1_388
10
11.9969297
20
0.2882263
40
0.4484624
50
178.4391136
51
180.0083808
0
ARC
8
DEFAULT_255_1_388
10
11.8389998
20
0.2926197
40
0.4577138
50
163.2878482
51
180.5581842
0
ARC
8
DEFAULT_255_1_388
10
11.748804
20
0.3174393
40
0.3641968
50
133.4540601
51
162.947111
0
ARC
8
DEFAULT_255_1_388
10
11.7688921
20
0.2960789
40
0.3935189
50
100.7869829
51
133.4382499
0
ARC
8
DEFAULT_255_1_388
10
11.8080166
20
0.1218399
40
0.5720313
50
89.660664
51
101.3702276
0
ARC
8
DEFAULT_255_1_388
10
11.8154775
20
0.1287263
40
0.5651495
50
78.2172678
51
90.412935
0
ARC
8
DEFAULT_255_1_388
10
11.8554241
20
0.3114511
40
0.378122
50
55.9269121
51
78.4888449
0
ARC
8
DEFAULT_255_1_388
10
11.8774956
20
0.3495187
40
0.3342379
50
47.929771
51
55.4049217
0
ARC
8
DEFAULT_255_1_388
10
11.8889487
20
0.3611618
40
0.3179217
50
4.334829
51
48.0560205
0
ARC
8
DEFAULT_255_1_388
10
11.7657288
20
0.3420487
40
0.442341
50
359.9251713
51
5.5971671
0
ARC
8
DEFAULT_255_1_388
10
11.8139443
20
0.3483728
40
0.3941854
50
337.8914027
51
358.9967534
0
ARC
8
DEFAULT_255_1_388
10
11.5087013
20
0.4661295
40
0.7213271
50
326.9132501
51
338.3508308
0
ARC
8
DEFAULT_255_1_388
10
11.0603125
20
0.7535105
40
1.2538973
50
319.6471833
51
327.0959558
0
ARC
8
DEFAULT_255_1_388
10
10.6289783
20
1.109305
40
1.8129975
50
317.2588228
51
319.9045804
0
LINE
8
DEFAULT_255_1_388
10
12.8107468
20
-0.0127263
11
12.8107468
21
-0.1491645
0
LINE
8
DEFAULT_255_1_388
10
12.8107468
20
-0.1491645
11
12.3698073
21
-0.1491645
0
LINE
8
DEFAULT_255_1_388
10
12.3698073
20
-0.1491645
11
12.3698073
21
-0.0127263
0
LINE
8
DEFAULT_255_1_388
10
12.3698073
20
-0.0127263
11
12.8107468
21
-0.0127263
0
LINE
8
DEFAULT_255_1_388
10
13.5823908
20
0.6766934
11
13.6122084
21
0.6766934
0
LINE
8
DEFAULT_255_1_388
10
13.6122084
20
0.6766934
11
13.6122084
21
0.5348338
0
LINE
8
DEFAULT_255_1_388
10
13.6122084
20
0.5348338
11
13.5814873
21
0.5348338
0
LINE
8
DEFAULT_255_1_388
10
12.9661599
20
-0.1392253
11
12.9661599
21
-0.0750722
0
LINE
8
DEFAULT_255_1_388
10
13.1342229
20
-0.0967578
11
13.1342229
21
-0.1582001
0
ARC
8
DEFAULT_255_1_388
10
13.5873764
20
-0.0274174
40
0.562282
50
90.6001079
51
104.5146616
0
ARC
8
DEFAULT_255_1_388
10
13.5436724
20
0.13511
40
0.3939917
50
104.2855758
51
133.8630124
0
ARC
8
DEFAULT_255_1_388
10
13.5620976
20
0.1229243
40
0.4155734
50
134.5304124
51
161.6210222
0
ARC
8
DEFAULT_255_1_388
10
13.7480908
20
0.0573421
40
0.6127682
50
161.2850533
51
174.2074364
0
ARC
8
DEFAULT_255_1_388
10
13.9070475
20
0.0354437
40
0.7731446
50
173.7817938
51
174.9251711
0
ARC
8
DEFAULT_255_1_388
10
13.3944669
20
-0.120073
40
0.3412588
50
95.8332067
51
138.995412
0
ARC
8
DEFAULT_255_1_388
10
13.4195949
20
-0.2639305
40
0.4870358
50
89.8755506
51
97.0540979
0
ARC
8
DEFAULT_255_1_388
10
13.4249338
20
-0.1699159
40
0.3930432
50
71.6407016
51
90.6240821
0
ARC
8
DEFAULT_255_1_388
10
13.4418732
20
-0.1075567
40
0.3285421
50
39.6368051
51
71.0190743
0
ARC
8
DEFAULT_255_1_388
10
13.3702639
20
-0.1694414
40
0.4231706
50
10.6588054
51
39.9044509
0
ARC
8
DEFAULT_255_1_388
10
13.1961185
20
-0.2072777
40
0.60133
50
359.6827842
51
11.1326896
0
ARC
8
DEFAULT_255_1_388
10
13.1916521
20
-0.2152285
40
0.6058047
50
347.2485908
51
0.4371098
0
ARC
8
DEFAULT_255_1_388
10
13.3792306
20
-0.2603621
40
0.4128987
50
318.1408565
51
347.6118497
0
ARC
8
DEFAULT_255_1_388
10
13.4157903
20
-0.2904097
40
0.3656244
50
275.6342406
51
317.824739
0
ARC
8
DEFAULT_255_1_388
10
13.3909424
20
-0.1442173
40
0.513655
50
269.8872513
51
276.7916069
0
ARC
8
DEFAULT_255_1_388
10
13.3847616
20
-0.2595819
40
0.398323
50
246.9139443
51
270.7436787
0
ARC
8
DEFAULT_255_1_388
10
13.3854812
20
-0.2755956
40
0.3839368
50
218.1665534
51
245.8780431
0
ARC
8
DEFAULT_255_1_388
10
13.4844185
20
-0.1928097
40
0.5128958
50
191.4115343
51
218.6077624
0
ARC
8
DEFAULT_255_1_388
10
13.7024501
20
-0.1439223
40
0.7363054
50
179.6344971
51
191.7836758
0
ARC
8
DEFAULT_255_1_388
10
14.3304375
20
-0.0675505
40
1.3642984
50
171.4523743
51
180.3158856
0
ARC
8
DEFAULT_255_1_388
10
13.8360102
20
0.0093895
40
0.8639311
50
157.9802296
51
171.6246761
0
ARC
8
DEFAULT_255_1_388
10
13.5869453
20
0.1087038
40
0.5958004
50
141.4299236
51
157.8541251
0
ARC
8
DEFAULT_255_1_388
10
13.5147536
20
0.1597746
40
0.5075416
50
102.871586
51
140.8564533
0
ARC
8
DEFAULT_255_1_388
10
13.5876089
20
-0.1147057
40
0.7914163
50
90.377773
51
103.5868422
0
ARC
8
DEFAULT_255_1_388
10
13.392061
20
-0.1827457
40
0.2667015
50
89.8751238
51
126.2072139
0
ARC
8
DEFAULT_255_1_388
10
13.3972081
20
-0.2001153
40
0.2838229
50
124.9742447
51
144.8960197
0
ARC
8
DEFAULT_255_1_388
10
13.3774326
20
-0.1840019
40
0.2583845
50
145.2974778
51
160.2660922
0
ARC
8
DEFAULT_255_1_388
10
13.7230815
20
-0.1617849
40
0.5888695
50
179.6512124
51
190.285571
0
ARC
8
DEFAULT_255_1_388
10
13.5325294
20
-0.1977032
40
0.3949683
50
190.0944895
51
207.5099647
0
ARC
8
DEFAULT_255_1_388
10
13.4688876
20
-0.2279823
40
0.3245464
50
207.9585471
51
216.325377
0
ARC
8
DEFAULT_255_1_388
10
13.4306513
20
-0.2594288
40
0.2751259
50
215.7661336
51
232.5457193
0
ARC
8
DEFAULT_255_1_388
10
13.3875629
20
-0.3141727
40
0.2054668
50
232.8005815
51
270.6605497
0
ARC
8
DEFAULT_255_1_388
10
13.3927053
20
-0.2732147
40
0.2464268
50
269.3550767
51
288.474612
0
ARC
8
DEFAULT_255_1_388
10
13.403156
20
-0.3125279
40
0.2058436
50
289.1831976
51
322.9685307
0
ARC
8
DEFAULT_255_1_388
10
13.3343662
20
-0.2582721
40
0.2934408
50
322.6007085
51
346.5183319
0
ARC
8
DEFAULT_255_1_388
10
13.2041418
20
-0.2250566
40
0.4278249
50
346.2584622
51
358.7739592
0
ARC
8
DEFAULT_255_1_388
10
13.0889993
20
-0.2188171
40
0.5430876
50
358.3757628
51
0.0082477
0
ARC
8
DEFAULT_255_1_388
10
13.1746812
20
-0.2157144
40
0.4574157
50
359.6211417
51
11.28403
0
ARC
8
DEFAULT_255_1_388
10
13.3183418
20
-0.1857465
40
0.3106708
50
11.0483152
51
31.8145585
0
ARC
8
DEFAULT_255_1_388
10
13.3531123
20
-0.1668955
40
0.2711963
50
32.3028554
51
38.0820598
0
ARC
8
DEFAULT_255_1_388
10
13.4004356
20
-0.1240283
40
0.2075566
50
36.8249851
51
85.741667
0
ARC
8
DEFAULT_255_1_388
10
13.3928769
20
-0.1803935
40
0.2643487
50
85.0150021
51
90.050843
0
LINE
8
DEFAULT_255_1_388
10
14.4949909
20
-0.6398
11
14.0386909
21
-0.6398
0
LINE
8
DEFAULT_255_1_388
10
14.0386909
20
-0.6398
11
14.0386909
21
0.6757898
0
LINE
8
DEFAULT_255_1_388
10
14.0386909
20
0.6757898
11
14.4687875
21
0.6757898
0
LINE
8
DEFAULT_255_1_388
10
14.5013159
20
-0.0244726
11
14.2121752
21
-0.0244726
0
LINE
8
DEFAULT_255_1_388
10
14.2121752
20
-0.0244726
11
14.2121752
21
-0.4979404
0
LINE
8
DEFAULT_255_1_388
10
14.2121752
20
-0.4979404
11
14.4986052
21
-0.4979404
0
LINE
8
DEFAULT_255_1_388
10
14.2121752
20
0.5330267
11
14.2121752
21
0.1146763
0
LINE
8
DEFAULT_255_1_388
10
14.2121752
20
0.1146763
11
14.4742089
21
0.1146763
0
LINE
8
DEFAULT_255_1_388
10
14.4687875
20
0.5330267
11
14.2121752
21
0.5330267
0
ARC
8
DEFAULT_255_1_388
10
14.4730296
20
-0.1530176
40
0.8288183
50
82.1256322
51
90.2932506
0
ARC
8
DEFAULT_255_1_388
10
14.5167871
20
0.152759
40
0.5199321
50
69.9044202
51
82.2857574
0
ARC
8
DEFAULT_255_1_388
10
14.5809863
20
0.3262993
40
0.3348993
50
51.1840204
51
70.018125
0
ARC
8
DEFAULT_255_1_388
10
14.6096696
20
0.3679945
40
0.2844579
50
12.1018086
51
50.421322
0
ARC
8
DEFAULT_255_1_388
10
14.4539567
20
0.3288937
40
0.4449429
50
359.5252354
51
12.8212369
0
ARC
8
DEFAULT_255_1_388
10
14.6316997
20
0.3210943
40
0.2672162
50
323.4907456
51
0.8818258
0
ARC
8
DEFAULT_255_1_388
10
14.5846409
20
0.3574523
40
0.3266736
50
298.6824053
51
323.2758285
0
ARC
8
DEFAULT_255_1_388
10
14.5439701
20
0.4250509
40
0.4055105
50
293.1994739
51
299.139634
0
ARC
8
DEFAULT_255_1_388
10
14.6196651
20
-0.2595349
40
0.3229926
50
54.0009997
51
74.9168635
0
ARC
8
DEFAULT_255_1_388
10
14.6327577
20
-0.2373489
40
0.2973581
50
36.3578854
51
53.5293172
0
ARC
8
DEFAULT_255_1_388
10
14.6184946
20
-0.247515
40
0.3148715
50
4.8189348
51
36.3090187
0
ARC
8
DEFAULT_255_1_388
10
14.530797
20
-0.2598617
40
0.4033265
50
359.9373213
51
5.5201284
0
ARC
8
DEFAULT_255_1_388
10
14.49433
20
-0.2644267
40
0.4398126
50
344.7479357
51
0.5372278
0
ARC
8
DEFAULT_255_1_388
10
14.6058198
20
-0.2944795
40
0.3243441
50
311.1785587
51
344.6887681
0
ARC
8
DEFAULT_255_1_388
10
14.5729742
20
-0.2535916
40
0.3767511
50
286.0417804
51
310.8440924
0
ARC
8
DEFAULT_255_1_388
10
14.5159151
20
-0.0683115
40
0.5705957
50
274.1044074
51
286.4070149
0
ARC
8
DEFAULT_255_1_388
10
14.4960366
20
0.1434901
40
0.7832907
50
269.9235077
51
274.4458593
0
ARC
8
DEFAULT_255_1_388
10
14.5012085
20
-0.1196538
40
0.3782955
50
269.6057074
51
281.3740795
0
ARC
8
DEFAULT_255_1_388
10
14.5271583
20
-0.2426431
40
0.2526069
50
281.105298
51
302.5134029
0
ARC
8
DEFAULT_255_1_388
10
14.5436971
20
-0.2723056
40
0.2187131
50
303.0365425
51
311.8818034
0
ARC
8
DEFAULT_255_1_388
10
14.5517148
20
-0.2818398
40
0.2062624
50
311.9916937
51
351.7143773
0
ARC
8
DEFAULT_255_1_388
10
14.4598173
20
-0.2632729
40
0.2999202
50
350.7343295
51
0.2221526
0
ARC
8
DEFAULT_255_1_388
10
14.4477261
20
-0.256913
40
0.3120525
50
359.045729
51
17.2295312
0
ARC
8
DEFAULT_255_1_388
10
14.5646291
20
-0.2221845
40
0.1901144
50
17.6685208
51
78.9940245
0
ARC
8
DEFAULT_255_1_388
10
14.5064652
20
-0.4309989
40
0.4065575
50
76.565218
51
90.7103392
0
LINE
8
DEFAULT_255_1_388
10
14.5014249
20
-0.0244726
11
14.5013159
21
-0.0244726
0
ARC
8
DEFAULT_255_1_388
10
14.4767478
20
0.4842949
40
0.3696273
50
269.6064514
51
281.4533785
0
ARC
8
DEFAULT_255_1_388
10
14.5018119
20
0.3660283
40
0.2487412
50
281.2044438
51
302.5143998
0
ARC
8
DEFAULT_255_1_388
10
14.5172372
20
0.3382576
40
0.2170405
50
303.0211308
51
309.8378766
0
ARC
8
DEFAULT_255_1_388
10
14.537849
20
0.3151486
40
0.1860946
50
309.5229446
51
356.9509628
0
ARC
8
DEFAULT_255_1_388
10
14.4632616
20
0.3258831
40
0.2612347
50
355.4699226
51
0.0498632
0
ARC
8
DEFAULT_255_1_388
10
14.4318289
20
0.3283789
40
0.2926762
50
359.5558955
51
11.2092924
0
ARC
8
DEFAULT_255_1_388
10
14.5395257
20
0.3506667
40
0.1827036
50
10.9185717
51
31.322519
0
ARC
8
DEFAULT_255_1_388
10
14.5716805
20
0.3685571
40
0.1459418
50
31.8850633
51
52.1415586
0
ARC
8
DEFAULT_255_1_388
10
14.5408234
20
0.3249674
40
0.1993088
50
52.8283418
51
71.9850132
0
ARC
8
DEFAULT_255_1_388
10
14.4985395
20
0.2005158
40
0.3307407
50
71.686634
51
82.8453416
0
ARC
8
DEFAULT_255_1_388
10
14.4716042
20
-0.0030108
40
0.536039
50
82.6981895
51
90.1730083
0
ARC
8
DEFAULT_255_1_388
10
14.4690873
20
0.0848836
40
0.4481429
50
89.8851568
51
90.0383283
0
LINE
8
DEFAULT_255_1_388
10
16.1620673
20
0.0152842
11
16.1620673
21
-0.4672192
0
LINE
8
DEFAULT_255_1_388
10
15.148268
20
-0.0452546
11
15.148268
21
0.0694981
0
LINE
8
DEFAULT_255_1_388
10
16.1620673
20
0.2899678
11
15.988583
21
0.2899678
0
LINE
8
DEFAULT_255_1_388
10
15.322656
20
0.0740159
11
15.322656
21
-0.0335083
0
LINE
8
DEFAULT_255_1_388
10
15.9894865
20
-0.4211374
11
15.9894865
21
-0.1256718
0
LINE
8
DEFAULT_255_1_388
10
15.9894865
20
-0.1256718
11
15.6849853
21
-0.1256718
0
LINE
8
DEFAULT_255_1_388
10
15.6849853
20
-0.1256718
11
15.6849853
21
0.0152842
0
LINE
8
DEFAULT_255_1_388
10
15.6849853
20
0.0152842
11
16.1620673
21
0.0152842
0
ARC
8
DEFAULT_255_1_388
10
15.8435274
20
-0.2429716
40
0.3895571
50
295.8437277
51
324.8549962
0
ARC
8
DEFAULT_255_1_388
10
15.7967656
20
-0.1583381
40
0.4861381
50
291.5691164
51
296.4556269
0
ARC
8
DEFAULT_255_1_388
10
15.7392659
20
-0.0047199
40
0.6501442
50
278.6622213
51
291.3047061
0
ARC
8
DEFAULT_255_1_388
10
15.7010691
20
0.2369557
40
0.8948168
50
270.0200506
51
278.7494673
0
ARC
8
DEFAULT_255_1_388
10
15.6966895
20
0.4215453
40
1.0794166
50
270.0022372
51
270.2490917
0
ARC
8
DEFAULT_255_1_388
10
15.6924787
20
-0.0743173
40
0.5835695
50
253.5785313
51
270.4175629
0
ARC
8
DEFAULT_255_1_388
10
15.6729783
20
-0.1498375
40
0.5056241
50
238.8203954
51
253.2788387
0
ARC
8
DEFAULT_255_1_388
10
15.6707699
20
-0.1555776
40
0.4995712
50
206.7883476
51
238.696262
0
ARC
8
DEFAULT_255_1_388
10
15.7583095
20
-0.1031153
40
0.6014056
50
206.1137778
51
207.4912776
0
ARC
8
DEFAULT_255_1_388
10
15.8249931
20
-0.0747716
40
0.6737692
50
188.6922336
51
205.782076
0
ARC
8
DEFAULT_255_1_388
10
16.033829
20
-0.0392545
40
0.8855812
50
180.3881972
51
188.9218085
0
ARC
8
DEFAULT_255_1_388
10
16.1719447
20
0.0758622
40
1.0236965
50
170.2024645
51
180.3561986
0
ARC
8
DEFAULT_255_1_388
10
15.8160598
20
0.1395101
40
0.6621746
50
154.2856519
51
170.3893388
0
ARC
8
DEFAULT_255_1_388
10
15.6718561
20
0.2055192
40
0.5036209
50
139.8400879
51
153.9334639
0
ARC
8
DEFAULT_255_1_388
10
15.6314465
20
0.2378716
40
0.4518751
50
98.4190017
51
139.6707015
0
ARC
8
DEFAULT_255_1_388
10
15.6741432
20
0.0302755
40
0.6635912
50
89.7660128
51
99.4415389
0
ARC
8
DEFAULT_255_1_388
10
15.6814829
20
0.0376517
40
0.6562258
50
78.0552044
51
90.4042252
0
ARC
8
DEFAULT_255_1_388
10
15.7269892
20
0.2422661
40
0.4466287
50
54.6380186
51
78.3338577
0
ARC
8
DEFAULT_255_1_388
10
15.7484191
20
0.2783444
40
0.4048184
50
50.0313964
51
54.1562739
0
ARC
8
DEFAULT_255_1_388
10
15.7363084
20
0.2674798
40
0.4209308
50
18.1092229
51
49.7179911
0
ARC
8
DEFAULT_255_1_388
10
15.5724165
20
0.2074399
40
0.5953982
50
7.967396
51
18.698492
0
ARC
8
DEFAULT_255_1_388
10
15.5893426
20
0.2213236
40
0.4050986
50
9.7558763
51
27.3214087
0
ARC
8
DEFAULT_255_1_388
10
15.716189
20
0.2847087
40
0.2633168
50
27.736147
51
84.5257861
0
ARC
8
DEFAULT_255_1_388
10
15.67933
20
0.0997988
40
0.4513019
50
82.1064239
51
90.1997295
0
ARC
8
DEFAULT_255_1_388
10
15.6737316
20
0.1569501
40
0.3941684
50
89.4148952
51
105.5824837
0
ARC
8
DEFAULT_255_1_388
10
15.6448197
20
0.2622043
40
0.2850167
50
105.6678541
51
144.2649156
0
ARC
8
DEFAULT_255_1_388
10
15.7453089
20
0.1907024
40
0.4083468
50
144.3560675
51
162.8564185
0
ARC
8
DEFAULT_255_1_388
10
15.9797532
20
0.1154083
40
0.6545749
50
162.6076338
51
173.6779811
0
ARC
8
DEFAULT_255_1_388
10
16.3241647
20
0.0735422
40
1.0015089
50
173.4670996
51
179.9729015
0
ARC
8
DEFAULT_255_1_388
10
16.1094518
20
-0.0382364
40
0.78681
50
179.6556955
51
190.007958
0
ARC
8
DEFAULT_255_1_388
10
15.8488799
20
-0.086034
40
0.5218997
50
189.8117884
51
206.6795375
0
ARC
8
DEFAULT_255_1_388
10
15.7538245
20
-0.1303486
40
0.4170788
50
207.1031171
51
217.7074698
0
ARC
8
DEFAULT_255_1_388
10
15.6824676
20
-0.1924404
40
0.3226945
50
216.7345117
51
265.6812141
0
ARC
8
DEFAULT_255_1_388
10
15.6971818
20
-0.090697
40
0.4253149
50
264.7367524
51
270.0610826
0
ARC
8
DEFAULT_255_1_388
10
15.6998003
20
0.2288173
40
0.7448321
50
269.8334494
51
276.0538364
0
ARC
8
DEFAULT_255_1_388
10
15.7230866
20
0.0148924
40
0.5296446
50
275.9894423
51
284.4615914
0
ARC
8
DEFAULT_255_1_388
10
15.7452379
20
-0.078343
40
0.4338353
50
284.7038488
51
286.4938196
0
ARC
8
DEFAULT_255_1_388
10
15.7911528
20
-0.2262629
40
0.2789738
50
286.0770429
51
304.2629628
0
ARC
8
DEFAULT_255_1_388
10
15.8061686
20
-0.250832
40
0.2502188
50
304.5886247
51
317.1074126
0
LINE
8
DEFAULT_255_1_388
10
17.2327912
20
0.138169
11
17.2327912
21
-0.0786865
0
LINE
8
DEFAULT_255_1_388
10
16.4024155
20
-0.1012756
11
16.4024155
21
0.1219048
0
LINE
8
DEFAULT_255_1_388
10
17.0656318
20
-0.1238647
11
17.0656318
21
0.1499153
0
LINE
8
DEFAULT_255_1_388
10
16.5695749
20
0.1625652
11
16.5695749
21
-0.1048898
0
ARC
8
DEFAULT_255_1_388
10
15.8550246
20
-0.0841882
40
1.3777776
50
353.8440855
51
0.2287917
0
ARC
8
DEFAULT_255_1_388
10
16.3769263
20
-0.1424586
40
0.852639
50
344.4934746
51
353.9763743
0
ARC
8
DEFAULT_255_1_388
10
16.7136071
20
-0.2381809
40
0.5026273
50
329.2803599
51
344.7473406
0
ARC
8
DEFAULT_255_1_388
10
16.8251566
20
-0.2993962
40
0.3754848
50
324.9361395
51
328.6153007
0
ARC
8
DEFAULT_255_1_388
10
16.8677216
20
-0.3291414
40
0.3235566
50
280.5801797
51
324.9173226
0
ARC
8
DEFAULT_255_1_388
10
16.8225845
20
-0.1411764
40
0.5167077
50
269.5979457
51
281.6732777
0
ARC
8
DEFAULT_255_1_388
10
16.8144748
20
-0.1546887
40
0.5032026
50
256.6228565
51
270.5105488
0
ARC
8
DEFAULT_255_1_388
10
16.7692491
20
-0.3288655
40
0.3233092
50
215.8618351
51
257.2787793
0
ARC
8
DEFAULT_255_1_388
10
16.8841198
20
-0.2517894
40
0.4615831
50
197.9695203
51
215.2622745
0
ARC
8
DEFAULT_255_1_388
10
17.1636874
20
-0.1574359
40
0.7566307
50
187.8816486
51
198.2346584
0
ARC
8
DEFAULT_255_1_388
10
17.6090112
20
-0.0931547
40
1.2065653
50
180.8977266
51
188.0054894
0
ARC
8
DEFAULT_255_1_388
10
17.9140326
20
-0.08166
40
1.5117443
50
180.7434591
51
181.152202
0
ARC
8
DEFAULT_255_1_388
10
17.7465322
20
0.1273371
40
1.3441277
50
173.7674302
51
180.2315596
0
ARC
8
DEFAULT_255_1_388
10
17.2383191
20
0.1847779
40
0.8326847
50
164.3058537
51
173.9000553
0
ARC
8
DEFAULT_255_1_388
10
16.9107191
20
0.2791652
40
0.4917711
50
148.7922028
51
164.5682288
0
ARC
8
DEFAULT_255_1_388
10
16.8037928
20
0.3388457
40
0.3694204
50
144.5883979
51
148.1161588
0
ARC
8
DEFAULT_255_1_388
10
16.7650673
20
0.3658667
40
0.322202
50
101.6440149
51
144.5142619
0
ARC
8
DEFAULT_255_1_388
10
16.8128865
20
0.1758337
40
0.5180451
50
89.528284
51
102.5820197
0
ARC
8
DEFAULT_255_1_388
10
16.8217857
20
0.1714376
40
0.5224441
50
77.0437914
51
90.508231
0
ARC
8
DEFAULT_255_1_388
10
16.8670111
20
0.3562272
40
0.3322297
50
48.2777708
51
77.4996087
0
ARC
8
DEFAULT_255_1_388
10
16.8751851
20
0.3707557
40
0.315966
50
36.3141586
51
47.6307332
0
ARC
8
DEFAULT_255_1_388
10
16.7774573
20
0.3049159
40
0.4337313
50
18.2931065
51
35.6770203
0
ARC
8
DEFAULT_255_1_388
10
16.4913414
20
0.2067107
40
0.7362203
50
8.0246996
51
18.5605636
0
ARC
8
DEFAULT_255_1_388
10
16.022977
20
0.1375432
40
1.2096583
50
1.127539
51
8.1718423
0
ARC
8
DEFAULT_255_1_388
10
15.6580903
20
0.1232374
40
1.5747719
50
0.5432713
51
1.38669
0
ARC
8
DEFAULT_255_1_388
10
15.8638282
20
0.1539163
40
1.2018103
50
359.8092569
51
4.9408001
0
ARC
8
DEFAULT_255_1_388
10
16.3374863
20
0.19619
40
0.7262727
50
4.8364937
51
12.2906017
0
ARC
8
DEFAULT_255_1_388
10
16.6474328
20
0.2652485
40
0.4087324
50
12.0806994
51
23.8171225
0
ARC
8
DEFAULT_255_1_388
10
16.7794724
20
0.3211508
40
0.2653719
50
24.2874621
51
31.3934353
0
ARC
8
DEFAULT_255_1_388
10
16.838516
20
0.3597822
40
0.1948607
50
30.7407708
51
82.4658033
0
ARC
8
DEFAULT_255_1_388
10
16.818282
20
0.2604017
40
0.2961198
50
81.1057101
51
90.2187368
0
ARC
8
DEFAULT_255_1_388
10
16.8142632
20
0.2894421
40
0.2670929
50
89.380395
51
105.6763916
0
ARC
8
DEFAULT_255_1_388
10
16.7936354
20
0.364432
40
0.1893189
50
105.7980655
51
149.7387869
0
ARC
8
DEFAULT_255_1_388
10
16.9133494
20
0.2924719
40
0.3289892
50
149.4208441
51
163.628295
0
ARC
8
DEFAULT_255_1_388
10
17.1485724
20
0.2207345
40
0.5749004
50
163.3764549
51
172.141138
0
ARC
8
DEFAULT_255_1_388
10
17.5198445
20
0.1675582
40
0.9499585
50
172.0258462
51
178.0705453
0
ARC
8
DEFAULT_255_1_388
10
17.8619998
20
0.1513682
40
1.2924734
50
177.8639301
51
179.5036263
0
ARC
8
DEFAULT_255_1_388
10
17.7401017
20
-0.1089849
40
1.170534
50
179.7995545
51
185.246089
0
ARC
8
DEFAULT_255_1_388
10
17.285261
20
-0.1520596
40
0.7136613
50
185.1411911
51
193.0082205
0
ARC
8
DEFAULT_255_1_388
10
16.9878871
20
-0.2223559
40
0.4080987
50
192.7897338
51
205.2507384
0
ARC
8
DEFAULT_255_1_388
10
16.8701081
20
-0.2749462
40
0.2791522
50
205.8001921
51
211.2545876
0
ARC
8
DEFAULT_255_1_388
10
16.811262
20
-0.3143868
40
0.2084074
50
210.3789935
51
238.4007996
0
ARC
8
DEFAULT_255_1_388
10
16.8090706
20
-0.3091214
40
0.2117943
50
239.6521916
51
265.9793852
0
ARC
8
DEFAULT_255_1_388
10
16.8186555
20
-0.2334642
40
0.2879689
50
265.1324455
51
270.0603288
0
ARC
8
DEFAULT_255_1_388
10
16.8218932
20
-0.2699582
40
0.2514919
50
269.3314378
51
287.2180039
0
ARC
8
DEFAULT_255_1_388
10
16.8374014
20
-0.3265709
40
0.1928357
50
287.7957942
51
329.0808983
0
ARC
8
DEFAULT_255_1_388
10
16.7296771
20
-0.2593349
40
0.319808
50
328.6635261
51
343.3325043
0
ARC
8
DEFAULT_255_1_388
10
16.485223
20
-0.1831805
40
0.5758408
50
343.0498092
51
351.9392499
0
ARC
8
DEFAULT_255_1_388
10
16.0951551
20
-0.1256795
40
0.9701202
50
351.8071632
51
357.7957897
0
ARC
8
DEFAULT_255_1_388
10
15.7317028
20
-0.1068276
40
1.3340376
50
357.5870923
51
359.2682493
0
LINE
8
DEFAULT_255_1_388
10
18.2718903
20
0.138169
11
18.2718903
21
-0.0786865
0
LINE
8
DEFAULT_255_1_388
10
17.4415146
20
-0.1012756
11
17.4415146
21
0.1219048
0
LINE
8
DEFAULT_255_1_388
10
18.1047309
20
-0.1238647
11
18.1047309
21
0.1499153
0
LINE
8
DEFAULT_255_1_388
10
17.608674
20
0.1625652
11
17.608674
21
-0.1048898
0
ARC
8
DEFAULT_255_1_388
10
16.8941237
20
-0.0841882
40
1.3777776
50
353.8440855
51
0.2287917
0
ARC
8
DEFAULT_255_1_388
10
17.4160255
20
-0.1424586
40
0.852639
50
344.4934746
51
353.9763743
0
ARC
8
DEFAULT_255_1_388
10
17.7527062
20
-0.2381809
40
0.5026273
50
329.2803599
51
344.7473406
0
ARC
8
DEFAULT_255_1_388
10
17.8642558
20
-0.2993962
40
0.3754848
50
324.9361395
51
328.6153007
0
ARC
8
DEFAULT_255_1_388
10
17.9068207
20
-0.3291414
40
0.3235566
50
280.5801797
51
324.9173226
0
ARC
8
DEFAULT_255_1_388
10
17.8616836
20
-0.1411764
40
0.5167077
50
269.5979457
51
281.6732777
0
ARC
8
DEFAULT_255_1_388
10
17.853574
20
-0.1546887
40
0.5032026
50
256.6228565
51
270.5105488
0
ARC
8
DEFAULT_255_1_388
10
17.8083482
20
-0.3288655
40
0.3233092
50
215.8618351
51
257.2787793
0
ARC
8
DEFAULT_255_1_388
10
17.9232189
20
-0.2517894
40
0.4615831
50
197.9695203
51
215.2622745
0
ARC
8
DEFAULT_255_1_388
10
18.2027865
20
-0.1574359
40
0.7566307
50
187.8816486
51
198.2346584
0
ARC
8
DEFAULT_255_1_388
10
18.6481103
20
-0.0931547
40
1.2065653
50
180.8977266
51
188.0054894
0
ARC
8
DEFAULT_255_1_388
10
18.9531317
20
-0.08166
40
1.5117443
50
180.7434591
51
181.152202
0
ARC
8
DEFAULT_255_1_388
10
18.7856313
20
0.1273371
40
1.3441277
50
173.7674302
51
180.2315596
0
ARC
8
DEFAULT_255_1_388
10
18.2774182
20
0.1847779
40
0.8326847
50
164.3058537
51
173.9000553
0
ARC
8
DEFAULT_255_1_388
10
17.9498182
20
0.2791652
40
0.4917711
50
148.7922028
51
164.5682288
0
ARC
8
DEFAULT_255_1_388
10
17.8428919
20
0.3388457
40
0.3694204
50
144.5883979
51
148.1161588
0
ARC
8
DEFAULT_255_1_388
10
17.8041664
20
0.3658667
40
0.322202
50
101.6440149
51
144.5142619
0
ARC
8
DEFAULT_255_1_388
10
17.8519857
20
0.1758337
40
0.5180451
50
89.528284
51
102.5820197
0
ARC
8
DEFAULT_255_1_388
10
17.8608849
20
0.1714376
40
0.5224441
50
77.0437914
51
90.508231
0
ARC
8
DEFAULT_255_1_388
10
17.9061102
20
0.3562272
40
0.3322297
50
48.2777708
51
77.4996087
0
ARC
8
DEFAULT_255_1_388
10
17.9142842
20
0.3707557
40
0.315966
50
36.3141586
51
47.6307332
0
ARC
8
DEFAULT_255_1_388
10
17.8165564
20
0.3049159
40
0.4337313
50
18.2931065
51
35.6770203
0
ARC
8
DEFAULT_255_1_388
10
17.5304405
20
0.2067107
40
0.7362203
50
8.0246996
51
18.5605636
0
ARC
8
DEFAULT_255_1_388
10
17.0620761
20
0.1375432
40
1.2096583
50
1.127539
51
8.1718423
0
ARC
8
DEFAULT_255_1_388
10
16.6971894
20
0.1232374
40
1.5747719
50
0.5432713
51
1.38669
0
ARC
8
DEFAULT_255_1_388
10
16.9029273
20
0.1539163
40
1.2018103
50
359.8092569
51
4.9408001
0
ARC
8
DEFAULT_255_1_388
10
17.3765854
20
0.19619
40
0.7262727
50
4.8364937
51
12.2906017
0
ARC
8
DEFAULT_255_1_388
10
17.6865319
20
0.2652485
40
0.4087324
50
12.0806994
51
23.8171225
0
ARC
8
DEFAULT_255_1_388
10
17.8185715
20
0.3211508
40
0.2653719
50
24.2874621
51
31.3934353
0
ARC
8
DEFAULT_255_1_388
10
17.8776151
20
0.3597822
40
0.1948607
50
30.7407708
51
82.4658033
0
ARC
8
DEFAULT_255_1_388
10
17.8573812
20
0.2604017
40
0.2961198
50
81.1057101
51
90.2187368
0
ARC
8
DEFAULT_255_1_388
10
17.8533624
20
0.2894421
40
0.2670929
50
89.380395
51
105.6763916
0
ARC
8
DEFAULT_255_1_388
10
17.8327346
20
0.364432
40
0.1893189
50
105.7980655
51
149.7387869
0
ARC
8
DEFAULT_255_1_388
10
17.9524486
20
0.2924719
40
0.3289892
50
149.4208441
51
163.628295
0
ARC
8
DEFAULT_255_1_388
10
18.1876715
20
0.2207345
40
0.5749004
50
163.3764549
51
172.141138
0
ARC
8
DEFAULT_255_1_388
10
18.5589437
20
0.1675582
40
0.9499585
50
172.0258462
51
178.0705453
0
ARC
8
DEFAULT_255_1_388
10
18.9010989
20
0.1513682
40
1.2924734
50
177.8639301
51
179.5036263
0
ARC
8
DEFAULT_255_1_388
10
18.7792008
20
-0.1089849
40
1.170534
50
179.7995545
51
185.246089
0
ARC
8
DEFAULT_255_1_388
10
18.3243601
20
-0.1520596
40
0.7136613
50
185.1411911
51
193.0082205
0
ARC
8
DEFAULT_255_1_388
10
18.0269862
20
-0.2223559
40
0.4080987
50
192.7897338
51
205.2507384
0
ARC
8
DEFAULT_255_1_388
10
17.9092072
20
-0.2749462
40
0.2791522
50
205.8001921
51
211.2545876
0
ARC
8
DEFAULT_255_1_388
10
17.8503611
20
-0.3143868
40
0.2084074
50
210.3789935
51
238.4007996
0
ARC
8
DEFAULT_255_1_388
10
17.8481697
20
-0.3091214
40
0.2117943
50
239.6521916
51
265.9793852
0
ARC
8
DEFAULT_255_1_388
10
17.8577546
20
-0.2334642
40
0.2879689
50
265.1324455
51
270.0603288
0
ARC
8
DEFAULT_255_1_388
10
17.8609923
20
-0.2699582
40
0.2514919
50
269.3314378
51
287.2180039
0
ARC
8
DEFAULT_255_1_388
10
17.8765005
20
-0.3265709
40
0.1928357
50
287.7957942
51
329.0808983
0
ARC
8
DEFAULT_255_1_388
10
17.7687762
20
-0.2593349
40
0.319808
50
328.6635261
51
343.3325043
0
ARC
8
DEFAULT_255_1_388
10
17.5243221
20
-0.1831805
40
0.5758408
50
343.0498092
51
351.9392499
0
ARC
8
DEFAULT_255_1_388
10
17.1342543
20
-0.1256795
40
0.9701202
50
351.8071632
51
357.7957897
0
ARC
8
DEFAULT_255_1_388
10
16.770802
20
-0.1068276
40
1.3340376
50
357.5870923
51
359.2682493
0
LINE
8
DEFAULT_255_1_388
10
18.8510751
20
-0.0127263
11
18.8510751
21
-0.1491645
0
LINE
8
DEFAULT_255_1_388
10
18.8510751
20
-0.1491645
11
18.4101357
21
-0.1491645
0
LINE
8
DEFAULT_255_1_388
10
18.4101357
20
-0.1491645
11
18.4101357
21
-0.0127263
0
LINE
8
DEFAULT_255_1_388
10
18.4101357
20
-0.0127263
11
18.8510751
21
-0.0127263
0
LINE
8
DEFAULT_255_1_388
10
19.8215034
20
0.138169
11
19.8215034
21
-0.0786865
0
LINE
8
DEFAULT_255_1_388
10
18.9911276
20
-0.1012756
11
18.9911276
21
0.1219048
0
LINE
8
DEFAULT_255_1_388
10
19.6543439
20
-0.1238647
11
19.6543439
21
0.1499153
0
LINE
8
DEFAULT_255_1_388
10
19.1582871
20
0.1625652
11
19.1582871
21
-0.1048898
0
ARC
8
DEFAULT_255_1_388
10
18.4437368
20
-0.0841882
40
1.3777776
50
353.8440855
51
0.2287917
0
ARC
8
DEFAULT_255_1_388
10
18.9656385
20
-0.1424586
40
0.852639
50
344.4934746
51
353.9763743
0
ARC
8
DEFAULT_255_1_388
10
19.3023192
20
-0.2381809
40
0.5026273
50
329.2803599
51
344.7473406
0
ARC
8
DEFAULT_255_1_388
10
19.4138688
20
-0.2993962
40
0.3754848
50
324.9361395
51
328.6153007
0
ARC
8
DEFAULT_255_1_388
10
19.4564338
20
-0.3291414
40
0.3235566
50
280.5801797
51
324.9173226
0
ARC
8
DEFAULT_255_1_388
10
19.4112966
20
-0.1411764
40
0.5167077
50
269.5979457
51
281.6732777
0
ARC
8
DEFAULT_255_1_388
10
19.403187
20
-0.1546887
40
0.5032026
50
256.6228565
51
270.5105488
0
ARC
8
DEFAULT_255_1_388
10
19.3579613
20
-0.3288655
40
0.3233092
50
215.8618351
51
257.2787793
0
ARC
8
DEFAULT_255_1_388
10
19.472832
20
-0.2517894
40
0.4615831
50
197.9695203
51
215.2622745
0
ARC
8
DEFAULT_255_1_388
10
19.7523995
20
-0.1574359
40
0.7566307
50
187.8816486
51
198.2346584
0
ARC
8
DEFAULT_255_1_388
10
20.1977234
20
-0.0931547
40
1.2065653
50
180.8977266
51
188.0054894
0
ARC
8
DEFAULT_255_1_388
10
20.5027447
20
-0.08166
40
1.5117443
50
180.7434591
51
181.152202
0
ARC
8
DEFAULT_255_1_388
10
20.3352443
20
0.1273371
40
1.3441277
50
173.7674302
51
180.2315596
0
ARC
8
DEFAULT_255_1_388
10
19.8270312
20
0.1847779
40
0.8326847
50
164.3058537
51
173.9000553
0
ARC
8
DEFAULT_255_1_388
10
19.4994312
20
0.2791652
40
0.4917711
50
148.7922028
51
164.5682288
0
ARC
8
DEFAULT_255_1_388
10
19.392505
20
0.3388457
40
0.3694204
50
144.5883979
51
148.1161588
0
ARC
8
DEFAULT_255_1_388
10
19.3537795
20
0.3658667
40
0.322202
50
101.6440149
51
144.5142619
0
ARC
8
DEFAULT_255_1_388
10
19.4015987
20
0.1758337
40
0.5180451
50
89.528284
51
102.5820197
0
ARC
8
DEFAULT_255_1_388
10
19.4104979
20
0.1714376
40
0.5224441
50
77.0437914
51
90.508231
0
ARC
8
DEFAULT_255_1_388
10
19.4557233
20
0.3562272
40
0.3322297
50
48.2777708
51
77.4996087
0
ARC
8
DEFAULT_255_1_388
10
19.4638973
20
0.3707557
40
0.315966
50
36.3141586
51
47.6307332
0
ARC
8
DEFAULT_255_1_388
10
19.3661695
20
0.3049159
40
0.4337313
50
18.2931065
51
35.6770203
0
ARC
8
DEFAULT_255_1_388
10
19.0800536
20
0.2067107
40
0.7362203
50
8.0246996
51
18.5605636
0
ARC
8
DEFAULT_255_1_388
10
18.6116891
20
0.1375432
40
1.2096583
50
1.127539
51
8.1718423
0
ARC
8
DEFAULT_255_1_388
10
18.2468025
20
0.1232374
40
1.5747719
50
0.5432713
51
1.38669
0
ARC
8
DEFAULT_255_1_388
10
18.4525403
20
0.1539163
40
1.2018103
50
359.8092569
51
4.9408001
0
ARC
8
DEFAULT_255_1_388
10
18.9261985
20
0.19619
40
0.7262727
50
4.8364937
51
12.2906017
0
ARC
8
DEFAULT_255_1_388
10
19.2361449
20
0.2652485
40
0.4087324
50
12.0806994
51
23.8171225
0
ARC
8
DEFAULT_255_1_388
10
19.3681845
20
0.3211508
40
0.2653719
50
24.2874621
51
31.3934353
0
ARC
8
DEFAULT_255_1_388
10
19.4272281
20
0.3597822
40
0.1948607
50
30.7407708
51
82.4658033
0
ARC
8
DEFAULT_255_1_388
10
19.4069942
20
0.2604017
40
0.2961198
50
81.1057101
51
90.2187368
0
ARC
8
DEFAULT_255_1_388
10
19.4029754
20
0.2894421
40
0.2670929
50
89.380395
51
105.6763916
0
ARC
8
DEFAULT_255_1_388
10
19.3823476
20
0.364432
40
0.1893189
50
105.7980655
51
149.7387869
0
ARC
8
DEFAULT_255_1_388
10
19.5020616
20
0.2924719
40
0.3289892
50
149.4208441
51
163.628295
0
ARC
8
DEFAULT_255_1_388
10
19.7372846
20
0.2207345
40
0.5749004
50
163.3764549
51
172.141138
0
ARC
8
DEFAULT_255_1_388
10
20.1085567
20
0.1675582
40
0.9499585
50
172.0258462
51
178.0705453
0
ARC
8
DEFAULT_255_1_388
10
20.450712
20
0.1513682
40
1.2924734
50
177.8639301
51
179.5036263
0
ARC
8
DEFAULT_255_1_388
10
20.3288139
20
-0.1089849
40
1.170534
50
179.7995545
51
185.246089
0
ARC
8
DEFAULT_255_1_388
10
19.8739732
20
-0.1520596
40
0.7136613
50
185.1411911
51
193.0082205
0
ARC
8
DEFAULT_255_1_388
10
19.5765992
20
-0.2223559
40
0.4080987
50
192.7897338
51
205.2507384
0
ARC
8
DEFAULT_255_1_388
10
19.4588202
20
-0.2749462
40
0.2791522
50
205.8001921
51
211.2545876
0
ARC
8
DEFAULT_255_1_388
10
19.3999741
20
-0.3143868
40
0.2084074
50
210.3789935
51
238.4007996
0
ARC
8
DEFAULT_255_1_388
10
19.3977827
20
-0.3091214
40
0.2117943
50
239.6521916
51
265.9793852
0
ARC
8
DEFAULT_255_1_388
10
19.4073676
20
-0.2334642
40
0.2879689
50
265.1324455
51
270.0603288
0
ARC
8
DEFAULT_255_1_388
10
19.4106053
20
-0.2699582
40
0.2514919
50
269.3314378
51
287.2180039
0
ARC
8
DEFAULT_255_1_388
10
19.4261136
20
-0.3265709
40
0.1928357
50
287.7957942
51
329.0808983
0
ARC
8
DEFAULT_255_1_388
10
19.3183893
20
-0.2593349
40
0.319808
50
328.6635261
51
343.3325043
0
ARC
8
DEFAULT_255_1_388
10
19.0739351
20
-0.1831805
40
0.5758408
50
343.0498092
51
351.9392499
0
ARC
8
DEFAULT_255_1_388
10
18.6838673
20
-0.1256795
40
0.9701202
50
351.8071632
51
357.7957897
0
ARC
8
DEFAULT_255_1_388
10
18.320415
20
-0.1068276
40
1.3340376
50
357.5870923
51
359.2682493
0
LINE
8
DEFAULT_255_1_388
10
20.9310805
20
-0.6398
11
20.8054851
21
-0.2964455
0
LINE
8
DEFAULT_255_1_388
10
20.8054851
20
-0.2964455
11
20.2543107
21
-0.2964455
0
LINE
8
DEFAULT_255_1_388
10
20.2543107
20
-0.2964455
11
20.1305224
21
-0.6398
0
LINE
8
DEFAULT_255_1_388
10
20.1305224
20
-0.6398
11
19.9516167
21
-0.6398
0
LINE
8
DEFAULT_255_1_388
10
19.9516167
20
-0.6398
11
20.4539985
21
0.6757898
0
LINE
8
DEFAULT_255_1_388
10
20.4539985
20
0.6757898
11
20.6057973
21
0.6757898
0
LINE
8
DEFAULT_255_1_388
10
20.6057973
20
0.6757898
11
21.1090827
21
-0.6398
0
LINE
8
DEFAULT_255_1_388
10
21.1090827
20
-0.6398
11
20.9310805
21
-0.6398
0
LINE
8
DEFAULT_255_1_388
10
20.5298979
20
0.4616451
11
20.3067175
21
-0.1536823
0
LINE
8
DEFAULT_255_1_388
10
20.3067175
20
-0.1536823
11
20.7539819
21
-0.1536823
0
LINE
8
DEFAULT_255_1_388
10
20.7539819
20
-0.1536823
11
20.5298979
21
0.4616451
0
LINE
8
DEFAULT_255_1_388
10
21.7424814
20
-0.6398
11
21.2861813
21
-0.6398
0
LINE
8
DEFAULT_255_1_388
10
21.2861813
20
-0.6398
11
21.2861813
21
0.6757898
0
LINE
8
DEFAULT_255_1_388
10
21.2861813
20
0.6757898
11
21.716278
21
0.6757898
0
LINE
8
DEFAULT_255_1_388
10
21.7488063
20
-0.0244726
11
21.4596657
21
-0.0244726
0
LINE
8
DEFAULT_255_1_388
10
21.4596657
20
-0.0244726
11
21.4596657
21
-0.4979404
0
LINE
8
DEFAULT_255_1_388
10
21.4596657
20
-0.4979404
11
21.7460957
21
-0.4979404
0
LINE
8
DEFAULT_255_1_388
10
21.4596657
20
0.5330267
11
21.4596657
21
0.1146763
0
LINE
8
DEFAULT_255_1_388
10
21.4596657
20
0.1146763
11
21.7216994
21
0.1146763
0
LINE
8
DEFAULT_255_1_388
10
21.716278
20
0.5330267
11
21.4596657
21
0.5330267
0
ARC
8
DEFAULT_255_1_388
10
21.7205201
20
-0.1530176
40
0.8288183
50
82.1256322
51
90.2932506
0
ARC
8
DEFAULT_255_1_388
10
21.7642775
20
0.152759
40
0.5199321
50
69.9044202
51
82.2857574
0
ARC
8
DEFAULT_255_1_388
10
21.8284768
20
0.3262993
40
0.3348993
50
51.1840204
51
70.018125
0
ARC
8
DEFAULT_255_1_388
10
21.85716
20
0.3679945
40
0.2844579
50
12.1018086
51
50.421322
0
ARC
8
DEFAULT_255_1_388
10
21.7014472
20
0.3288937
40
0.4449429
50
359.5252354
51
12.8212369
0
ARC
8
DEFAULT_255_1_388
10
21.8791902
20
0.3210943
40
0.2672162
50
323.4907456
51
0.8818258
0
ARC
8
DEFAULT_255_1_388
10
21.8321314
20
0.3574523
40
0.3266736
50
298.6824053
51
323.2758285
0
ARC
8
DEFAULT_255_1_388
10
21.7914606
20
0.4250509
40
0.4055105
50
293.1994739
51
299.139634
0
ARC
8
DEFAULT_255_1_388
10
21.8671555
20
-0.2595349
40
0.3229926
50
54.0009997
51
74.9168635
0
ARC
8
DEFAULT_255_1_388
10
21.8802482
20
-0.2373489
40
0.2973581
50
36.3578854
51
53.5293172
0
ARC
8
DEFAULT_255_1_388
10
21.865985
20
-0.247515
40
0.3148715
50
4.8189348
51
36.3090187
0
ARC
8
DEFAULT_255_1_388
10
21.7782875
20
-0.2598617
40
0.4033265
50
359.9373213
51
5.5201284
0
ARC
8
DEFAULT_255_1_388
10
21.7418205
20
-0.2644267
40
0.4398126
50
344.7479357
51
0.5372278
0
ARC
8
DEFAULT_255_1_388
10
21.8533103
20
-0.2944795
40
0.3243441
50
311.1785587
51
344.6887681
0
ARC
8
DEFAULT_255_1_388
10
21.8204647
20
-0.2535916
40
0.3767511
50
286.0417804
51
310.8440924
0
ARC
8
DEFAULT_255_1_388
10
21.7634056
20
-0.0683115
40
0.5705957
50
274.1044074
51
286.4070149
0
ARC
8
DEFAULT_255_1_388
10
21.7435271
20
0.1434901
40
0.7832907
50
269.9235077
51
274.4458593
0
ARC
8
DEFAULT_255_1_388
10
21.748699
20
-0.1196538
40
0.3782955
50
269.6057074
51
281.3740795
0
ARC
8
DEFAULT_255_1_388
10
21.7746488
20
-0.2426431
40
0.2526069
50
281.105298
51
302.5134029
0
ARC
8
DEFAULT_255_1_388
10
21.7911875
20
-0.2723056
40
0.2187131
50
303.0365425
51
311.8818034
0
ARC
8
DEFAULT_255_1_388
10
21.7992053
20
-0.2818398
40
0.2062624
50
311.9916937
51
351.7143773
0
ARC
8
DEFAULT_255_1_388
10
21.7073077
20
-0.2632729
40
0.2999202
50
350.7343295
51
0.2221526
0
ARC
8
DEFAULT_255_1_388
10
21.6952165
20
-0.256913
40
0.3120525
50
359.045729
51
17.2295312
0
ARC
8
DEFAULT_255_1_388
10
21.8121196
20
-0.2221845
40
0.1901144
50
17.6685208
51
78.9940245
0
ARC
8
DEFAULT_255_1_388
10
21.7539557
20
-0.4309989
40
0.4065575
50
76.565218
51
90.7103392
0
LINE
8
DEFAULT_255_1_388
10
21.7489154
20
-0.0244726
11
21.7488063
21
-0.0244726
0
ARC
8
DEFAULT_255_1_388
10
21.7242383
20
0.4842949
40
0.3696273
50
269.6064514
51
281.4533785
0
ARC
8
DEFAULT_255_1_388
10
21.7493023
20
0.3660283
40
0.2487412
50
281.2044438
51
302.5143998
0
ARC
8
DEFAULT_255_1_388
10
21.7647277
20
0.3382576
40
0.2170405
50
303.0211308
51
309.8378766
0
ARC
8
DEFAULT_255_1_388
10
21.7853395
20
0.3151486
40
0.1860946
50
309.5229446
51
356.9509628
0
ARC
8
DEFAULT_255_1_388
10
21.7107521
20
0.3258831
40
0.2612347
50
355.4699226
51
0.0498632
0
ARC
8
DEFAULT_255_1_388
10
21.6793194
20
0.3283789
40
0.2926762
50
359.5558955
51
11.2092924
0
ARC
8
DEFAULT_255_1_388
10
21.7870162
20
0.3506667
40
0.1827036
50
10.9185717
51
31.322519
0
ARC
8
DEFAULT_255_1_388
10
21.819171
20
0.3685571
40
0.1459418
50
31.8850633
51
52.1415586
0
ARC
8
DEFAULT_255_1_388
10
21.7883139
20
0.3249674
40
0.1993088
50
52.8283418
51
71.9850132
0
ARC
8
DEFAULT_255_1_388
10
21.7460299
20
0.2005158
40
0.3307407
50
71.686634
51
82.8453416
0
ARC
8
DEFAULT_255_1_388
10
21.7190947
20
-0.0030108
40
0.536039
50
82.6981895
51
90.1730083
0
ARC
8
DEFAULT_255_1_388
10
21.7165778
20
0.0848836
40
0.4481429
50
89.8851568
51
90.0383283
0
LINE
8
DEFAULT_255_1_388
10
23.2198093
20
0.138169
11
23.2198093
21
-0.0786865
0
LINE
8
DEFAULT_255_1_388
10
22.3894335
20
-0.1012756
11
22.3894335
21
0.1219048
0
LINE
8
DEFAULT_255_1_388
10
23.0526499
20
-0.1238647
11
23.0526499
21
0.1499153
0
LINE
8
DEFAULT_255_1_388
10
22.556593
20
0.1625652
11
22.556593
21
-0.1048898
0
ARC
8
DEFAULT_255_1_388
10
21.8420427
20
-0.0841882
40
1.3777776
50
353.8440855
51
0.2287917
0
ARC
8
DEFAULT_255_1_388
10
22.3639444
20
-0.1424586
40
0.852639
50
344.4934746
51
353.9763743
0
ARC
8
DEFAULT_255_1_388
10
22.7006251
20
-0.2381809
40
0.5026273
50
329.2803599
51
344.7473406
0
ARC
8
DEFAULT_255_1_388
10
22.8121747
20
-0.2993962
40
0.3754848
50
324.9361395
51
328.6153007
0
ARC
8
DEFAULT_255_1_388
10
22.8547397
20
-0.3291414
40
0.3235566
50
280.5801797
51
324.9173226
0
ARC
8
DEFAULT_255_1_388
10
22.8096026
20
-0.1411764
40
0.5167077
50
269.5979457
51
281.6732777
0
ARC
8
DEFAULT_255_1_388
10
22.8014929
20
-0.1546887
40
0.5032026
50
256.6228565
51
270.5105488
0
ARC
8
DEFAULT_255_1_388
10
22.7562672
20
-0.3288655
40
0.3233092
50
215.8618351
51
257.2787793
0
ARC
8
DEFAULT_255_1_388
10
22.8711379
20
-0.2517894
40
0.4615831
50
197.9695203
51
215.2622745
0
ARC
8
DEFAULT_255_1_388
10
23.1507054
20
-0.1574359
40
0.7566307
50
187.8816486
51
198.2346584
0
ARC
8
DEFAULT_255_1_388
10
23.5960293
20
-0.0931547
40
1.2065653
50
180.8977266
51
188.0054894
0
ARC
8
DEFAULT_255_1_388
10
23.9010506
20
-0.08166
40
1.5117443
50
180.7434591
51
181.152202
0
ARC
8
DEFAULT_255_1_388
10
23.7335502
20
0.1273371
40
1.3441277
50
173.7674302
51
180.2315596
0
ARC
8
DEFAULT_255_1_388
10
23.2253371
20
0.1847779
40
0.8326847
50
164.3058537
51
173.9000553
0
ARC
8
DEFAULT_255_1_388
10
22.8977371
20
0.2791652
40
0.4917711
50
148.7922028
51
164.5682288
0
ARC
8
DEFAULT_255_1_388
10
22.7908109
20
0.3388457
40
0.3694204
50
144.5883979
51
148.1161588
0
ARC
8
DEFAULT_255_1_388
10
22.7520854
20
0.3658667
40
0.322202
50
101.6440149
51
144.5142619
0
ARC
8
DEFAULT_255_1_388
10
22.7999046
20
0.1758337
40
0.5180451
50
89.528284
51
102.5820197
0
ARC
8
DEFAULT_255_1_388
10
22.8088038
20
0.1714376
40
0.5224441
50
77.0437914
51
90.508231
0
ARC
8
DEFAULT_255_1_388
10
22.8540292
20
0.3562272
40
0.3322297
50
48.2777708
51
77.4996087
0
ARC
8
DEFAULT_255_1_388
10
22.8622032
20
0.3707557
40
0.315966
50
36.3141586
51
47.6307332
0
ARC
8
DEFAULT_255_1_388
10
22.7644754
20
0.3049159
40
0.4337313
50
18.2931065
51
35.6770203
0
ARC
8
DEFAULT_255_1_388
10
22.4783595
20
0.2067107
40
0.7362203
50
8.0246996
51
18.5605636
0
ARC
8
DEFAULT_255_1_388
10
22.009995
20
0.1375432
40
1.2096583
50
1.127539
51
8.1718423
0
ARC
8
DEFAULT_255_1_388
10
21.6451084
20
0.1232374
40
1.5747719
50
0.5432713
51
1.38669
0
ARC
8
DEFAULT_255_1_388
10
21.8508462
20
0.1539163
40
1.2018103
50
359.8092569
51
4.9408001
0
ARC
8
DEFAULT_255_1_388
10
22.3245044
20
0.19619
40
0.7262727
50
4.8364937
51
12.2906017
0
ARC
8
DEFAULT_255_1_388
10
22.6344508
20
0.2652485
40
0.4087324
50
12.0806994
51
23.8171225
0
ARC
8
DEFAULT_255_1_388
10
22.7664904
20
0.3211508
40
0.2653719
50
24.2874621
51
31.3934353
0
ARC
8
DEFAULT_255_1_388
10
22.825534
20
0.3597822
40
0.1948607
50
30.7407708
51
82.4658033
0
ARC
8
DEFAULT_255_1_388
10
22.8053001
20
0.2604017
40
0.2961198
50
81.1057101
51
90.2187368
0
ARC
8
DEFAULT_255_1_388
10
22.8012813
20
0.2894421
40
0.2670929
50
89.380395
51
105.6763916
0
ARC
8
DEFAULT_255_1_388
10
22.7806535
20
0.364432
40
0.1893189
50
105.7980655
51
149.7387869
0
ARC
8
DEFAULT_255_1_388
10
22.9003675
20
0.2924719
40
0.3289892
50
149.4208441
51
163.628295
0
ARC
8
DEFAULT_255_1_388
10
23.1355905
20
0.2207345
40
0.5749004
50
163.3764549
51
172.141138
0
ARC
8
DEFAULT_255_1_388
10
23.5068626
20
0.1675582
40
0.9499585
50
172.0258462
51
178.0705453
0
ARC
8
DEFAULT_255_1_388
10
23.8490179
20
0.1513682
40
1.2924734
50
177.8639301
51
179.5036263
0
ARC
8
DEFAULT_255_1_388
10
23.7271198
20
-0.1089849
40
1.170534
50
179.7995545
51
185.246089
0
ARC
8
DEFAULT_255_1_388
10
23.2722791
20
-0.1520596
40
0.7136613
50
185.1411911
51
193.0082205
0
ARC
8
DEFAULT_255_1_388
10
22.9749051
20
-0.2223559
40
0.4080987
50
192.7897338
51
205.2507384
0
ARC
8
DEFAULT_255_1_388
10
22.8571261
20
-0.2749462
40
0.2791522
50
205.8001921
51
211.2545876
0
ARC
8
DEFAULT_255_1_388
10
22.7982801
20
-0.3143868
40
0.2084074
50
210.3789935
51
238.4007996
0
ARC
8
DEFAULT_255_1_388
10
22.7960887
20
-0.3091214
40
0.2117943
50
239.6521916
51
265.9793852
0
ARC
8
DEFAULT_255_1_388
10
22.8056735
20
-0.2334642
40
0.2879689
50
265.1324455
51
270.0603288
0
ARC
8
DEFAULT_255_1_388
10
22.8089113
20
-0.2699582
40
0.2514919
50
269.3314378
51
287.2180039
0
ARC
8
DEFAULT_255_1_388
10
22.8244195
20
-0.3265709
40
0.1928357
50
287.7957942
51
329.0808983
0
ARC
8
DEFAULT_255_1_388
10
22.7166952
20
-0.2593349
40
0.319808
50
328.6635261
51
343.3325043
0
ARC
8
DEFAULT_255_1_388
10
22.472241
20
-0.1831805
40
0.5758408
50
343.0498092
51
351.9392499
0
ARC
8
DEFAULT_255_1_388
10
22.0821732
20
-0.1256795
40
0.9701202
50
351.8071632
51
357.7957897
0
ARC
8
DEFAULT_255_1_388
10
21.7187209
20
-0.1068276
40
1.3340376
50
357.5870923
51
359.2682493
0
ARC
8
DEFAULT_255_2_778
10
7.7537338
20
76.1512992
40
3.0484709
50
251.6854144
51
258.6071955
0
ARC
8
DEFAULT_255_2_778
10
7.539521
20
75.0696738
40
1.9458471
50
258.4992492
51
268.3986479
0
ARC
8
DEFAULT_255_2_778
10
7.5172314
20
74.6394206
40
1.5151737
50
268.7865272
51
269.9950384
0
ARC
8
DEFAULT_255_2_778
10
7.5277432
20
74.1882355
40
1.0640417
50
269.426895
51
279.6711067
0
ARC
8
DEFAULT_255_2_778
10
7.6417753
20
73.5586746
40
0.4243233
50
278.7731084
51
300.3324923
0
ARC
8
DEFAULT_255_2_778
10
7.760746
20
73.3560552
40
0.1893587
50
300.2240287
51
1.9041213
0
ARC
8
DEFAULT_255_2_778
10
7.7452705
20
73.3652089
40
0.2047497
50
359.1991369
51
359.99965
0
ARC
8
DEFAULT_255_2_778
10
7.7523233
20
73.3660378
40
0.1976988
50
359.7594145
51
47.1793976
0
ARC
8
DEFAULT_255_2_778
10
7.6187277
20
73.217431
40
0.3975169
50
47.6144502
51
60.8366176
0
ARC
8
DEFAULT_255_2_778
10
7.0190958
20
72.2014865
40
1.5771337
50
59.799464
51
64.8885807
0
ARC
8
DEFAULT_255_2_778
10
6.0948833
20
70.2724682
40
3.7160912
50
64.6076081
51
66.8386974
0
ARC
8
DEFAULT_255_2_778
10
9.6419609
20
78.6355052
40
5.368109
50
244.3032309
51
247.1393781
0
ARC
8
DEFAULT_255_2_778
10
8.5507088
20
76.375518
40
2.8584574
50
240.2323579
51
244.3709759
0
ARC
8
DEFAULT_255_2_778
10
7.7800475
20
75.0386591
40
1.315392
50
233.2209971
51
240.4606284
0
ARC
8
DEFAULT_255_2_778
10
7.3561477
20
74.4675187
40
0.6041399
50
225.6990744
51
232.9899679
0
ARC
8
DEFAULT_255_2_778
10
7.3965073
20
74.4919214
40
0.6499005
50
178.2783416
51
224.6550883
0
ARC
8
DEFAULT_255_2_778
10
7.5059624
20
74.5252974
40
0.7591885
50
157.033673
51
181.0453383
0
ARC
8
DEFAULT_255_2_778
10
7.378439
20
74.5661396
40
0.6259551
50
124.9113017
51
155.9211516
0
ARC
8
DEFAULT_255_2_778
10
7.5960466
20
74.2575681
40
1.0035357
50
100.4079723
51
125.0168617
0
ARC
8
DEFAULT_255_2_778
10
7.6991199
20
73.7635046
40
1.5081396
50
89.6483922
51
100.8684975
0
ARC
8
DEFAULT_255_2_778
10
7.7083242
20
73.4112988
40
1.8603169
50
89.5079487
51
89.9984402
0
ARC
8
DEFAULT_255_2_778
10
7.7099573
20
73.3460694
40
1.9255311
50
83.9170631
51
89.5732113
0
ARC
8
DEFAULT_255_2_778
10
7.5071517
20
71.3384957
40
3.9433074
50
80.7325723
51
84.0779772
0
ARC
8
DEFAULT_255_2_778
10
7.0208457
20
68.315582
40
7.0050837
50
78.5086351
51
80.7886813
0
ARC
8
DEFAULT_255_2_778
10
7.6620177
20
72.9150544
40
1.9415426
50
67.135818
51
78.0934208
0
ARC
8
DEFAULT_255_2_778
10
7.7851814
20
73.4854809
40
1.3579807
50
78.2126325
51
89.7333975
0
ARC
8
DEFAULT_255_2_778
10
7.7793853
20
73.9006211
40
0.9429038
50
89.2638155
51
100.5666868
0
ARC
8
DEFAULT_255_2_778
10
7.6660949
20
74.4704419
40
0.362036
50
99.4784875
51
124.329414
0
ARC
8
DEFAULT_255_2_778
10
7.5705593
20
74.618551
40
0.1859067
50
125.7571195
51
182.2824883
0
ARC
8
DEFAULT_255_2_778
10
7.5493239
20
74.6118629
40
0.1645253
50
180.2492993
51
239.8144161
0
ARC
8
DEFAULT_255_2_778
10
7.932718
20
75.2119128
40
0.876484
50
237.8725734
51
242.8068846
0
ARC
8
DEFAULT_255_2_778
10
9.4175857
20
78.0284958
40
4.0604642
50
242.3328458
51
244.031083
0
ARC
8
DEFAULT_255_2_778
10
12.3804066
20
84.0769314
40
10.7955807
50
243.950624
51
244.8024316
0
ARC
8
DEFAULT_255_2_778
10
15.4009918
20
90.4609175
40
17.8580926
50
244.7535425
51
244.9563234
0
ARC
8
DEFAULT_255_2_778
10
5.8652927
20
69.9593264
40
4.7527588
50
62.2505456
51
65.4301556
0
ARC
8
DEFAULT_255_2_778
10
6.9275435
20
71.9674172
40
2.4810291
50
57.2951304
51
62.3684211
0
ARC
8
DEFAULT_255_2_778
10
7.6807233
20
73.1307235
40
1.0952081
50
48.7345704
51
57.5685367
0
ARC
8
DEFAULT_255_2_778
10
8.0117486
20
73.5182722
40
0.5856147
50
44.3236031
51
48.0704418
0
ARC
8
DEFAULT_255_2_778
10
7.9783002
20
73.4982468
40
0.6236013
50
1.3523843
51
43.4925744
0
ARC
8
DEFAULT_255_2_778
10
7.7103531
20
73.4653151
40
0.8926473
50
359.9763756
51
3.0599076
0
ARC
8
DEFAULT_255_2_778
10
7.8645343
20
73.4502407
40
0.7386124
50
333.0361889
51
1.1408766
0
ARC
8
DEFAULT_255_2_778
10
7.8947908
20
73.4571919
40
0.7150741
50
300.8430083
51
331.4403095
0
ARC
8
DEFAULT_255_2_778
10
7.694568
20
73.7707162
40
1.0869673
50
281.4258583
51
301.4316118
0
ARC
8
DEFAULT_255_2_778
10
7.5632666
20
74.3789414
40
1.7091691
50
270.2273513
51
281.7010805
0
ARC
8
DEFAULT_255_2_778
10
7.5453797
20
74.8556043
40
2.1859577
50
269.9983113
51
270.6466065
0
LINE
8
DEFAULT_255_2_778
10
7.5453153
20
72.6696465
11
7.5438002
21
72.669647
0
ARC
8
DEFAULT_255_2_778
10
7.5509161
20
75.8525969
40
3.1829579
50
256.2431122
51
269.871909
0
ARC
8
DEFAULT_255_2_778
10
21.7538511
20
76.0771629
40
2.9720345
50
251.5709223
51
258.7508181
0
ARC
8
DEFAULT_255_2_778
10
21.5538128
20
75.0539385
40
1.9294488
50
258.6495077
51
268.8281511
0
ARC
8
DEFAULT_255_2_778
10
21.5355488
20
74.6591193
40
1.5343723
50
269.2085037
51
269.9981866
0
ARC
8
DEFAULT_255_2_778
10
21.5473849
20
74.1907184
40
1.0660376
50
269.3612297
51
279.5899087
0
ARC
8
DEFAULT_255_2_778
10
21.6608439
20
73.5592324
40
0.424527
50
278.6895227
51
300.2363944
0
ARC
8
DEFAULT_255_2_778
10
21.7799083
20
73.3557793
40
0.188796
50
300.1108484
51
1.9024905
0
ARC
8
DEFAULT_255_2_778
10
21.7439577
20
73.3664221
40
0.2246851
50
358.8842611
51
0.0019649
0
ARC
8
DEFAULT_255_2_778
10
21.7769791
20
73.3703385
40
0.1917038
50
358.831716
51
47.0900458
0
ARC
8
DEFAULT_255_2_778
10
21.6364654
20
73.210984
40
0.4041259
50
47.8812665
51
61.174665
0
ARC
8
DEFAULT_255_2_778
10
21.0418848
20
72.1910117
40
1.5846568
50
60.1210877
51
65.1917015
0
ARC
8
DEFAULT_255_2_778
10
20.1415278
20
70.2854122
40
3.6922188
50
64.9168629
51
67.1565628
0
ARC
8
DEFAULT_255_2_778
10
23.6275467
20
78.5569888
40
5.2839333
50
244.2656926
51
247.1407051
0
ARC
8
DEFAULT_255_2_778
10
22.5594997
20
76.348765
40
2.8309849
50
240.1545061
51
244.3326325
0
ARC
8
DEFAULT_255_2_778
10
21.7856548
20
75.0127346
40
1.2870531
50
232.697515
51
240.4357497
0
ARC
8
DEFAULT_255_2_778
10
21.3705506
20
74.4617218
40
0.5972006
50
225.5850892
51
232.3393736
0
ARC
8
DEFAULT_255_2_778
10
21.4133941
20
74.4912933
40
0.6483829
50
178.7795739
51
224.7095916
0
ARC
8
DEFAULT_255_2_778
10
21.6669319
20
74.5153135
40
0.9018316
50
179.997867
51
180.6487041
0
ARC
8
DEFAULT_255_2_778
10
21.5167738
20
74.5291249
40
0.7517998
50
156.9195758
51
181.050088
0
ARC
8
DEFAULT_255_2_778
10
21.3928482
20
74.5685712
40
0.6224513
50
124.7111133
51
155.7879672
0
ARC
8
DEFAULT_255_2_778
10
21.6055459
20
74.2766942
40
0.9835402
50
101.7934503
51
125.2143527
0
ARC
8
DEFAULT_255_2_778
10
21.729848
20
73.7241326
40
1.5498677
50
89.5248728
51
102.1166783
0
ARC
8
DEFAULT_255_2_778
10
21.7283109
20
73.1705834
40
2.1034129
50
83.2889725
51
89.6080411
0
ARC
8
DEFAULT_255_2_778
10
21.529975
20
71.4027668
40
3.8823067
50
79.4764054
51
83.4308492
0
ARC
8
DEFAULT_255_2_778
10
21.2186357
20
69.6495673
40
5.6628977
50
78.2224868
51
79.6190915
0
ARC
8
DEFAULT_255_2_778
10
21.6838473
20
72.9270715
40
1.9311543
50
67.1323814
51
78.3148813
0
ARC
8
DEFAULT_255_2_778
10
21.801359
20
73.4785614
40
1.3672981
50
78.4565774
51
89.7552271
0
ARC
8
DEFAULT_255_2_778
10
21.7951366
20
73.909447
40
0.9364778
50
89.2619009
51
100.5950934
0
ARC
8
DEFAULT_255_2_778
10
21.6824182
20
74.4749169
40
0.3599879
50
99.5087086
51
124.406715
0
ARC
8
DEFAULT_255_2_778
10
21.5878565
20
74.621343
40
0.1858061
50
125.8630185
51
182.2986975
0
ARC
8
DEFAULT_255_2_778
10
21.5497296
20
74.6138047
40
0.1475296
50
179.9666559
51
180.100057
0
ARC
8
DEFAULT_255_2_778
10
21.566185
20
74.613793
40
0.163985
50
180.0859454
51
239.8819968
0
ARC
8
DEFAULT_255_2_778
10
21.9379018
20
75.2005619
40
0.8584853
50
238.072871
51
243.0442008
0
ARC
8
DEFAULT_255_2_778
10
23.4872034
20
78.1655845
40
4.2038426
50
242.5409111
51
244.1884903
0
ARC
8
DEFAULT_255_2_778
10
26.6463384
20
84.660196
40
11.4260319
50
244.1076525
51
244.9219574
0
ARC
8
DEFAULT_255_2_778
10
29.9038827
20
91.583855
40
19.0777309
50
244.8743531
51
245.066969
0
ARC
8
DEFAULT_255_2_778
10
19.8865272
20
69.9916274
40
4.7250654
50
62.0340028
51
65.293009
0
ARC
8
DEFAULT_255_2_778
10
20.9507744
20
71.9865758
40
2.464003
50
57.1127289
51
62.13736
0
ARC
8
DEFAULT_255_2_778
10
21.7037139
20
73.1402906
40
1.0863604
50
48.3695509
51
57.4197129
0
ARC
8
DEFAULT_255_2_778
10
22.0286268
20
73.5170419
40
0.5889589
50
44.472493
51
47.6467012
0
ARC
8
DEFAULT_255_2_778
10
21.9979457
20
73.4999032
40
0.6229283
50
1.2061613
51
43.6203607
0
ARC
8
DEFAULT_255_2_778
10
21.7312413
20
73.4674903
40
0.890659
50
359.9779196
51
2.9299178
0
ARC
8
DEFAULT_255_2_778
10
21.8802547
20
73.4523837
40
0.7417924
50
333.172934
51
1.140392
0
ARC
8
DEFAULT_255_2_778
10
21.9146167
20
73.4570736
40
0.7135172
50
300.9808035
51
331.5913995
0
ARC
8
DEFAULT_255_2_778
10
21.7182603
20
73.7669862
40
1.0803281
50
281.9040909
51
301.4483918
0
ARC
8
DEFAULT_255_2_778
10
21.5848425
20
74.3655518
40
1.6935565
50
270.5796874
51
282.1436175
0
ARC
8
DEFAULT_255_2_778
10
21.5636722
20
74.8604735
40
2.1887267
50
269.9959074
51
271.0027751
0
LINE
8
DEFAULT_255_2_778
10
21.5635158
20
72.6717468
11
21.5625002
21
72.671747
0
ARC
8
DEFAULT_255_2_778
10
21.5700221
20
75.8605174
40
3.1887792
50
256.2556596
51
269.8648469
0
LINE
8
DEFAULT_255_2_778
10
6.7958002
20
72.762547
11
6.7958002
21
73.257247
0
LINE
8
DEFAULT_255_2_778
10
8.4164002
20
75.180247
11
8.4164002
21
74.704047
0
LINE
8
DEFAULT_255_2_778
10
6.7940002
20
72.760947
11
6.7958002
21
72.762547
0
LINE
8
DEFAULT_255_2_778
10
8.9866002
20
75.229747
11
9.6629002
21
75.229747
0
LINE
8
DEFAULT_255_2_778
10
9.6629002
20
75.229747
11
9.6629002
21
72.722347
0
LINE
8
DEFAULT_255_2_778
10
9.6629002
20
72.722347
11
8.9866002
21
72.722347
0
LINE
8
DEFAULT_255_2_778
10
8.9866002
20
72.722347
11
8.9866002
21
75.229747
0
LINE
8
DEFAULT_255_2_778
10
10.2809002
20
72.722347
11
10.2809002
21
75.229747
0
LINE
8
DEFAULT_255_2_778
10
10.2809002
20
75.229747
11
12.0132002
21
75.229747
0
LINE
8
DEFAULT_255_2_778
10
12.0132002
20
75.229747
11
12.0132002
21
74.776047
0
LINE
8
DEFAULT_255_2_778
10
12.0132002
20
74.776047
11
10.9321002
21
74.776047
0
LINE
8
DEFAULT_255_2_778
10
10.9321002
20
74.776047
11
10.9321002
21
74.209747
0
LINE
8
DEFAULT_255_2_778
10
10.9321002
20
74.209747
11
11.8735002
21
74.209747
0
LINE
8
DEFAULT_255_2_778
10
11.8735002
20
74.209747
11
11.8735002
21
73.796247
0
LINE
8
DEFAULT_255_2_778
10
11.8735002
20
73.796247
11
10.9321002
21
73.796247
0
LINE
8
DEFAULT_255_2_778
10
10.9321002
20
73.796247
11
10.9321002
21
73.200947
0
LINE
8
DEFAULT_255_2_778
10
10.9321002
20
73.200947
11
12.0412002
21
73.200947
0
LINE
8
DEFAULT_255_2_778
10
12.0412002
20
73.200947
11
12.0412002
21
72.720747
0
LINE
8
DEFAULT_255_2_778
10
12.0412002
20
72.720747
11
10.2809002
21
72.722347
0
LINE
8
DEFAULT_255_2_778
10
12.4817002
20
72.722347
11
12.4817002
21
75.229747
0
LINE
8
DEFAULT_255_2_778
10
12.4817002
20
75.229747
11
13.3575002
21
75.229747
0
LINE
8
DEFAULT_255_2_778
10
13.3575002
20
75.229747
11
13.9671002
21
73.627447
0
LINE
8
DEFAULT_255_2_778
10
13.9671002
20
73.627447
11
14.5897002
21
75.229747
0
LINE
8
DEFAULT_255_2_778
10
14.5897002
20
75.229747
11
15.4215002
21
75.229747
0
LINE
8
DEFAULT_255_2_778
10
15.4215002
20
75.229747
11
15.4215002
21
72.722347
0
LINE
8
DEFAULT_255_2_778
10
15.4215002
20
72.722347
11
14.7812002
21
72.722347
0
LINE
8
DEFAULT_255_2_778
10
14.7812002
20
72.722347
11
14.7812002
21
74.498147
0
LINE
8
DEFAULT_255_2_778
10
14.7812002
20
74.498147
11
14.0724002
21
72.697947
0
LINE
8
DEFAULT_255_2_778
10
14.0724002
20
72.697947
11
13.6515002
21
72.697947
0
LINE
8
DEFAULT_255_2_778
10
13.6515002
20
72.697947
11
12.9559002
21
74.498147
0
LINE
8
DEFAULT_255_2_778
10
12.9559002
20
74.498147
11
12.9559002
21
72.722047
0
LINE
8
DEFAULT_255_2_778
10
12.9559002
20
72.722047
11
12.4817002
21
72.722347
0
LINE
8
DEFAULT_255_2_778
10
16.0409002
20
72.722347
11
16.0409002
21
75.229747
0
LINE
8
DEFAULT_255_2_778
10
16.0409002
20
75.229747
11
17.7731002
21
75.229747
0
LINE
8
DEFAULT_255_2_778
10
17.7731002
20
75.229747
11
17.7731002
21
74.776047
0
LINE
8
DEFAULT_255_2_778
10
17.7731002
20
74.776047
11
16.6921002
21
74.776047
0
LINE
8
DEFAULT_255_2_778
10
16.6921002
20
74.776047
11
16.6921002
21
74.209747
0
LINE
8
DEFAULT_255_2_778
10
16.6921002
20
74.209747
11
17.6334002
21
74.209747
0
LINE
8
DEFAULT_255_2_778
10
17.6334002
20
74.209747
11
17.6334002
21
73.796247
0
LINE
8
DEFAULT_255_2_778
10
17.6334002
20
73.796247
11
16.6921002
21
73.796247
0
LINE
8
DEFAULT_255_2_778
10
16.6921002
20
73.796247
11
16.6921002
21
73.200947
0
LINE
8
DEFAULT_255_2_778
10
16.6921002
20
73.200947
11
17.8030002
21
73.200947
0
LINE
8
DEFAULT_255_2_778
10
17.8030002
20
73.200947
11
17.8030002
21
72.720747
0
LINE
8
DEFAULT_255_2_778
10
17.8030002
20
72.720747
11
16.0409002
21
72.722347
0
LINE
8
DEFAULT_255_2_778
10
18.2454002
20
72.722347
11
18.2454002
21
75.229747
0
LINE
8
DEFAULT_255_2_778
10
18.2454002
20
75.229747
11
19.0283002
21
75.229747
0
LINE
8
DEFAULT_255_2_778
10
19.0283002
20
75.229747
11
19.8586002
21
73.550947
0
LINE
8
DEFAULT_255_2_778
10
19.8586002
20
73.550947
11
19.8586002
21
75.229747
0
LINE
8
DEFAULT_255_2_778
10
19.8586002
20
75.229747
11
20.3343002
21
75.229747
0
LINE
8
DEFAULT_255_2_778
10
20.3343002
20
75.229747
11
20.3343002
21
72.722347
0
LINE
8
DEFAULT_255_2_778
10
20.3343002
20
72.722347
11
19.5739002
21
72.722347
0
LINE
8
DEFAULT_255_2_778
10
19.5739002
20
72.722347
11
18.7214002
21
74.423547
0
LINE
8
DEFAULT_255_2_778
10
18.7214002
20
74.423547
11
18.7214002
21
72.722347
0
LINE
8
DEFAULT_255_2_778
10
18.7214002
20
72.722347
11
18.2454002
21
72.722347
0
LINE
8
DEFAULT_255_2_778
10
20.8143002
20
72.762747
11
20.8143002
21
73.257547
0
LINE
8
DEFAULT_255_2_778
10
22.3745002
20
75.193247
11
22.4343002
21
75.182647
0
LINE
8
DEFAULT_255_2_778
10
22.4343002
20
75.182647
11
22.4343002
21
74.706447
0
LINE
8
DEFAULT_255_2_778
10
20.8124002
20
72.763047
11
20.8143002
21
72.762747
0
LINE
8
DEFAULT_255_1_388
10
5.5034457
20
71.0714892
11
5.3290577
21
71.0714892
0
LINE
8
DEFAULT_255_1_388
10
4.5501852
20
70.5176042
11
4.7245731
21
70.5176042
0
ARC
8
DEFAULT_255_1_388
10
5.4031304
20
72.0778821
40
1.4087688
50
248.9196578
51
254.1442424
0
ARC
8
DEFAULT_255_1_388
10
5.2141184
20
71.5912805
40
0.8867498
50
241.6337352
51
249.0064643
0
ARC
8
DEFAULT_255_1_388
10
5.0421498
20
71.2761764
40
0.5277799
50
230.4982261
51
241.8087583
0
ARC
8
DEFAULT_255_1_388
10
4.9539269
20
71.1637686
40
0.3849419
50
227.4062979
51
229.9877433
0
ARC
8
DEFAULT_255_1_388
10
4.8990615
20
71.1102155
40
0.3084129
50
200.6782127
51
228.1765252
0
ARC
8
DEFAULT_255_1_388
10
4.9071984
20
71.1085277
40
0.315461
50
179.506278
51
199.8695278
0
ARC
8
DEFAULT_255_1_388
10
4.9061573
20
71.1168671
40
0.3144584
50
132.4834401
51
181.0242352
0
ARC
8
DEFAULT_255_1_388
10
4.9730777
20
71.0536788
40
0.4063094
50
129.2526113
51
133.4249077
0
ARC
8
DEFAULT_255_1_388
10
4.989637
20
71.0288619
40
0.436014
50
101.9878945
51
128.8741833
0
ARC
8
DEFAULT_255_1_388
10
5.0344785
20
70.835236
40
0.6347415
50
89.5906376
51
102.3170567
0
ARC
8
DEFAULT_255_1_388
10
5.0424097
20
70.8710586
40
0.5989122
50
77.2359491
51
90.3248968
0
ARC
8
DEFAULT_255_1_388
10
5.0657028
20
70.9798554
40
0.4876594
50
63.8379856
51
77.0808925
0
ARC
8
DEFAULT_255_1_388
10
5.0969561
20
71.0380882
40
0.4216191
50
45.9863127
51
64.1608798
0
ARC
8
DEFAULT_255_1_388
10
5.1262955
20
71.071599
40
0.3771394
50
32.2747934
51
45.6544796
0
ARC
8
DEFAULT_255_1_388
10
5.1337761
20
71.0737426
40
0.3696765
50
359.6507495
51
32.6129943
0
ARC
8
DEFAULT_255_1_388
10
5.0276944
20
71.0742788
40
0.3013762
50
359.469654
51
14.983205
0
ARC
8
DEFAULT_255_1_388
10
5.1070196
20
71.0955288
40
0.2192542
50
14.9781954
51
48.2004799
0
ARC
8
DEFAULT_255_1_388
10
5.0885307
20
71.0722937
40
0.2489048
50
48.5926661
51
74.1242559
0
ARC
8
DEFAULT_255_1_388
10
5.0510109
20
70.9484607
40
0.3782845
50
73.7889321
51
86.6653996
0
ARC
8
DEFAULT_255_1_388
10
5.0394924
20
70.8126955
40
0.5145025
50
86.2642725
51
90.0533288
0
ARC
8
DEFAULT_255_1_388
10
5.0363017
20
70.8571376
40
0.4700681
50
89.669455
51
99.2313411
0
ARC
8
DEFAULT_255_1_388
10
5.0090176
20
71.0196401
40
0.3052945
50
99.0695987
51
113.7659242
0
ARC
8
DEFAULT_255_1_388
10
4.9782171
20
71.0922772
40
0.226407
50
114.0402885
51
127.9848946
0
ARC
8
DEFAULT_255_1_388
10
4.9511647
20
71.1255884
40
0.1835045
50
127.7287217
51
176.7106493
0
ARC
8
DEFAULT_255_1_388
10
5.0275312
20
71.114221
40
0.2604907
50
175.1780759
51
180.0581213
0
ARC
8
DEFAULT_255_1_388
10
4.9326656
20
71.1128411
40
0.1656287
50
179.6140658
51
228.124674
0
ARC
8
DEFAULT_255_1_388
10
4.9824013
20
71.158894
40
0.2332038
50
226.5785315
51
230.8792476
0
ARC
8
DEFAULT_255_1_388
10
5.03535
20
71.2291908
40
0.3211664
50
231.4636401
51
241.9261664
0
ARC
8
DEFAULT_255_1_388
10
5.1700283
20
71.4770349
40
0.6032345
50
241.7177136
51
248.3259138
0
ARC
8
DEFAULT_255_1_388
10
5.3258878
20
71.8631771
40
1.0196417
50
248.2007377
51
252.4527713
0
ARC
8
DEFAULT_255_1_388
10
5.4612405
20
72.2816092
40
1.4594143
50
252.3388938
51
254.347037
0
ARC
8
DEFAULT_255_1_388
10
4.6127705
20
69.2468095
40
1.6917621
50
71.0197462
51
74.4085467
0
ARC
8
DEFAULT_255_1_388
10
4.8034793
20
69.7973144
40
1.1091618
50
66.1845203
51
71.086519
0
ARC
8
DEFAULT_255_1_388
10
4.9785342
20
70.1914439
40
0.6779073
50
59.3537334
51
66.269255
0
ARC
8
DEFAULT_255_1_388
10
5.0785068
20
70.3605777
40
0.4814366
50
49.1021732
51
59.3294421
0
ARC
8
DEFAULT_255_1_388
10
5.1706056
20
70.4655575
40
0.3417875
50
32.7924183
51
49.2503526
0
ARC
8
DEFAULT_255_1_388
10
5.205567
20
70.4905311
40
0.2988789
50
31.121225
51
32.3977355
0
ARC
8
DEFAULT_255_1_388
10
5.1967848
20
70.4872728
40
0.3080861
50
8.1116803
51
30.7958224
0
ARC
8
DEFAULT_255_1_388
10
5.1056194
20
70.4717437
40
0.4005385
50
359.8390945
51
8.4707348
0
ARC
8
DEFAULT_255_1_388
10
5.1760242
20
70.4662751
40
0.3301608
50
337.4732479
51
0.7538283
0
ARC
8
DEFAULT_255_1_388
10
5.1961267
20
70.4640554
40
0.3107929
50
307.5917028
51
336.4313755
0
ARC
8
DEFAULT_255_1_388
10
5.1450324
20
70.5208509
40
0.3870096
50
307.6560665
51
308.4561779
0
ARC
8
DEFAULT_255_1_388
10
5.1184541
20
70.5616832
40
0.435591
50
284.3733666
51
307.1426212
0
ARC
8
DEFAULT_255_1_388
10
5.0627435
20
70.7666391
40
0.6479685
50
272.4384566
51
284.6464689
0
ARC
8
DEFAULT_255_1_388
10
5.048482
20
70.9690434
40
0.8508149
50
269.9708517
51
272.8180721
0
ARC
8
DEFAULT_255_1_388
10
5.0436503
20
70.7398283
40
0.6216151
50
248.2707343
51
270.4054609
0
ARC
8
DEFAULT_255_1_388
10
5.0375374
20
70.7183673
40
0.5994203
50
246.1380358
51
248.054058
0
ARC
8
DEFAULT_255_1_388
10
4.9904517
20
70.6194705
40
0.4899388
50
233.1671897
51
246.4951656
0
ARC
8
DEFAULT_255_1_388
10
4.9281152
20
70.5353137
40
0.3852115
50
215.3403381
51
233.084328
0
ARC
8
DEFAULT_255_1_388
10
4.8974516
20
70.5130093
40
0.3472969
50
179.2419235
51
215.2648426
0
ARC
8
DEFAULT_255_1_388
10
4.9838067
20
70.5145979
40
0.259251
50
179.3355796
51
199.1045873
0
ARC
8
DEFAULT_255_1_388
10
4.9464209
20
70.5048223
40
0.2207454
50
199.8830064
51
232.7061328
0
ARC
8
DEFAULT_255_1_388
10
4.9995483
20
70.5716456
40
0.306101
50
232.3736206
51
255.5136621
0
ARC
8
DEFAULT_255_1_388
10
5.0378989
20
70.7116177
40
0.4512213
50
255.2447928
51
267.5318292
0
ARC
8
DEFAULT_255_1_388
10
5.0477456
20
70.8502709
40
0.5901825
50
267.1564563
51
270.0294721
0
ARC
8
DEFAULT_255_1_388
10
5.0508781
20
70.8003623
40
0.5402814
50
269.6999944
51
278.1662446
0
ARC
8
DEFAULT_255_1_388
10
5.0796809
20
70.6056974
40
0.3435003
50
278.0229022
51
290.6255326
0
ARC
8
DEFAULT_255_1_388
10
5.1187975
20
70.5013547
40
0.2320666
50
290.6616368
51
307.0374127
0
ARC
8
DEFAULT_255_1_388
10
5.1525875
20
70.459904
40
0.1786372
50
306.3942078
51
355.303191
0
ARC
8
DEFAULT_255_1_388
10
5.0950168
20
70.4685186
40
0.2367516
50
354.3662092
51
0.0709489
0
ARC
8
DEFAULT_255_1_388
10
5.1110037
20
70.4710561
40
0.2207761
50
359.4175379
51
16.1975911
0
ARC
8
DEFAULT_255_1_388
10
5.1622155
20
70.4850954
40
0.1676828
50
16.4721294
51
52.6261798
0
ARC
8
DEFAULT_255_1_388
10
5.0698662
20
70.3631606
40
0.3206412
50
52.7381828
51
62.4979144
0
ARC
8
DEFAULT_255_1_388
10
4.9140415
20
70.0699236
40
0.6527035
50
62.2517425
51
68.1219454
0
ARC
8
DEFAULT_255_1_388
10
4.7205903
20
69.5944951
40
1.1659797
50
68.006043
51
71.8055127
0
ARC
8
DEFAULT_255_1_388
10
4.5185811
20
68.9886723
40
1.8045908
50
71.718361
51
73.9260743
0
LINE
8
DEFAULT_255_1_388
10
5.9145675
20
71.4518898
11
5.9145675
21
70.1363
0
LINE
8
DEFAULT_255_1_388
10
5.9145675
20
70.1363
11
5.7410831
21
70.1363
0
LINE
8
DEFAULT_255_1_388
10
5.7410831
20
70.1363
11
5.7410831
21
71.4518898
0
LINE
8
DEFAULT_255_1_388
10
5.7410831
20
71.4518898
11
5.9145675
21
71.4518898
0
LINE
8
DEFAULT_255_1_388
10
6.2317186
20
71.4518898
11
6.4558026
21
71.4518898
0
LINE
8
DEFAULT_255_1_388
10
6.4558026
20
71.4518898
11
6.8858993
21
70.3784553
0
LINE
8
DEFAULT_255_1_388
10
6.8858993
20
70.3784553
11
7.3159959
21
71.4518898
0
LINE
8
DEFAULT_255_1_388
10
7.3159959
20
71.4518898
11
7.5409835
21
71.4518898
0
LINE
8
DEFAULT_255_1_388
10
7.5409835
20
71.4518898
11
7.5409835
21
70.1363
0
LINE
8
DEFAULT_255_1_388
10
7.5409835
20
70.1363
11
7.3674991
21
70.1363
0
LINE
8
DEFAULT_255_1_388
10
7.3674991
20
70.1363
11
7.3674991
21
70.648621
0
LINE
8
DEFAULT_255_1_388
10
7.3674991
20
70.648621
11
7.3837633
21
71.2016025
0
LINE
8
DEFAULT_255_1_388
10
7.3837633
20
71.2016025
11
6.9518595
21
70.1363
0
LINE
8
DEFAULT_255_1_388
10
6.9518595
20
70.1363
11
6.8190355
21
70.1363
0
LINE
8
DEFAULT_255_1_388
10
6.8190355
20
70.1363
11
6.3880353
21
71.1988918
0
LINE
8
DEFAULT_255_1_388
10
6.3880353
20
71.1988918
11
6.405203
21
70.648621
0
LINE
8
DEFAULT_255_1_388
10
6.405203
20
70.648621
11
6.405203
21
70.1363
0
LINE
8
DEFAULT_255_1_388
10
6.405203
20
70.1363
11
6.2317186
21
70.1363
0
LINE
8
DEFAULT_255_1_388
10
6.2317186
20
70.1363
11
6.2317186
21
71.4518898
0
LINE
8
DEFAULT_255_1_388
10
8.7156173
20
70.1363
11
8.5900218
21
70.4796545
0
LINE
8
DEFAULT_255_1_388
10
8.5900218
20
70.4796545
11
8.0388475
21
70.4796545
0
LINE
8
DEFAULT_255_1_388
10
8.0388475
20
70.4796545
11
7.9150592
21
70.1363
0
LINE
8
DEFAULT_255_1_388
10
7.9150592
20
70.1363
11
7.7361534
21
70.1363
0
LINE
8
DEFAULT_255_1_388
10
7.7361534
20
70.1363
11
8.2385353
21
71.4518898
0
LINE
8
DEFAULT_255_1_388
10
8.2385353
20
71.4518898
11
8.3903341
21
71.4518898
0
LINE
8
DEFAULT_255_1_388
10
8.3903341
20
71.4518898
11
8.8936195
21
70.1363
0
LINE
8
DEFAULT_255_1_388
10
8.8936195
20
70.1363
11
8.7156173
21
70.1363
0
LINE
8
DEFAULT_255_1_388
10
8.3144347
20
71.2377451
11
8.0912542
21
70.6224177
0
LINE
8
DEFAULT_255_1_388
10
8.0912542
20
70.6224177
11
8.5385187
21
70.6224177
0
LINE
8
DEFAULT_255_1_388
10
8.5385187
20
70.6224177
11
8.3144347
21
71.2377451
0
LINE
8
DEFAULT_255_1_388
10
9.8631441
20
71.4518898
11
9.8631441
21
71.3091267
0
LINE
8
DEFAULT_255_1_388
10
9.8631441
20
71.3091267
11
9.440276
21
71.3091267
0
LINE
8
DEFAULT_255_1_388
10
9.440276
20
71.3091267
11
9.440276
21
70.1363
0
LINE
8
DEFAULT_255_1_388
10
9.440276
20
70.1363
11
9.2676952
21
70.1363
0
LINE
8
DEFAULT_255_1_388
10
9.2676952
20
70.1363
11
9.2676952
21
71.3091267
0
LINE
8
DEFAULT_255_1_388
10
9.2676952
20
71.3091267
11
8.8457306
21
71.3091267
0
LINE
8
DEFAULT_255_1_388
10
8.8457306
20
71.3091267
11
8.8457306
21
71.4518898
0
LINE
8
DEFAULT_255_1_388
10
8.8457306
20
71.4518898
11
9.8631441
21
71.4518898
0
LINE
8
DEFAULT_255_1_388
10
10.2444483
20
71.4518898
11
10.2444483
21
70.1363
0
LINE
8
DEFAULT_255_1_388
10
10.2444483
20
70.1363
11
10.070964
21
70.1363
0
LINE
8
DEFAULT_255_1_388
10
10.070964
20
70.1363
11
10.070964
21
71.4518898
0
LINE
8
DEFAULT_255_1_388
10
10.070964
20
71.4518898
11
10.2444483
21
71.4518898
0
LINE
8
DEFAULT_255_1_388
10
11.3549291
20
70.5537468
11
11.529317
21
70.5537468
0
LINE
8
DEFAULT_255_1_388
10
10.5164212
20
70.7326525
11
10.5164212
21
70.8591516
0
LINE
8
DEFAULT_255_1_388
10
11.529317
20
71.0290217
11
11.3549291
21
71.0290217
0
LINE
8
DEFAULT_255_1_388
10
10.6908092
20
70.8546337
11
10.6908092
21
70.7272312
0
ARC
8
DEFAULT_255_1_388
10
10.9127404
20
70.6209329
40
0.6202263
50
340.1774904
51
353.7812217
0
ARC
8
DEFAULT_255_1_388
10
11.0895257
20
70.5550893
40
0.4315926
50
311.4560052
51
340.4420756
0
ARC
8
DEFAULT_255_1_388
10
11.0857796
20
70.5675665
40
0.4434573
50
282.4332229
51
310.7514507
0
ARC
8
DEFAULT_255_1_388
10
11.0363614
20
70.7717703
40
0.6535262
50
269.9358869
51
282.8096729
0
ARC
8
DEFAULT_255_1_388
10
11.0305554
20
70.9230329
40
0.8048043
50
269.9995752
51
270.3612856
0
ARC
8
DEFAULT_255_1_388
10
11.0246044
20
70.6431781
40
0.5249831
50
250.7885263
51
270.6488451
0
ARC
8
DEFAULT_255_1_388
10
11.0056868
20
70.5714853
40
0.4510942
50
219.3628377
51
250.0611024
0
ARC
8
DEFAULT_255_1_388
10
11.0989743
20
70.6507653
40
0.5735046
50
193.5480293
51
219.5755675
0
ARC
8
DEFAULT_255_1_388
10
11.3657952
20
70.720052
40
0.849146
50
181.1220183
51
193.8754971
0
ARC
8
DEFAULT_255_1_388
10
11.5981185
20
70.7324914
40
1.0816971
50
179.9914644
51
181.5398227
0
ARC
8
DEFAULT_255_1_388
10
11.3904495
20
70.8633586
40
0.8740384
50
169.5837606
51
180.275782
0
ARC
8
DEFAULT_255_1_388
10
11.1837844
20
70.9015439
40
0.6638751
50
155.0367033
51
169.6002779
0
ARC
8
DEFAULT_255_1_388
10
11.0560302
20
70.9631336
40
0.5220662
50
136.7831557
51
155.2472983
0
ARC
8
DEFAULT_255_1_388
10
11.0122092
20
71.0003577
40
0.4646502
50
121.7633063
51
136.4281161
0
ARC
8
DEFAULT_255_1_388
10
11.0273932
20
70.9723049
40
0.4964979
50
95.6460018
51
121.5489589
0
ARC
8
DEFAULT_255_1_388
10
11.0450907
20
70.8475704
40
0.6223912
50
89.9245727
51
96.1375919
0
ARC
8
DEFAULT_255_1_388
10
11.0507612
20
70.8609721
40
0.6090084
50
76.6779212
51
90.456405
0
ARC
8
DEFAULT_255_1_388
10
11.0950425
20
71.039906
40
0.42469
50
47.4858803
51
76.9287069
0
ARC
8
DEFAULT_255_1_388
10
11.0785038
20
71.0286623
40
0.4441778
50
16.5424081
51
46.8934505
0
ARC
8
DEFAULT_255_1_388
10
10.8976088
20
70.9692265
40
0.6345318
50
5.4072971
51
17.0363711
0
ARC
8
DEFAULT_255_1_388
10
10.7357813
20
70.9432304
40
0.6250632
50
7.8888693
51
15.9242022
0
ARC
8
DEFAULT_255_1_388
10
10.9592799
20
71.0081309
40
0.3923364
50
15.7650676
51
27.9410069
0
ARC
8
DEFAULT_255_1_388
10
11.0834968
20
71.0746317
40
0.2514401
50
27.8167196
51
46.4007942
0
ARC
8
DEFAULT_255_1_388
10
11.0890809
20
71.0739882
40
0.2480958
50
47.4372362
51
75.0695672
0
ARC
8
DEFAULT_255_1_388
10
11.0543646
20
70.9531277
40
0.3738281
50
74.7009379
51
87.8124314
0
ARC
8
DEFAULT_255_1_388
10
11.0461262
20
70.8347659
40
0.4924321
50
87.3802571
51
90.0251599
0
ARC
8
DEFAULT_255_1_388
10
11.041791
20
70.9667997
40
0.3604218
50
89.3451886
51
108.5744412
0
ARC
8
DEFAULT_255_1_388
10
11.0263902
20
71.0245836
40
0.3007661
50
109.2998307
51
143.3037387
0
ARC
8
DEFAULT_255_1_388
10
11.1121192
20
70.9586584
40
0.4089031
50
143.075267
51
163.1918576
0
ARC
8
DEFAULT_255_1_388
10
11.3317026
20
70.8893652
40
0.6391492
50
162.9375929
51
174.6208776
0
ARC
8
DEFAULT_255_1_388
10
11.6271408
20
70.8569711
40
0.9363344
50
174.342123
51
180.1430283
0
ARC
8
DEFAULT_255_1_388
10
11.5223949
20
70.7226117
40
0.8315986
50
179.6817261
51
189.150555
0
ARC
8
DEFAULT_255_1_388
10
11.2410698
20
70.6757559
40
0.5464044
50
188.9911061
51
203.5772363
0
ARC
8
DEFAULT_255_1_388
10
11.119599
20
70.6253539
40
0.4149206
50
203.9075402
51
215.1312435
0
ARC
8
DEFAULT_255_1_388
10
11.0157788
20
70.5448907
40
0.2837747
50
213.9071511
51
263.8848919
0
ARC
8
DEFAULT_255_1_388
10
11.0298781
20
70.6331519
40
0.3730641
50
263.1757928
51
270.1031044
0
ARC
8
DEFAULT_255_1_388
10
11.033486
20
70.7734511
40
0.5133712
50
269.6722503
51
279.0606936
0
ARC
8
DEFAULT_255_1_388
10
11.0635016
20
70.592015
40
0.3294739
50
278.8749101
51
293.6349581
0
ARC
8
DEFAULT_255_1_388
10
11.0995219
20
70.5074251
40
0.2375405
50
293.8553806
51
310.0518171
0
ARC
8
DEFAULT_255_1_388
10
11.1000728
20
70.5004021
40
0.2318463
50
311.0644687
51
332.0111037
0
ARC
8
DEFAULT_255_1_388
10
10.9659402
20
70.5743702
40
0.3850112
50
331.6586806
51
343.2877423
0
ARC
8
DEFAULT_255_1_388
10
10.7338867
20
70.6456806
40
0.6277712
50
343.1446576
51
351.0103568
0
ARC
8
DEFAULT_255_1_388
10
10.570619
20
70.6756873
40
0.7937327
50
350.71248
51
351.1626997
0
LINE
8
DEFAULT_255_1_388
10
12.9677916
20
70.8862585
11
12.9677916
21
70.7443989
0
LINE
8
DEFAULT_255_1_388
10
12.9677916
20
70.7443989
11
12.3976424
21
70.7443989
0
LINE
8
DEFAULT_255_1_388
10
12.3976424
20
70.7443989
11
12.3976424
21
70.2781596
0
LINE
8
DEFAULT_255_1_388
10
12.3976424
20
70.2781596
11
13.0599552
21
70.2781596
0
LINE
8
DEFAULT_255_1_388
10
13.0599552
20
70.2781596
11
13.0599552
21
70.1363
0
LINE
8
DEFAULT_255_1_388
10
13.0599552
20
70.1363
11
12.2241581
21
70.1363
0
LINE
8
DEFAULT_255_1_388
10
12.2241581
20
70.1363
11
12.2241581
21
71.4518898
0
LINE
8
DEFAULT_255_1_388
10
12.2241581
20
71.4518898
11
13.0509195
21
71.4518898
0
LINE
8
DEFAULT_255_1_388
10
13.0509195
20
71.4518898
11
13.0509195
21
71.3091267
0
LINE
8
DEFAULT_255_1_388
10
13.0509195
20
71.3091267
11
12.3976424
21
71.3091267
0
LINE
8
DEFAULT_255_1_388
10
12.3976424
20
71.3091267
11
12.3976424
21
70.8862585
0
LINE
8
DEFAULT_255_1_388
10
12.3976424
20
70.8862585
11
12.9677916
21
70.8862585
0
LINE
8
DEFAULT_255_1_388
10
14.2029642
20
71.4518898
11
14.2029642
21
71.3091267
0
LINE
8
DEFAULT_255_1_388
10
14.2029642
20
71.3091267
11
13.780096
21
71.3091267
0
LINE
8
DEFAULT_255_1_388
10
13.780096
20
71.3091267
11
13.780096
21
70.1363
0
LINE
8
DEFAULT_255_1_388
10
13.780096
20
70.1363
11
13.6075152
21
70.1363
0
LINE
8
DEFAULT_255_1_388
10
13.6075152
20
70.1363
11
13.6075152
21
71.3091267
0
LINE
8
DEFAULT_255_1_388
10
13.6075152
20
71.3091267
11
13.1855506
21
71.3091267
0
LINE
8
DEFAULT_255_1_388
10
13.1855506
20
71.3091267
11
13.1855506
21
71.4518898
0
LINE
8
DEFAULT_255_1_388
10
13.1855506
20
71.4518898
11
14.2029642
21
71.4518898
0
LINE
8
DEFAULT_255_1_388
10
15.2167635
20
70.2727382
11
15.2167635
21
70.1363
0
LINE
8
DEFAULT_255_1_388
10
15.2167635
20
70.1363
11
14.354763
21
70.1363
0
LINE
8
DEFAULT_255_1_388
10
14.354763
20
70.1363
11
14.354763
21
70.2564741
0
LINE
8
DEFAULT_255_1_388
10
14.354763
20
70.2564741
11
14.8101595
21
70.7624702
0
LINE
8
DEFAULT_255_1_388
10
14.4966227
20
71.0642607
11
14.3294632
21
71.0642607
0
LINE
8
DEFAULT_255_1_388
10
14.908648
20
70.654946
11
14.5562579
21
70.2727382
0
LINE
8
DEFAULT_255_1_388
10
14.5562579
20
70.2727382
11
15.2167635
21
70.2727382
0
ARC
8
DEFAULT_255_1_388
10
13.2925655
20
72.1044983
40
2.0258655
50
318.5132526
51
320.7829045
0
ARC
8
DEFAULT_255_1_388
10
13.8873612
20
71.6203929
40
1.2589638
50
320.7372878
51
323.9739031
0
ARC
8
DEFAULT_255_1_388
10
14.3282543
20
71.3009554
40
0.7145141
50
323.8962701
51
328.64194
0
ARC
8
DEFAULT_255_1_388
10
14.5584801
20
71.1589545
40
0.4440242
50
328.8294576
51
331.7891185
0
ARC
8
DEFAULT_255_1_388
10
14.6707121
20
71.1010374
40
0.3177517
50
331.4254512
51
352.9365785
0
ARC
8
DEFAULT_255_1_388
10
14.6860121
20
71.097605
40
0.3021496
50
353.2257659
51
0.0166158
0
ARC
8
DEFAULT_255_1_388
10
14.7096882
20
71.1001894
40
0.2784847
50
359.486299
51
15.9343185
0
ARC
8
DEFAULT_255_1_388
10
14.7667148
20
71.1155269
40
0.2194403
50
16.1712913
51
43.5286088
0
ARC
8
DEFAULT_255_1_388
10
14.7754093
20
71.1242191
40
0.2071504
50
43.4417391
51
83.1661095
0
ARC
8
DEFAULT_255_1_388
10
14.7603254
20
71.0413316
40
0.2912888
50
82.160179
51
90.1505708
0
ARC
8
DEFAULT_255_1_388
10
14.7567736
20
70.9809279
40
0.3517025
50
89.5460741
51
102.5418361
0
ARC
8
DEFAULT_255_1_388
10
14.7294456
20
71.0968933
40
0.2325748
50
102.1738499
51
129.206123
0
ARC
8
DEFAULT_255_1_388
10
14.7205909
20
71.1108664
40
0.2161591
50
129.72865
51
135.753947
0
ARC
8
DEFAULT_255_1_388
10
14.7342391
20
71.0999728
40
0.2335433
50
136.1757367
51
166.3673339
0
ARC
8
DEFAULT_255_1_388
10
14.847508
20
71.0696148
40
0.3507873
50
165.9090694
51
178.8684636
0
ARC
8
DEFAULT_255_1_388
10
14.9450851
20
71.0643263
40
0.4484624
50
178.4391136
51
180.0083808
0
ARC
8
DEFAULT_255_1_388
10
14.7871553
20
71.0687197
40
0.4577138
50
163.2878482
51
180.5581842
0
ARC
8
DEFAULT_255_1_388
10
14.6969594
20
71.0935393
40
0.3641968
50
133.4540601
51
162.947111
0
ARC
8
DEFAULT_255_1_388
10
14.7170476
20
71.0721789
40
0.3935189
50
100.7869829
51
133.4382499
0
ARC
8
DEFAULT_255_1_388
10
14.7561721
20
70.8979399
40
0.5720313
50
89.660664
51
101.3702276
0
ARC
8
DEFAULT_255_1_388
10
14.763633
20
70.9048263
40
0.5651495
50
78.2172678
51
90.412935
0
ARC
8
DEFAULT_255_1_388
10
14.8035795
20
71.0875511
40
0.378122
50
55.9269121
51
78.4888449
0
ARC
8
DEFAULT_255_1_388
10
14.825651
20
71.1256187
40
0.3342379
50
47.929771
51
55.4049217
0
ARC
8
DEFAULT_255_1_388
10
14.8371041
20
71.1372618
40
0.3179217
50
4.334829
51
48.0560205
0
ARC
8
DEFAULT_255_1_388
10
14.7138842
20
71.1181487
40
0.442341
50
359.9251713
51
5.5971671
0
ARC
8
DEFAULT_255_1_388
10
14.7620997
20
71.1244728
40
0.3941854
50
337.8914027
51
358.9967534
0
ARC
8
DEFAULT_255_1_388
10
14.4568567
20
71.2422295
40
0.7213271
50
326.9132501
51
338.3508308
0
ARC
8
DEFAULT_255_1_388
10
14.0084679
20
71.5296105
40
1.2538973
50
319.6471833
51
327.0959558
0
ARC
8
DEFAULT_255_1_388
10
13.5771337
20
71.885405
40
1.8129975
50
317.2588228
51
319.9045804
0
LINE
8
DEFAULT_255_1_388
10
16.2188165
20
70.914269
11
16.2188165
21
70.6974135
0
LINE
8
DEFAULT_255_1_388
10
15.3884408
20
70.6748244
11
15.3884408
21
70.8980048
0
LINE
8
DEFAULT_255_1_388
10
16.0516571
20
70.6522353
11
16.0516571
21
70.9260153
0
LINE
8
DEFAULT_255_1_388
10
15.5556002
20
70.9386652
11
15.5556002
21
70.6712102
0
ARC
8
DEFAULT_255_1_388
10
14.8410499
20
70.6919118
40
1.3777776
50
353.8440855
51
0.2287917
0
ARC
8
DEFAULT_255_1_388
10
15.3629516
20
70.6336414
40
0.852639
50
344.4934746
51
353.9763743
0
ARC
8
DEFAULT_255_1_388
10
15.6996324
20
70.5379191
40
0.5026273
50
329.2803599
51
344.7473406
0
ARC
8
DEFAULT_255_1_388
10
15.8111819
20
70.4767038
40
0.3754848
50
324.9361395
51
328.6153007
0
ARC
8
DEFAULT_255_1_388
10
15.8537469
20
70.4469586
40
0.3235566
50
280.5801797
51
324.9173226
0
ARC
8
DEFAULT_255_1_388
10
15.8086098
20
70.6349236
40
0.5167077
50
269.5979457
51
281.6732777
0
ARC
8
DEFAULT_255_1_388
10
15.8005001
20
70.6214113
40
0.5032026
50
256.6228565
51
270.5105488
0
ARC
8
DEFAULT_255_1_388
10
15.7552744
20
70.4472345
40
0.3233092
50
215.8618351
51
257.2787793
0
ARC
8
DEFAULT_255_1_388
10
15.8701451
20
70.5243106
40
0.4615831
50
197.9695203
51
215.2622745
0
ARC
8
DEFAULT_255_1_388
10
16.1497127
20
70.6186641
40
0.7566307
50
187.8816486
51
198.2346584
0
ARC
8
DEFAULT_255_1_388
10
16.5950365
20
70.6829453
40
1.2065653
50
180.8977266
51
188.0054894
0
ARC
8
DEFAULT_255_1_388
10
16.9000579
20
70.69444
40
1.5117443
50
180.7434591
51
181.152202
0
ARC
8
DEFAULT_255_1_388
10
16.7325575
20
70.9034371
40
1.3441277
50
173.7674302
51
180.2315596
0
ARC
8
DEFAULT_255_1_388
10
16.2243443
20
70.9608779
40
0.8326847
50
164.3058537
51
173.9000553
0
ARC
8
DEFAULT_255_1_388
10
15.8967443
20
71.0552652
40
0.4917711
50
148.7922028
51
164.5682288
0
ARC
8
DEFAULT_255_1_388
10
15.7898181
20
71.1149457
40
0.3694204
50
144.5883979
51
148.1161588
0
ARC
8
DEFAULT_255_1_388
10
15.7510926
20
71.1419667
40
0.322202
50
101.6440149
51
144.5142619
0
ARC
8
DEFAULT_255_1_388
10
15.7989118
20
70.9519337
40
0.5180451
50
89.528284
51
102.5820197
0
ARC
8
DEFAULT_255_1_388
10
15.807811
20
70.9475376
40
0.5224441
50
77.0437914
51
90.508231
0
ARC
8
DEFAULT_255_1_388
10
15.8530364
20
71.1323272
40
0.3322297
50
48.2777708
51
77.4996087
0
ARC
8
DEFAULT_255_1_388
10
15.8612104
20
71.1468557
40
0.315966
50
36.3141586
51
47.6307332
0
ARC
8
DEFAULT_255_1_388
10
15.7634826
20
71.0810159
40
0.4337313
50
18.2931065
51
35.6770203
0
ARC
8
DEFAULT_255_1_388
10
15.4773667
20
70.9828107
40
0.7362203
50
8.0246996
51
18.5605636
0
ARC
8
DEFAULT_255_1_388
10
15.0090022
20
70.9136432
40
1.2096583
50
1.127539
51
8.1718423
0
ARC
8
DEFAULT_255_1_388
10
14.6441156
20
70.8993374
40
1.5747719
50
0.5432713
51
1.38669
0
ARC
8
DEFAULT_255_1_388
10
14.8498535
20
70.9300163
40
1.2018103
50
359.8092569
51
4.9408001
0
ARC
8
DEFAULT_255_1_388
10
15.3235116
20
70.97229
40
0.7262727
50
4.8364937
51
12.2906017
0
ARC
8
DEFAULT_255_1_388
10
15.6334581
20
71.0413485
40
0.4087324
50
12.0806994
51
23.8171225
0
ARC
8
DEFAULT_255_1_388
10
15.7654977
20
71.0972508
40
0.2653719
50
24.2874621
51
31.3934353
0
ARC
8
DEFAULT_255_1_388
10
15.8245413
20
71.1358822
40
0.1948607
50
30.7407708
51
82.4658033
0
ARC
8
DEFAULT_255_1_388
10
15.8043073
20
71.0365017
40
0.2961198
50
81.1057101
51
90.2187368
0
ARC
8
DEFAULT_255_1_388
10
15.8002885
20
71.0655421
40
0.2670929
50
89.380395
51
105.6763916
0
ARC
8
DEFAULT_255_1_388
10
15.7796607
20
71.140532
40
0.1893189
50
105.7980655
51
149.7387869
0
ARC
8
DEFAULT_255_1_388
10
15.8993747
20
71.0685719
40
0.3289892
50
149.4208441
51
163.628295
0
ARC
8
DEFAULT_255_1_388
10
16.1345977
20
70.9968345
40
0.5749004
50
163.3764549
51
172.141138
0
ARC
8
DEFAULT_255_1_388
10
16.5058698
20
70.9436582
40
0.9499585
50
172.0258462
51
178.0705453
0
ARC
8
DEFAULT_255_1_388
10
16.8480251
20
70.9274682
40
1.2924734
50
177.8639301
51
179.5036263
0
ARC
8
DEFAULT_255_1_388
10
16.726127
20
70.6671151
40
1.170534
50
179.7995545
51
185.246089
0
ARC
8
DEFAULT_255_1_388
10
16.2712863
20
70.6240404
40
0.7136613
50
185.1411911
51
193.0082205
0
ARC
8
DEFAULT_255_1_388
10
15.9739124
20
70.5537441
40
0.4080987
50
192.7897338
51
205.2507384
0
ARC
8
DEFAULT_255_1_388
10
15.8561334
20
70.5011538
40
0.2791522
50
205.8001921
51
211.2545876
0
ARC
8
DEFAULT_255_1_388
10
15.7972873
20
70.4617132
40
0.2084074
50
210.3789935
51
238.4007996
0
ARC
8
DEFAULT_255_1_388
10
15.7950959
20
70.4669786
40
0.2117943
50
239.6521916
51
265.9793852
0
ARC
8
DEFAULT_255_1_388
10
15.8046808
20
70.5426358
40
0.2879689
50
265.1324455
51
270.0603288
0
ARC
8
DEFAULT_255_1_388
10
15.8079185
20
70.5061418
40
0.2514919
50
269.3314378
51
287.2180039
0
ARC
8
DEFAULT_255_1_388
10
15.8234267
20
70.4495291
40
0.1928357
50
287.7957942
51
329.0808983
0
ARC
8
DEFAULT_255_1_388
10
15.7157024
20
70.5167651
40
0.319808
50
328.6635261
51
343.3325043
0
ARC
8
DEFAULT_255_1_388
10
15.4712483
20
70.5929195
40
0.5758408
50
343.0498092
51
351.9392499
0
ARC
8
DEFAULT_255_1_388
10
15.0811804
20
70.6504205
40
0.9701202
50
351.8071632
51
357.7957897
0
ARC
8
DEFAULT_255_1_388
10
14.7177281
20
70.6692724
40
1.3340376
50
357.5870923
51
359.2682493
0
LINE
8
DEFAULT_255_1_388
10
17.2579156
20
70.914269
11
17.2579156
21
70.6974135
0
LINE
8
DEFAULT_255_1_388
10
16.4275399
20
70.6748244
11
16.4275399
21
70.8980048
0
LINE
8
DEFAULT_255_1_388
10
17.0907562
20
70.6522353
11
17.0907562
21
70.9260153
0
LINE
8
DEFAULT_255_1_388
10
16.5946993
20
70.9386652
11
16.5946993
21
70.6712102
0
ARC
8
DEFAULT_255_1_388
10
15.880149
20
70.6919118
40
1.3777776
50
353.8440855
51
0.2287917
0
ARC
8
DEFAULT_255_1_388
10
16.4020508
20
70.6336414
40
0.852639
50
344.4934746
51
353.9763743
0
ARC
8
DEFAULT_255_1_388
10
16.7387315
20
70.5379191
40
0.5026273
50
329.2803599
51
344.7473406
0
ARC
8
DEFAULT_255_1_388
10
16.8502811
20
70.4767038
40
0.3754848
50
324.9361395
51
328.6153007
0
ARC
8
DEFAULT_255_1_388
10
16.892846
20
70.4469586
40
0.3235566
50
280.5801797
51
324.9173226
0
ARC
8
DEFAULT_255_1_388
10
16.8477089
20
70.6349236
40
0.5167077
50
269.5979457
51
281.6732777
0
ARC
8
DEFAULT_255_1_388
10
16.8395992
20
70.6214113
40
0.5032026
50
256.6228565
51
270.5105488
0
ARC
8
DEFAULT_255_1_388
10
16.7943735
20
70.4472345
40
0.3233092
50
215.8618351
51
257.2787793
0
ARC
8
DEFAULT_255_1_388
10
16.9092442
20
70.5243106
40
0.4615831
50
197.9695203
51
215.2622745
0
ARC
8
DEFAULT_255_1_388
10
17.1888118
20
70.6186641
40
0.7566307
50
187.8816486
51
198.2346584
0
ARC
8
DEFAULT_255_1_388
10
17.6341356
20
70.6829453
40
1.2065653
50
180.8977266
51
188.0054894
0
ARC
8
DEFAULT_255_1_388
10
17.939157
20
70.69444
40
1.5117443
50
180.7434591
51
181.152202
0
ARC
8
DEFAULT_255_1_388
10
17.7716566
20
70.9034371
40
1.3441277
50
173.7674302
51
180.2315596
0
ARC
8
DEFAULT_255_1_388
10
17.2634435
20
70.9608779
40
0.8326847
50
164.3058537
51
173.9000553
0
ARC
8
DEFAULT_255_1_388
10
16.9358435
20
71.0552652
40
0.4917711
50
148.7922028
51
164.5682288
0
ARC
8
DEFAULT_255_1_388
10
16.8289172
20
71.1149457
40
0.3694204
50
144.5883979
51
148.1161588
0
ARC
8
DEFAULT_255_1_388
10
16.7901917
20
71.1419667
40
0.322202
50
101.6440149
51
144.5142619
0
ARC
8
DEFAULT_255_1_388
10
16.838011
20
70.9519337
40
0.5180451
50
89.528284
51
102.5820197
0
ARC
8
DEFAULT_255_1_388
10
16.8469102
20
70.9475376
40
0.5224441
50
77.0437914
51
90.508231
0
ARC
8
DEFAULT_255_1_388
10
16.8921355
20
71.1323272
40
0.3322297
50
48.2777708
51
77.4996087
0
ARC
8
DEFAULT_255_1_388
10
16.9003095
20
71.1468557
40
0.315966
50
36.3141586
51
47.6307332
0
ARC
8
DEFAULT_255_1_388
10
16.8025817
20
71.0810159
40
0.4337313
50
18.2931065
51
35.6770203
0
ARC
8
DEFAULT_255_1_388
10
16.5164658
20
70.9828107
40
0.7362203
50
8.0246996
51
18.5605636
0
ARC
8
DEFAULT_255_1_388
10
16.0481014
20
70.9136432
40
1.2096583
50
1.127539
51
8.1718423
0
ARC
8
DEFAULT_255_1_388
10
15.6832147
20
70.8993374
40
1.5747719
50
0.5432713
51
1.38669
0
ARC
8
DEFAULT_255_1_388
10
15.8889526
20
70.9300163
40
1.2018103
50
359.8092569
51
4.9408001
0
ARC
8
DEFAULT_255_1_388
10
16.3626107
20
70.97229
40
0.7262727
50
4.8364937
51
12.2906017
0
ARC
8
DEFAULT_255_1_388
10
16.6725572
20
71.0413485
40
0.4087324
50
12.0806994
51
23.8171225
0
ARC
8
DEFAULT_255_1_388
10
16.8045968
20
71.0972508
40
0.2653719
50
24.2874621
51
31.3934353
0
ARC
8
DEFAULT_255_1_388
10
16.8636404
20
71.1358822
40
0.1948607
50
30.7407708
51
82.4658033
0
ARC
8
DEFAULT_255_1_388
10
16.8434065
20
71.0365017
40
0.2961198
50
81.1057101
51
90.2187368
0
ARC
8
DEFAULT_255_1_388
10
16.8393877
20
71.0655421
40
0.2670929
50
89.380395
51
105.6763916
0
ARC
8
DEFAULT_255_1_388
10
16.8187598
20
71.140532
40
0.1893189
50
105.7980655
51
149.7387869
0
ARC
8
DEFAULT_255_1_388
10
16.9384739
20
71.0685719
40
0.3289892
50
149.4208441
51
163.628295
0
ARC
8
DEFAULT_255_1_388
10
17.1736968
20
70.9968345
40
0.5749004
50
163.3764549
51
172.141138
0
ARC
8
DEFAULT_255_1_388
10
17.544969
20
70.9436582
40
0.9499585
50
172.0258462
51
178.0705453
0
ARC
8
DEFAULT_255_1_388
10
17.8871242
20
70.9274682
40
1.2924734
50
177.8639301
51
179.5036263
0
ARC
8
DEFAULT_255_1_388
10
17.7652261
20
70.6671151
40
1.170534
50
179.7995545
51
185.246089
0
ARC
8
DEFAULT_255_1_388
10
17.3103854
20
70.6240404
40
0.7136613
50
185.1411911
51
193.0082205
0
ARC
8
DEFAULT_255_1_388
10
17.0130115
20
70.5537441
40
0.4080987
50
192.7897338
51
205.2507384
0
ARC
8
DEFAULT_255_1_388
10
16.8952325
20
70.5011538
40
0.2791522
50
205.8001921
51
211.2545876
0
ARC
8
DEFAULT_255_1_388
10
16.8363864
20
70.4617132
40
0.2084074
50
210.3789935
51
238.4007996
0
ARC
8
DEFAULT_255_1_388
10
16.834195
20
70.4669786
40
0.2117943
50
239.6521916
51
265.9793852
0
ARC
8
DEFAULT_255_1_388
10
16.8437799
20
70.5426358
40
0.2879689
50
265.1324455
51
270.0603288
0
ARC
8
DEFAULT_255_1_388
10
16.8470176
20
70.5061418
40
0.2514919
50
269.3314378
51
287.2180039
0
ARC
8
DEFAULT_255_1_388
10
16.8625258
20
70.4495291
40
0.1928357
50
287.7957942
51
329.0808983
0
ARC
8
DEFAULT_255_1_388
10
16.7548015
20
70.5167651
40
0.319808
50
328.6635261
51
343.3325043
0
ARC
8
DEFAULT_255_1_388
10
16.5103474
20
70.5929195
40
0.5758408
50
343.0498092
51
351.9392499
0
ARC
8
DEFAULT_255_1_388
10
16.1202795
20
70.6504205
40
0.9701202
50
351.8071632
51
357.7957897
0
ARC
8
DEFAULT_255_1_388
10
15.7568272
20
70.6692724
40
1.3340376
50
357.5870923
51
359.2682493
0
LINE
8
DEFAULT_255_1_388
10
18.259065
20
70.8862585
11
18.259065
21
70.7443989
0
LINE
8
DEFAULT_255_1_388
10
18.259065
20
70.7443989
11
17.6889159
21
70.7443989
0
LINE
8
DEFAULT_255_1_388
10
17.6889159
20
70.7443989
11
17.6889159
21
70.2781596
0
LINE
8
DEFAULT_255_1_388
10
17.6889159
20
70.2781596
11
18.3512286
21
70.2781596
0
LINE
8
DEFAULT_255_1_388
10
18.3512286
20
70.2781596
11
18.3512286
21
70.1363
0
LINE
8
DEFAULT_255_1_388
10
18.3512286
20
70.1363
11
17.5154315
21
70.1363
0
LINE
8
DEFAULT_255_1_388
10
17.5154315
20
70.1363
11
17.5154315
21
71.4518898
0
LINE
8
DEFAULT_255_1_388
10
17.5154315
20
71.4518898
11
18.342193
21
71.4518898
0
LINE
8
DEFAULT_255_1_388
10
18.342193
20
71.4518898
11
18.342193
21
71.3091267
0
LINE
8
DEFAULT_255_1_388
10
18.342193
20
71.3091267
11
17.6889159
21
71.3091267
0
LINE
8
DEFAULT_255_1_388
10
17.6889159
20
71.3091267
11
17.6889159
21
70.8862585
0
LINE
8
DEFAULT_255_1_388
10
17.6889159
20
70.8862585
11
18.259065
21
70.8862585
0
LINE
8
DEFAULT_255_1_388
10
19.3605101
20
70.5537468
11
19.534898
21
70.5537468
0
LINE
8
DEFAULT_255_1_388
10
18.5220023
20
70.7326525
11
18.5220023
21
70.8591516
0
LINE
8
DEFAULT_255_1_388
10
19.534898
20
71.0290217
11
19.3605101
21
71.0290217
0
LINE
8
DEFAULT_255_1_388
10
18.6963902
20
70.8546337
11
18.6963902
21
70.7272312
0
ARC
8
DEFAULT_255_1_388
10
18.9183214
20
70.6209329
40
0.6202263
50
340.1774904
51
353.7812217
0
ARC
8
DEFAULT_255_1_388
10
19.0951067
20
70.5550893
40
0.4315926
50
311.4560052
51
340.4420756
0
ARC
8
DEFAULT_255_1_388
10
19.0913607
20
70.5675665
40
0.4434573
50
282.4332229
51
310.7514507
0
ARC
8
DEFAULT_255_1_388
10
19.0419425
20
70.7717703
40
0.6535262
50
269.9358869
51
282.8096729
0
ARC
8
DEFAULT_255_1_388
10
19.0361364
20
70.9230329
40
0.8048043
50
269.9995752
51
270.3612856
0
ARC
8
DEFAULT_255_1_388
10
19.0301854
20
70.6431781
40
0.5249831
50
250.7885263
51
270.6488451
0
ARC
8
DEFAULT_255_1_388
10
19.0112679
20
70.5714853
40
0.4510942
50
219.3628377
51
250.0611024
0
ARC
8
DEFAULT_255_1_388
10
19.1045553
20
70.6507653
40
0.5735046
50
193.5480293
51
219.5755675
0
ARC
8
DEFAULT_255_1_388
10
19.3713762
20
70.720052
40
0.849146
50
181.1220183
51
193.8754971
0
ARC
8
DEFAULT_255_1_388
10
19.6036996
20
70.7324914
40
1.0816971
50
179.9914644
51
181.5398227
0
ARC
8
DEFAULT_255_1_388
10
19.3960306
20
70.8633586
40
0.8740384
50
169.5837606
51
180.275782
0
ARC
8
DEFAULT_255_1_388
10
19.1893654
20
70.9015439
40
0.6638751
50
155.0367033
51
169.6002779
0
ARC
8
DEFAULT_255_1_388
10
19.0616112
20
70.9631336
40
0.5220662
50
136.7831557
51
155.2472983
0
ARC
8
DEFAULT_255_1_388
10
19.0177903
20
71.0003577
40
0.4646502
50
121.7633063
51
136.4281161
0
ARC
8
DEFAULT_255_1_388
10
19.0329743
20
70.9723049
40
0.4964979
50
95.6460018
51
121.5489589
0
ARC
8
DEFAULT_255_1_388
10
19.0506717
20
70.8475704
40
0.6223912
50
89.9245727
51
96.1375919
0
ARC
8
DEFAULT_255_1_388
10
19.0563422
20
70.8609721
40
0.6090084
50
76.6779212
51
90.456405
0
ARC
8
DEFAULT_255_1_388
10
19.1006235
20
71.039906
40
0.42469
50
47.4858803
51
76.9287069
0
ARC
8
DEFAULT_255_1_388
10
19.0840849
20
71.0286623
40
0.4441778
50
16.5424081
51
46.8934505
0
ARC
8
DEFAULT_255_1_388
10
18.9031899
20
70.9692265
40
0.6345318
50
5.4072971
51
17.0363711
0
ARC
8
DEFAULT_255_1_388
10
18.7413624
20
70.9432304
40
0.6250632
50
7.8888693
51
15.9242022
0
ARC
8
DEFAULT_255_1_388
10
18.9648609
20
71.0081309
40
0.3923364
50
15.7650676
51
27.9410069
0
ARC
8
DEFAULT_255_1_388
10
19.0890779
20
71.0746317
40
0.2514401
50
27.8167196
51
46.4007942
0
ARC
8
DEFAULT_255_1_388
10
19.094662
20
71.0739882
40
0.2480958
50
47.4372362
51
75.0695672
0
ARC
8
DEFAULT_255_1_388
10
19.0599456
20
70.9531277
40
0.3738281
50
74.7009379
51
87.8124314
0
ARC
8
DEFAULT_255_1_388
10
19.0517073
20
70.8347659
40
0.4924321
50
87.3802571
51
90.0251599
0
ARC
8
DEFAULT_255_1_388
10
19.047372
20
70.9667997
40
0.3604218
50
89.3451886
51
108.5744412
0
ARC
8
DEFAULT_255_1_388
10
19.0319713
20
71.0245836
40
0.3007661
50
109.2998307
51
143.3037387
0
ARC
8
DEFAULT_255_1_388
10
19.1177002
20
70.9586584
40
0.4089031
50
143.075267
51
163.1918576
0
ARC
8
DEFAULT_255_1_388
10
19.3372837
20
70.8893652
40
0.6391492
50
162.9375929
51
174.6208776
0
ARC
8
DEFAULT_255_1_388
10
19.6327218
20
70.8569711
40
0.9363344
50
174.342123
51
180.1430283
0
ARC
8
DEFAULT_255_1_388
10
19.527976
20
70.7226117
40
0.8315986
50
179.6817261
51
189.150555
0
ARC
8
DEFAULT_255_1_388
10
19.2466509
20
70.6757559
40
0.5464044
50
188.9911061
51
203.5772363
0
ARC
8
DEFAULT_255_1_388
10
19.12518
20
70.6253539
40
0.4149206
50
203.9075402
51
215.1312435
0
ARC
8
DEFAULT_255_1_388
10
19.0213598
20
70.5448907
40
0.2837747
50
213.9071511
51
263.8848919
0
ARC
8
DEFAULT_255_1_388
10
19.0354591
20
70.6331519
40
0.3730641
50
263.1757928
51
270.1031044
0
ARC
8
DEFAULT_255_1_388
10
19.0390671
20
70.7734511
40
0.5133712
50
269.6722503
51
279.0606936
0
ARC
8
DEFAULT_255_1_388
10
19.0690826
20
70.592015
40
0.3294739
50
278.8749101
51
293.6349581
0
ARC
8
DEFAULT_255_1_388
10
19.105103
20
70.5074251
40
0.2375405
50
293.8553806
51
310.0518171
0
ARC
8
DEFAULT_255_1_388
10
19.1056539
20
70.5004021
40
0.2318463
50
311.0644687
51
332.0111037
0
ARC
8
DEFAULT_255_1_388
10
18.9715212
20
70.5743702
40
0.3850112
50
331.6586806
51
343.2877423
0
ARC
8
DEFAULT_255_1_388
10
18.7394678
20
70.6456806
40
0.6277712
50
343.1446576
51
351.0103568
0
ARC
8
DEFAULT_255_1_388
10
18.5762001
20
70.6756873
40
0.7937327
50
350.71248
51
351.1626997
0
LINE
8
DEFAULT_255_1_388
10
20.7836241
20
70.8347553
11
20.7836241
21
70.7516274
0
LINE
8
DEFAULT_255_1_388
10
19.7255501
20
70.7398811
11
19.7255501
21
70.8347553
0
LINE
8
DEFAULT_255_1_388
10
20.6110433
20
70.7389775
11
20.6110433
21
70.8365625
0
LINE
8
DEFAULT_255_1_388
10
19.898131
20
70.8483088
11
19.898131
21
70.7516274
0
ARC
8
DEFAULT_255_1_388
10
19.811398
20
70.7471726
40
0.9722364
50
350.4878118
51
0.2625322
0
ARC
8
DEFAULT_255_1_388
10
20.069394
20
70.7027994
40
0.7104556
50
336.0277991
51
350.5787241
0
ARC
8
DEFAULT_255_1_388
10
20.2207046
20
70.6344243
40
0.544417
50
319.887443
51
336.1331163
0
ARC
8
DEFAULT_255_1_388
10
20.2884859
20
70.5801733
40
0.4576311
50
302.4806296
51
319.6144102
0
ARC
8
DEFAULT_255_1_388
10
20.275548
20
70.6051067
40
0.4856183
50
275.8196423
51
302.1885521
0
ARC
8
DEFAULT_255_1_388
10
20.2568341
20
70.7336466
40
0.6154183
50
269.9169897
51
276.339506
0
ARC
8
DEFAULT_255_1_388
10
20.2517942
20
70.656468
40
0.5382553
50
252.5221437
51
270.441579
0
ARC
8
DEFAULT_255_1_388
10
20.2356192
20
70.5958046
40
0.4755426
50
237.5349961
51
252.1858334
0
ARC
8
DEFAULT_255_1_388
10
20.2456568
20
70.608612
40
0.4917393
50
209.0632754
51
237.3492577
0
ARC
8
DEFAULT_255_1_388
10
20.3435894
20
70.6701104
40
0.6072464
50
205.118533
51
209.6465345
0
ARC
8
DEFAULT_255_1_388
10
20.4331896
20
70.7081174
40
0.7045164
50
188.7216633
51
204.8239753
0
ARC
8
DEFAULT_255_1_388
10
20.6578672
20
70.7459387
40
0.9323368
50
180.3722704
51
188.9253909
0
ARC
8
DEFAULT_255_1_388
10
20.6548233
20
70.8392416
40
0.929284
50
169.5253055
51
180.2766048
0
ARC
8
DEFAULT_255_1_388
10
20.4408032
20
70.8786024
40
0.7116745
50
155.8314601
51
169.5088611
0
ARC
8
DEFAULT_255_1_388
10
20.2967495
20
70.9454312
40
0.5528904
50
139.6259579
51
156.0379072
0
ARC
8
DEFAULT_255_1_388
10
20.2304029
20
70.9988143
40
0.4677708
50
122.6414784
51
139.3431662
0
ARC
8
DEFAULT_255_1_388
10
20.2417284
20
70.9781787
40
0.4912586
50
93.0224537
51
122.4556091
0
ARC
8
DEFAULT_255_1_388
10
20.2538805
20
70.8695776
40
0.6003837
50
89.9756766
51
93.6340839
0
ARC
8
DEFAULT_255_1_388
10
20.2582402
20
70.9144879
40
0.5554884
50
73.7463329
51
90.4234008
0
ARC
8
DEFAULT_255_1_388
10
20.2779876
20
70.9909772
40
0.4765353
50
57.663051
51
73.4516911
0
ARC
8
DEFAULT_255_1_388
10
20.2770913
20
70.9934108
40
0.4749629
50
29.1441355
51
57.4146687
0
ARC
8
DEFAULT_255_1_388
10
20.1718725
20
70.9277046
40
0.5988917
50
24.0985653
51
29.732054
0
ARC
8
DEFAULT_255_1_388
10
20.0556356
20
70.8795154
40
0.7246823
50
8.6654943
51
23.8241215
0
ARC
8
DEFAULT_255_1_388
10
19.8042775
20
70.8385037
40
0.9793537
50
359.7807044
51
8.8218476
0
ARC
8
DEFAULT_255_1_388
10
19.6752479
20
70.8413731
40
0.9358078
50
359.7054632
51
8.0359751
0
ARC
8
DEFAULT_255_1_388
10
20.0127531
20
70.8905252
40
0.5947474
50
7.8926278
51
20.2962188
0
ARC
8
DEFAULT_255_1_388
10
20.1958381
20
70.9580367
40
0.3996117
50
20.3231056
51
36.4990255
0
ARC
8
DEFAULT_255_1_388
10
20.2729678
20
71.0174399
40
0.3022818
50
36.1436715
51
85.6627846
0
ARC
8
DEFAULT_255_1_388
10
20.2546934
20
70.9004881
40
0.4203853
50
84.3845912
51
90.076054
0
ARC
8
DEFAULT_255_1_388
10
20.2499288
20
70.9747416
40
0.346157
50
89.3037228
51
109.9046209
0
ARC
8
DEFAULT_255_1_388
10
20.2395121
20
71.0177379
40
0.3022217
50
110.8229774
51
143.917961
0
ARC
8
DEFAULT_255_1_388
10
20.3445481
20
70.9375455
40
0.434348
50
143.5289166
51
163.2980252
0
ARC
8
DEFAULT_255_1_388
10
20.5591768
20
70.8700685
40
0.659321
50
163.0418884
51
174.3139873
0
ARC
8
DEFAULT_255_1_388
10
20.8296733
20
70.8388378
40
0.9315905
50
174.050934
51
179.4174954
0
ARC
8
DEFAULT_255_1_388
10
20.7728677
20
70.7469382
40
0.8747493
50
179.6928582
51
188.7908948
0
ARC
8
DEFAULT_255_1_388
10
20.4732476
20
70.6990086
40
0.5713262
50
188.6328449
51
202.5630732
0
ARC
8
DEFAULT_255_1_388
10
20.3321313
20
70.6423142
40
0.4192612
50
202.8078931
51
216.1195888
0
ARC
8
DEFAULT_255_1_388
10
20.241083
20
70.5690479
40
0.3025752
50
215.0755613
51
264.6379773
0
ARC
8
DEFAULT_255_1_388
10
20.2553668
20
70.6625376
40
0.3970284
50
263.8464302
51
270.0830805
0
ARC
8
DEFAULT_255_1_388
10
20.2600213
20
70.6334808
40
0.3679937
50
269.3649295
51
287.5149684
0
ARC
8
DEFAULT_255_1_388
10
20.2800653
20
70.5606714
40
0.2925408
50
288.0629019
51
323.8115617
0
ARC
8
DEFAULT_255_1_388
10
20.182063
20
70.6337754
40
0.4148018
50
323.6546541
51
342.6591359
0
ARC
8
DEFAULT_255_1_388
10
19.9535287
20
70.708128
40
0.6551163
50
342.4092446
51
353.6451501
0
ARC
8
DEFAULT_255_1_388
10
19.6350081
20
70.7477565
40
0.9760748
50
353.4027553
51
359.4846611
0
LINE
8
DEFAULT_255_1_388
10
21.9853648
20
70.6513317
11
21.6754422
21
70.6513317
0
LINE
8
DEFAULT_255_1_388
10
21.6754422
20
70.6513317
11
21.6754422
21
70.1363
0
LINE
8
DEFAULT_255_1_388
10
21.6754422
20
70.1363
11
21.5019579
21
70.1363
0
LINE
8
DEFAULT_255_1_388
10
21.5019579
20
70.1363
11
21.5019579
21
71.4518898
0
LINE
8
DEFAULT_255_1_388
10
21.5019579
20
71.4518898
11
21.987172
21
71.4518898
0
LINE
8
DEFAULT_255_1_388
10
21.6754422
20
71.3091267
11
21.6754422
21
70.7931914
0
LINE
8
DEFAULT_255_1_388
10
21.6754422
20
70.7931914
11
21.987172
21
70.7931914
0
LINE
8
DEFAULT_255_1_388
10
21.9971112
20
71.3091267
11
21.6754422
21
71.3091267
0
ARC
8
DEFAULT_255_1_388
10
21.9919093
20
70.7702334
40
0.6816729
50
78.8380084
51
90.398184
0
ARC
8
DEFAULT_255_1_388
10
22.0387123
20
70.9975796
40
0.449571
50
58.9633273
51
79.0810717
0
ARC
8
DEFAULT_255_1_388
10
22.0726508
20
71.0605823
40
0.3781049
50
48.0194715
51
58.4475592
0
ARC
8
DEFAULT_255_1_388
10
22.0826328
20
71.0701818
40
0.3642936
50
3.3374546
51
48.1766642
0
ARC
8
DEFAULT_255_1_388
10
21.9441135
20
71.0502581
40
0.5038766
50
359.9483251
51
4.6822857
0
ARC
8
DEFAULT_255_1_388
10
21.9581058
20
71.0454779
40
0.4899031
50
346.1879032
51
0.5059221
0
ARC
8
DEFAULT_255_1_388
10
22.1109849
20
71.0057763
40
0.3319729
50
310.8832219
51
346.5426612
0
ARC
8
DEFAULT_255_1_388
10
22.0762698
20
71.0526853
40
0.3901853
50
286.6925305
51
310.228778
0
ARC
8
DEFAULT_255_1_388
10
22.0122428
20
71.2540585
40
0.6014737
50
274.6848219
51
287.0247342
0
ARC
8
DEFAULT_255_1_388
10
21.9868976
20
71.5025088
40
0.8511785
50
269.8968222
51
275.0192639
0
ARC
8
DEFAULT_255_1_388
10
21.989997
20
71.2687144
40
0.4755314
50
269.6596206
51
279.4150542
0
ARC
8
DEFAULT_255_1_388
10
22.0189428
20
71.1009945
40
0.3053379
50
279.2050006
51
294.9901776
0
ARC
8
DEFAULT_255_1_388
10
22.0516062
20
71.0281353
40
0.2255036
50
295.2886769
51
311.2912669
0
ARC
8
DEFAULT_255_1_388
10
22.0595803
20
71.0162938
40
0.2113522
50
311.7853512
51
347.2860549
0
ARC
8
DEFAULT_255_1_388
10
21.9488965
20
71.044743
40
0.3256011
50
346.6891629
51
0.1057086
0
ARC
8
DEFAULT_255_1_388
10
21.8566425
20
71.0480247
40
0.417863
50
359.63239
51
359.9961329
0
ARC
8
DEFAULT_255_1_388
10
21.973103
20
71.0507987
40
0.3014155
50
359.4673371
51
15.5931159
0
ARC
8
DEFAULT_255_1_388
10
22.0434092
20
71.0697937
40
0.2285918
50
15.7441779
51
46.620186
0
ARC
8
DEFAULT_255_1_388
10
22.0267852
20
71.0506361
40
0.2539359
50
46.8628482
51
75.6676625
0
ARC
8
DEFAULT_255_1_388
10
21.9936909
20
70.9315243
40
0.3775415
50
75.2763152
51
88.2916439
0
ARC
8
DEFAULT_255_1_388
10
21.9870908
20
70.8313097
40
0.4779221
50
87.8589087
51
88.7986197
0
LINE
8
DEFAULT_255_1_388
10
23.6804518
20
71.4518898
11
23.6804518
21
70.1363
0
LINE
8
DEFAULT_255_1_388
10
23.6804518
20
70.1363
11
23.5060638
21
70.1363
0
LINE
8
DEFAULT_255_1_388
10
23.5060638
20
70.1363
11
22.8437511
21
71.1500993
0
LINE
8
DEFAULT_255_1_388
10
22.8437511
20
71.1500993
11
22.8437511
21
70.1363
0
LINE
8
DEFAULT_255_1_388
10
22.8437511
20
70.1363
11
22.6693631
21
70.1363
0
LINE
8
DEFAULT_255_1_388
10
22.6693631
20
70.1363
11
22.6693631
21
71.4518898
0
LINE
8
DEFAULT_255_1_388
10
22.6693631
20
71.4518898
11
22.8437511
21
71.4518898
0
LINE
8
DEFAULT_255_1_388
10
22.8437511
20
71.4518898
11
23.5078709
21
70.4335727
0
LINE
8
DEFAULT_255_1_388
10
23.5078709
20
70.4335727
11
23.5078709
21
71.4518898
0
LINE
8
DEFAULT_255_1_388
10
23.5078709
20
71.4518898
11
23.6804518
21
71.4518898
0
LINE
8
DEFAULT_255_2_778
10
19.9760417
20
60.7218492
11
18.6531417
21
60.7218492
0
LINE
8
DEFAULT_255_2_778
10
18.6531417
20
60.7218492
11
18.6531417
21
35.2557492
0
LINE
8
DEFAULT_255_2_778
10
18.6531417
20
30.6254492
11
18.6531417
21
5.1593492
0
LINE
8
DEFAULT_255_2_778
10
18.6531417
20
5.1593492
11
19.9760417
21
5.1593492
0
LINE
8
DEFAULT_255_2_778
10
17.3301834
20
35.2557041
11
19.9759834
21
35.2557041
0
LINE
8
DEFAULT_255_2_778
10
19.9759834
20
35.2557041
11
19.9759834
21
30.6255041
0
LINE
8
DEFAULT_255_2_778
10
19.9759834
20
30.6255041
11
17.3301834
21
30.6255041
0
LINE
8
DEFAULT_255_2_778
10
17.3301834
20
30.6255041
11
17.3301834
21
35.2557041
0
LINE
8
DEFAULT_255_2_778
10
18.124
20
31.0884833
11
18.124
21
34.7926833
0
LINE
8
DEFAULT_255_2_778
10
17.8594167
20
34.0981656
11
18.1240167
21
34.7926656
0
LINE
8
DEFAULT_255_2_778
10
18.1240167
20
34.7926656
11
18.3886167
21
34.0981656
0
LINE
8
DEFAULT_255_2_778
10
18.3886167
20
34.0981656
11
17.8594167
21
34.0981656
0
LINE
8
DEFAULT_255_2_778
10
19.1823
20
34.7926833
11
19.1823
21
31.0884833
0
LINE
8
DEFAULT_255_2_778
10
18.9177167
20
31.7830656
11
19.1823167
21
31.0885656
0
LINE
8
DEFAULT_255_2_778
10
19.1823167
20
31.0885656
11
19.4469167
21
31.7830656
0
LINE
8
DEFAULT_255_2_778
10
19.4469167
20
31.7830656
11
18.9177167
21
31.7830656
0
LINE
8
DEFAULT_255_1_388
10
4.5011985
20
69.4738148
11
4.5011985
21
68.1519
0
LINE
8
DEFAULT_255_1_388
10
4.5011985
20
68.1519
11
4.3331355
21
68.1519
0
LINE
8
DEFAULT_255_1_388
10
4.3331355
20
68.1519
11
4.3331355
21
69.265995
0
LINE
8
DEFAULT_255_1_388
10
4.3331355
20
69.265995
11
3.996106
21
69.1422066
0
LINE
8
DEFAULT_255_1_388
10
3.996106
20
69.1422066
11
3.996106
21
69.2940055
0
LINE
8
DEFAULT_255_1_388
10
3.996106
20
69.2940055
11
4.4749951
21
69.4738148
0
LINE
8
DEFAULT_255_1_388
10
4.4749951
20
69.4738148
11
4.5011985
21
69.4738148
0
LINE
8
DEFAULT_255_1_388
10
5.2086895
20
69.4674898
11
5.2086895
21
68.2937596
0
LINE
8
DEFAULT_255_1_388
10
5.2086895
20
68.2937596
11
5.8321489
21
68.2937596
0
LINE
8
DEFAULT_255_1_388
10
5.8321489
20
68.2937596
11
5.8321489
21
68.1519
0
LINE
8
DEFAULT_255_1_388
10
5.8321489
20
68.1519
11
5.0343015
21
68.1519
0
LINE
8
DEFAULT_255_1_388
10
5.0343015
20
68.1519
11
5.0343015
21
69.4674898
0
LINE
8
DEFAULT_255_1_388
10
5.0343015
20
69.4674898
11
5.2086895
21
69.4674898
0
LINE
8
DEFAULT_255_1_388
10
6.4827153
20
69.2415987
11
6.4827153
21
68.8575838
0
LINE
8
DEFAULT_255_1_388
10
6.4827153
20
68.8575838
11
6.8495625
21
68.8575838
0
LINE
8
DEFAULT_255_1_388
10
6.8495625
20
68.8575838
11
6.8495625
21
68.6994601
0
LINE
8
DEFAULT_255_1_388
10
6.8495625
20
68.6994601
11
6.4827153
21
68.6994601
0
LINE
8
DEFAULT_255_1_388
10
6.4827153
20
68.6994601
11
6.4827153
21
68.2838204
0
LINE
8
DEFAULT_255_1_388
10
6.4827153
20
68.2838204
11
6.3146523
21
68.2838204
0
LINE
8
DEFAULT_255_1_388
10
6.3146523
20
68.2838204
11
6.3146523
21
68.6994601
0
LINE
8
DEFAULT_255_1_388
10
6.3146523
20
68.6994601
11
5.9478052
21
68.6994601
0
LINE
8
DEFAULT_255_1_388
10
5.9478052
20
68.6994601
11
5.9478052
21
68.8575838
0
LINE
8
DEFAULT_255_1_388
10
5.9478052
20
68.8575838
11
6.3146523
21
68.8575838
0
LINE
8
DEFAULT_255_1_388
10
6.3146523
20
68.8575838
11
6.3146523
21
69.2415987
0
LINE
8
DEFAULT_255_1_388
10
6.3146523
20
69.2415987
11
6.4827153
21
69.2415987
0
LINE
8
DEFAULT_255_1_388
10
4.4820094
20
52.7919317
11
4.1720868
21
52.7919317
0
LINE
8
DEFAULT_255_1_388
10
4.1720868
20
52.7919317
11
4.1720868
21
52.2769
0
LINE
8
DEFAULT_255_1_388
10
4.1720868
20
52.2769
11
3.9986024
21
52.2769
0
LINE
8
DEFAULT_255_1_388
10
3.9986024
20
52.2769
11
3.9986024
21
53.5924898
0
LINE
8
DEFAULT_255_1_388
10
3.9986024
20
53.5924898
11
4.4838165
21
53.5924898
0
LINE
8
DEFAULT_255_1_388
10
4.1720868
20
53.4497267
11
4.1720868
21
52.9337914
0
LINE
8
DEFAULT_255_1_388
10
4.1720868
20
52.9337914
11
4.4838165
21
52.9337914
0
LINE
8
DEFAULT_255_1_388
10
4.4937557
20
53.4497267
11
4.1720868
21
53.4497267
0
ARC
8
DEFAULT_255_1_388
10
4.4885538
20
52.9108334
40
0.6816729
50
78.8380084
51
90.398184
0
ARC
8
DEFAULT_255_1_388
10
4.5353569
20
53.1381796
40
0.449571
50
58.9633273
51
79.0810717
0
ARC
8
DEFAULT_255_1_388
10
4.5692953
20
53.2011823
40
0.3781049
50
48.0194715
51
58.4475592
0
ARC
8
DEFAULT_255_1_388
10
4.5792773
20
53.2107818
40
0.3642936
50
3.3374546
51
48.1766642
0
ARC
8
DEFAULT_255_1_388
10
4.440758
20
53.1908581
40
0.5038766
50
359.9483251
51
4.6822857
0
ARC
8
DEFAULT_255_1_388
10
4.4547503
20
53.1860779
40
0.4899031
50
346.1879032
51
0.5059221
0
ARC
8
DEFAULT_255_1_388
10
4.6076295
20
53.1463763
40
0.3319729
50
310.8832219
51
346.5426612
0
ARC
8
DEFAULT_255_1_388
10
4.5729143
20
53.1932853
40
0.3901853
50
286.6925305
51
310.228778
0
ARC
8
DEFAULT_255_1_388
10
4.5088873
20
53.3946585
40
0.6014737
50
274.6848219
51
287.0247342
0
ARC
8
DEFAULT_255_1_388
10
4.4835422
20
53.6431088
40
0.8511785
50
269.8968222
51
275.0192639
0
ARC
8
DEFAULT_255_1_388
10
4.4866415
20
53.4093144
40
0.4755314
50
269.6596206
51
279.4150542
0
ARC
8
DEFAULT_255_1_388
10
4.5155873
20
53.2415945
40
0.3053379
50
279.2050006
51
294.9901776
0
ARC
8
DEFAULT_255_1_388
10
4.5482508
20
53.1687353
40
0.2255036
50
295.2886769
51
311.2912669
0
ARC
8
DEFAULT_255_1_388
10
4.5562249
20
53.1568938
40
0.2113522
50
311.7853512
51
347.2860549
0
ARC
8
DEFAULT_255_1_388
10
4.445541
20
53.185343
40
0.3256011
50
346.6891629
51
0.1057086
0
ARC
8
DEFAULT_255_1_388
10
4.353287
20
53.1886247
40
0.417863
50
359.63239
51
359.9961329
0
ARC
8
DEFAULT_255_1_388
10
4.4697475
20
53.1913987
40
0.3014155
50
359.4673371
51
15.5931159
0
ARC
8
DEFAULT_255_1_388
10
4.5400538
20
53.2103937
40
0.2285918
50
15.7441779
51
46.620186
0
ARC
8
DEFAULT_255_1_388
10
4.5234298
20
53.1912361
40
0.2539359
50
46.8628482
51
75.6676625
0
ARC
8
DEFAULT_255_1_388
10
4.4903354
20
53.0721243
40
0.3775415
50
75.2763152
51
88.2916439
0
ARC
8
DEFAULT_255_1_388
10
4.4837354
20
52.9719097
40
0.4779221
50
87.8589087
51
88.7986197
0
LINE
8
DEFAULT_255_1_388
10
5.9846371
20
52.4133382
11
5.9846371
21
52.2769
0
LINE
8
DEFAULT_255_1_388
10
5.9846371
20
52.2769
11
5.1226366
21
52.2769
0
LINE
8
DEFAULT_255_1_388
10
5.1226366
20
52.2769
11
5.1226366
21
52.3970741
0
LINE
8
DEFAULT_255_1_388
10
5.1226366
20
52.3970741
11
5.5780331
21
52.9030702
0
LINE
8
DEFAULT_255_1_388
10
5.2644962
20
53.2048607
11
5.0973368
21
53.2048607
0
LINE
8
DEFAULT_255_1_388
10
5.6765216
20
52.795546
11
5.3241314
21
52.4133382
0
LINE
8
DEFAULT_255_1_388
10
5.3241314
20
52.4133382
11
5.9846371
21
52.4133382
0
ARC
8
DEFAULT_255_1_388
10
4.060439
20
54.2450983
40
2.0258655
50
318.5132526
51
320.7829045
0
ARC
8
DEFAULT_255_1_388
10
4.6552347
20
53.7609929
40
1.2589638
50
320.7372878
51
323.9739031
0
ARC
8
DEFAULT_255_1_388
10
5.0961279
20
53.4415554
40
0.7145141
50
323.8962701
51
328.64194
0
ARC
8
DEFAULT_255_1_388
10
5.3263536
20
53.2995545
40
0.4440242
50
328.8294576
51
331.7891185
0
ARC
8
DEFAULT_255_1_388
10
5.4385856
20
53.2416374
40
0.3177517
50
331.4254512
51
352.9365785
0
ARC
8
DEFAULT_255_1_388
10
5.4538856
20
53.238205
40
0.3021496
50
353.2257659
51
0.0166158
0
ARC
8
DEFAULT_255_1_388
10
5.4775617
20
53.2407894
40
0.2784847
50
359.486299
51
15.9343185
0
ARC
8
DEFAULT_255_1_388
10
5.5345884
20
53.2561269
40
0.2194403
50
16.1712913
51
43.5286088
0
ARC
8
DEFAULT_255_1_388
10
5.5432828
20
53.2648191
40
0.2071504
50
43.4417391
51
83.1661095
0
ARC
8
DEFAULT_255_1_388
10
5.5281989
20
53.1819316
40
0.2912888
50
82.160179
51
90.1505708
0
ARC
8
DEFAULT_255_1_388
10
5.5246471
20
53.1215279
40
0.3517025
50
89.5460741
51
102.5418361
0
ARC
8
DEFAULT_255_1_388
10
5.4973191
20
53.2374933
40
0.2325748
50
102.1738499
51
129.206123
0
ARC
8
DEFAULT_255_1_388
10
5.4884644
20
53.2514664
40
0.2161591
50
129.72865
51
135.753947
0
ARC
8
DEFAULT_255_1_388
10
5.5021127
20
53.2405728
40
0.2335433
50
136.1757367
51
166.3673339
0
ARC
8
DEFAULT_255_1_388
10
5.6153815
20
53.2102148
40
0.3507873
50
165.9090694
51
178.8684636
0
ARC
8
DEFAULT_255_1_388
10
5.7129586
20
53.2049263
40
0.4484624
50
178.4391136
51
180.0083808
0
ARC
8
DEFAULT_255_1_388
10
5.5550288
20
53.2093197
40
0.4577138
50
163.2878482
51
180.5581842
0
ARC
8
DEFAULT_255_1_388
10
5.4648329
20
53.2341393
40
0.3641968
50
133.4540601
51
162.947111
0
ARC
8
DEFAULT_255_1_388
10
5.4849211
20
53.2127789
40
0.3935189
50
100.7869829
51
133.4382499
0
ARC
8
DEFAULT_255_1_388
10
5.5240456
20
53.0385399
40
0.5720313
50
89.660664
51
101.3702276
0
ARC
8
DEFAULT_255_1_388
10
5.5315065
20
53.0454263
40
0.5651495
50
78.2172678
51
90.412935
0
ARC
8
DEFAULT_255_1_388
10
5.5714531
20
53.2281511
40
0.378122
50
55.9269121
51
78.4888449
0
ARC
8
DEFAULT_255_1_388
10
5.5935246
20
53.2662187
40
0.3342379
50
47.929771
51
55.4049217
0
ARC
8
DEFAULT_255_1_388
10
5.6049776
20
53.2778618
40
0.3179217
50
4.334829
51
48.0560205
0
ARC
8
DEFAULT_255_1_388
10
5.4817578
20
53.2587487
40
0.442341
50
359.9251713
51
5.5971671
0
ARC
8
DEFAULT_255_1_388
10
5.5299732
20
53.2650728
40
0.3941854
50
337.8914027
51
358.9967534
0
ARC
8
DEFAULT_255_1_388
10
5.2247303
20
53.3828295
40
0.7213271
50
326.9132501
51
338.3508308
0
ARC
8
DEFAULT_255_1_388
10
4.7763414
20
53.6702105
40
1.2538973
50
319.6471833
51
327.0959558
0
ARC
8
DEFAULT_255_1_388
10
4.3450073
20
54.026005
40
1.8129975
50
317.2588228
51
319.9045804
0
LINE
8
DEFAULT_255_1_388
10
4.4745094
20
60.7294317
11
4.1645868
21
60.7294317
0
LINE
8
DEFAULT_255_1_388
10
4.1645868
20
60.7294317
11
4.1645868
21
60.2144
0
LINE
8
DEFAULT_255_1_388
10
4.1645868
20
60.2144
11
3.9911024
21
60.2144
0
LINE
8
DEFAULT_255_1_388
10
3.9911024
20
60.2144
11
3.9911024
21
61.5299898
0
LINE
8
DEFAULT_255_1_388
10
3.9911024
20
61.5299898
11
4.4763165
21
61.5299898
0
LINE
8
DEFAULT_255_1_388
10
4.1645868
20
61.3872267
11
4.1645868
21
60.8712914
0
LINE
8
DEFAULT_255_1_388
10
4.1645868
20
60.8712914
11
4.4763165
21
60.8712914
0
LINE
8
DEFAULT_255_1_388
10
4.4862557
20
61.3872267
11
4.1645868
21
61.3872267
0
ARC
8
DEFAULT_255_1_388
10
4.4810538
20
60.8483334
40
0.6816729
50
78.8380084
51
90.398184
0
ARC
8
DEFAULT_255_1_388
10
4.5278569
20
61.0756796
40
0.449571
50
58.9633273
51
79.0810717
0
ARC
8
DEFAULT_255_1_388
10
4.5617953
20
61.1386823
40
0.3781049
50
48.0194715
51
58.4475592
0
ARC
8
DEFAULT_255_1_388
10
4.5717773
20
61.1482818
40
0.3642936
50
3.3374546
51
48.1766642
0
ARC
8
DEFAULT_255_1_388
10
4.433258
20
61.1283581
40
0.5038766
50
359.9483251
51
4.6822857
0
ARC
8
DEFAULT_255_1_388
10
4.4472503
20
61.1235779
40
0.4899031
50
346.1879032
51
0.5059221
0
ARC
8
DEFAULT_255_1_388
10
4.6001295
20
61.0838763
40
0.3319729
50
310.8832219
51
346.5426612
0
ARC
8
DEFAULT_255_1_388
10
4.5654143
20
61.1307853
40
0.3901853
50
286.6925305
51
310.228778
0
ARC
8
DEFAULT_255_1_388
10
4.5013873
20
61.3321585
40
0.6014737
50
274.6848219
51
287.0247342
0
ARC
8
DEFAULT_255_1_388
10
4.4760422
20
61.5806088
40
0.8511785
50
269.8968222
51
275.0192639
0
ARC
8
DEFAULT_255_1_388
10
4.4791415
20
61.3468144
40
0.4755314
50
269.6596206
51
279.4150542
0
ARC
8
DEFAULT_255_1_388
10
4.5080873
20
61.1790945
40
0.3053379
50
279.2050006
51
294.9901776
0
ARC
8
DEFAULT_255_1_388
10
4.5407508
20
61.1062353
40
0.2255036
50
295.2886769
51
311.2912669
0
ARC
8
DEFAULT_255_1_388
10
4.5487249
20
61.0943938
40
0.2113522
50
311.7853512
51
347.2860549
0
ARC
8
DEFAULT_255_1_388
10
4.438041
20
61.122843
40
0.3256011
50
346.6891629
51
0.1057086
0
ARC
8
DEFAULT_255_1_388
10
4.345787
20
61.1261247
40
0.417863
50
359.63239
51
359.9961329
0
ARC
8
DEFAULT_255_1_388
10
4.4622475
20
61.1288987
40
0.3014155
50
359.4673371
51
15.5931159
0
ARC
8
DEFAULT_255_1_388
10
4.5325538
20
61.1478937
40
0.2285918
50
15.7441779
51
46.620186
0
ARC
8
DEFAULT_255_1_388
10
4.5159298
20
61.1287361
40
0.2539359
50
46.8628482
51
75.6676625
0
ARC
8
DEFAULT_255_1_388
10
4.4828354
20
61.0096243
40
0.3775415
50
75.2763152
51
88.2916439
0
ARC
8
DEFAULT_255_1_388
10
4.4762354
20
60.9094097
40
0.4779221
50
87.8589087
51
88.7986197
0
LINE
8
DEFAULT_255_1_388
10
5.6645038
20
61.5363148
11
5.6645038
21
60.2144
0
LINE
8
DEFAULT_255_1_388
10
5.6645038
20
60.2144
11
5.4964408
21
60.2144
0
LINE
8
DEFAULT_255_1_388
10
5.4964408
20
60.2144
11
5.4964408
21
61.328495
0
LINE
8
DEFAULT_255_1_388
10
5.4964408
20
61.328495
11
5.1594112
21
61.2047066
0
LINE
8
DEFAULT_255_1_388
10
5.1594112
20
61.2047066
11
5.1594112
21
61.3565055
0
LINE
8
DEFAULT_255_1_388
10
5.1594112
20
61.3565055
11
5.6383004
21
61.5363148
0
LINE
8
DEFAULT_255_1_388
10
5.6383004
20
61.5363148
11
5.6645038
21
61.5363148
0
LINE
8
DEFAULT_255_1_388
10
22.4751985
20
69.4738148
11
22.4751985
21
68.1519
0
LINE
8
DEFAULT_255_1_388
10
22.4751985
20
68.1519
11
22.3071355
21
68.1519
0
LINE
8
DEFAULT_255_1_388
10
22.3071355
20
68.1519
11
22.3071355
21
69.265995
0
LINE
8
DEFAULT_255_1_388
10
22.3071355
20
69.265995
11
21.970106
21
69.1422066
0
LINE
8
DEFAULT_255_1_388
10
21.970106
20
69.1422066
11
21.970106
21
69.2940055
0
LINE
8
DEFAULT_255_1_388
10
21.970106
20
69.2940055
11
22.4489951
21
69.4738148
0
LINE
8
DEFAULT_255_1_388
10
22.4489951
20
69.4738148
11
22.4751985
21
69.4738148
0
LINE
8
DEFAULT_255_1_388
10
23.0083015
20
69.4674898
11
23.2323855
21
69.4674898
0
LINE
8
DEFAULT_255_1_388
10
23.2323855
20
69.4674898
11
23.6624822
21
68.3940553
0
LINE
8
DEFAULT_255_1_388
10
23.6624822
20
68.3940553
11
24.0925789
21
69.4674898
0
LINE
8
DEFAULT_255_1_388
10
24.0925789
20
69.4674898
11
24.3175664
21
69.4674898
0
LINE
8
DEFAULT_255_1_388
10
24.3175664
20
69.4674898
11
24.3175664
21
68.1519
0
LINE
8
DEFAULT_255_1_388
10
24.3175664
20
68.1519
11
24.144082
21
68.1519
0
LINE
8
DEFAULT_255_1_388
10
24.144082
20
68.1519
11
24.144082
21
68.664221
0
LINE
8
DEFAULT_255_1_388
10
24.144082
20
68.664221
11
24.1603462
21
69.2172025
0
LINE
8
DEFAULT_255_1_388
10
24.1603462
20
69.2172025
11
23.7284424
21
68.1519
0
LINE
8
DEFAULT_255_1_388
10
23.7284424
20
68.1519
11
23.5956184
21
68.1519
0
LINE
8
DEFAULT_255_1_388
10
23.5956184
20
68.1519
11
23.1646182
21
69.2144918
0
LINE
8
DEFAULT_255_1_388
10
23.1646182
20
69.2144918
11
23.1817859
21
68.664221
0
LINE
8
DEFAULT_255_1_388
10
23.1817859
20
68.664221
11
23.1817859
21
68.1519
0
LINE
8
DEFAULT_255_1_388
10
23.1817859
20
68.1519
11
23.0083015
21
68.1519
0
LINE
8
DEFAULT_255_1_388
10
23.0083015
20
68.1519
11
23.0083015
21
69.4674898
0
LINE
8
DEFAULT_255_1_388
10
22.3956444
20
5.9674898
11
22.7127955
21
5.4633009
0
LINE
8
DEFAULT_255_1_388
10
22.7127955
20
5.4633009
11
23.0281395
21
5.9674898
0
LINE
8
DEFAULT_255_1_388
10
23.0281395
20
5.9674898
11
23.2323451
21
5.9674898
0
LINE
8
DEFAULT_255_1_388
10
23.2323451
20
5.9674898
11
22.8167054
21
5.3151163
0
LINE
8
DEFAULT_255_1_388
10
22.8167054
20
5.3151163
11
23.2422843
21
4.6519
0
LINE
8
DEFAULT_255_1_388
10
23.2422843
20
4.6519
11
23.0362716
21
4.6519
0
LINE
8
DEFAULT_255_1_388
10
23.0362716
20
4.6519
11
22.7127955
21
5.1651246
0
LINE
8
DEFAULT_255_1_388
10
22.7127955
20
5.1651246
11
22.3875123
21
4.6519
0
LINE
8
DEFAULT_255_1_388
10
22.3875123
20
4.6519
11
22.1824032
21
4.6519
0
LINE
8
DEFAULT_255_1_388
10
22.1824032
20
4.6519
11
22.6088856
21
5.3151163
0
LINE
8
DEFAULT_255_1_388
10
22.6088856
20
5.3151163
11
22.1923424
21
5.9674898
0
LINE
8
DEFAULT_255_1_388
10
22.1923424
20
5.9674898
11
22.3956444
21
5.9674898
0
ARC
8
DEFAULT_255_1_388
10
23.8807586
20
5.621272
40
0.3175098
50
338.8762533
51
0.5167111
0
ARC
8
DEFAULT_255_1_388
10
23.899718
20
5.61616
40
0.2979894
50
325.8415285
51
338.4793574
0
ARC
8
DEFAULT_255_1_388
10
23.8557813
20
5.6466242
40
0.351452
50
296.7587686
51
325.7536481
0
ARC
8
DEFAULT_255_1_388
10
23.8229441
20
5.7020363
40
0.4157374
50
296.0927901
51
297.3613472
0
ARC
8
DEFAULT_255_1_388
10
23.8523636
20
4.9637593
40
0.395855
50
47.9007294
51
67.1948823
0
ARC
8
DEFAULT_255_1_388
10
23.8744279
20
4.9914599
40
0.360516
50
35.2363914
51
47.551141
0
ARC
8
DEFAULT_255_1_388
10
23.9038682
20
5.0111093
40
0.3251343
50
359.2759765
51
35.4014143
0
ARC
8
DEFAULT_255_1_388
10
23.8200609
20
5.0028787
40
0.4089365
50
343.1293083
51
0.5775513
0
ARC
8
DEFAULT_255_1_388
10
23.9015722
20
4.9804336
40
0.3244269
50
310.8496669
51
342.7449331
0
ARC
8
DEFAULT_255_1_388
10
23.8545597
20
5.0340913
40
0.3957651
50
281.5472888
51
310.9170406
0
ARC
8
DEFAULT_255_1_388
10
23.8144472
20
5.2087814
40
0.5749654
50
269.619248
51
281.9789564
0
ARC
8
DEFAULT_255_1_388
10
23.8063249
20
5.2088776
40
0.5750649
50
257.4585678
51
270.4285689
0
ARC
8
DEFAULT_255_1_388
10
23.7634769
20
5.0284741
40
0.389671
50
228.7554326
51
257.8484789
0
ARC
8
DEFAULT_255_1_388
10
23.7286255
20
4.9865228
40
0.335154
50
184.0104975
51
228.5071184
0
ARC
8
DEFAULT_255_1_388
10
23.8594647
20
5.006443
40
0.4671891
50
179.9315832
51
185.3253753
0
ARC
8
DEFAULT_255_1_388
10
23.727116
20
5.0106592
40
0.33486
50
145.6796023
51
180.6259786
0
ARC
8
DEFAULT_255_1_388
10
23.7454926
20
4.9978271
40
0.3572723
50
115.5537685
51
145.6415986
0
ARC
8
DEFAULT_255_1_388
10
23.783797
20
4.9292087
40
0.4357296
50
113.243307
51
116.2057839
0
ARC
8
DEFAULT_255_1_388
10
23.7666621
20
5.6489379
40
0.3549126
50
222.9549744
51
244.1370481
0
ARC
8
DEFAULT_255_1_388
10
23.7529265
20
5.6335378
40
0.3343711
50
213.3436887
51
222.6274467
0
ARC
8
DEFAULT_255_1_388
10
23.7313334
20
5.6188653
40
0.3082678
50
180.431584
51
213.271499
0
ARC
8
DEFAULT_255_1_388
10
23.7948333
20
5.6241296
40
0.3718363
50
179.9991191
51
181.1690594
0
ARC
8
DEFAULT_255_1_388
10
23.8420789
20
5.6280072
40
0.4190996
50
164.6186169
51
180.529336
0
ARC
8
DEFAULT_255_1_388
10
23.7410438
20
5.655178
40
0.3144772
50
132.2455553
51
164.5090724
0
ARC
8
DEFAULT_255_1_388
10
23.7733416
20
5.618607
40
0.3632644
50
100.7053914
51
132.1386381
0
ARC
8
DEFAULT_255_1_388
10
23.8076477
20
5.4636118
40
0.5219578
50
89.6730358
51
101.2451698
0
ARC
8
DEFAULT_255_1_388
10
23.8146468
20
5.4832648
40
0.5023124
50
76.287748
51
90.4586006
0
ARC
8
DEFAULT_255_1_388
10
23.849097
20
5.6207671
40
0.3605639
50
47.8240511
51
76.4266241
0
ARC
8
DEFAULT_255_1_388
10
23.8741355
20
5.6500599
40
0.3220463
50
6.9168387
51
47.6262497
0
ARC
8
DEFAULT_255_1_388
10
23.7406808
20
5.6254004
40
0.4575765
50
359.8415968
51
7.9697453
0
ARC
8
DEFAULT_255_1_388
10
23.7791077
20
5.0133519
40
0.2827228
50
359.445363
51
16.9256873
0
ARC
8
DEFAULT_255_1_388
10
23.8318511
20
5.0278781
40
0.2280396
50
17.2920767
51
45.4630727
0
ARC
8
DEFAULT_255_1_388
10
23.8257647
20
5.0226324
40
0.2360485
50
45.30305
51
83.1920945
0
ARC
8
DEFAULT_255_1_388
10
23.8096391
20
4.9324473
40
0.3275527
50
82.2612665
51
90.1434275
0
ARC
8
DEFAULT_255_1_388
10
23.8061668
20
4.9586869
40
0.3013237
50
89.4956434
51
104.8580688
0
ARC
8
DEFAULT_255_1_388
10
23.7862857
20
5.0340455
40
0.2233867
50
104.8856641
51
135.244616
0
ARC
8
DEFAULT_255_1_388
10
23.7918846
20
5.0290352
40
0.2308906
50
135.3399546
51
172.1044062
0
ARC
8
DEFAULT_255_1_388
10
23.8826371
20
5.0116667
40
0.3232034
50
171.2645637
51
180.186429
0
ARC
8
DEFAULT_255_1_388
10
23.8636375
20
5.0080426
40
0.304213
50
179.5154935
51
193.6464289
0
ARC
8
DEFAULT_255_1_388
10
23.7718051
20
4.9846473
40
0.209456
50
193.3540274
51
225.8258581
0
ARC
8
DEFAULT_255_1_388
10
23.7763924
20
4.9926076
40
0.2183738
50
226.4180634
51
255.8552336
0
ARC
8
DEFAULT_255_1_388
10
23.805239
20
5.0979521
40
0.3275812
50
255.4654104
51
268.7987425
0
ARC
8
DEFAULT_255_1_388
10
23.8105567
20
5.1921545
40
0.4218877
50
268.3449238
51
270.0094605
0
ARC
8
DEFAULT_255_1_388
10
23.81318
20
5.1153094
40
0.3450519
50
269.5759586
51
282.0820163
0
ARC
8
DEFAULT_255_1_388
10
23.8384836
20
5.0034363
40
0.2303642
50
281.752014
51
306.6056188
0
ARC
8
DEFAULT_255_1_388
10
23.8495644
20
4.9852802
40
0.2091906
50
307.1346085
51
314.027845
0
ARC
8
DEFAULT_255_1_388
10
23.8455156
20
4.9882459
40
0.2141385
50
314.2552483
51
350.1694025
0
ARC
8
DEFAULT_255_1_388
10
23.7497393
20
5.0090175
40
0.312082
50
349.4140529
51
0.2933014
0
ARC
8
DEFAULT_255_1_388
10
23.808267
20
5.5893924
40
0.2588377
50
89.477747
51
105.729729
0
ARC
8
DEFAULT_255_1_388
10
23.792959
20
5.6462367
40
0.1999733
50
105.9233417
51
135.1660906
0
ARC
8
DEFAULT_255_1_388
10
23.7952621
20
5.6446412
40
0.2027322
50
135.3052302
51
168.9883645
0
ARC
8
DEFAULT_255_1_388
10
23.8883638
20
5.6232996
40
0.2982129
50
168.3801673
51
180.3602268
0
ARC
8
DEFAULT_255_1_388
10
23.8626754
20
5.6190622
40
0.2725291
50
179.5033122
51
194.9125571
0
ARC
8
DEFAULT_255_1_388
10
23.7968161
20
5.6017427
40
0.204431
50
194.9720816
51
224.194444
0
ARC
8
DEFAULT_255_1_388
10
23.7936527
20
5.5991635
40
0.2003651
50
224.2962453
51
262.015664
0
ARC
8
DEFAULT_255_1_388
10
23.809653
20
5.6814315
40
0.2840925
50
261.1245923
51
270.1962896
0
ARC
8
DEFAULT_255_1_388
10
23.8130012
20
5.6603859
40
0.2630559
50
269.4827276
51
285.0987215
0
ARC
8
DEFAULT_255_1_388
10
23.8303448
20
5.5953175
40
0.1957162
50
285.1585357
51
315.9484501
0
ARC
8
DEFAULT_255_1_388
10
23.8203322
20
5.6045315
40
0.2093195
50
316.0413965
51
351.916092
0
ARC
8
DEFAULT_255_1_388
10
23.7378696
20
5.6204323
40
0.2932279
50
351.105835
51
0.1939062
0
ARC
8
DEFAULT_255_1_388
10
23.767433
20
5.6238224
40
0.2636739
50
359.4789618
51
16.0678224
0
ARC
8
DEFAULT_255_1_388
10
23.8209802
20
5.6382721
40
0.2082215
50
16.3252067
51
44.7913869
0
ARC
8
DEFAULT_255_1_388
10
23.8189864
20
5.638332
40
0.2095992
50
44.3957814
51
88.2499162
0
ARC
8
DEFAULT_255_1_388
10
23.8107198
20
5.5695006
40
0.2787189
50
86.9833854
51
90.0192215
0
LINE
8
DEFAULT_255_1_388
10
22.3956444
20
13.9049898
11
22.7127955
21
13.4008009
0
LINE
8
DEFAULT_255_1_388
10
22.7127955
20
13.4008009
11
23.0281395
21
13.9049898
0
LINE
8
DEFAULT_255_1_388
10
23.0281395
20
13.9049898
11
23.2323451
21
13.9049898
0
LINE
8
DEFAULT_255_1_388
10
23.2323451
20
13.9049898
11
22.8167054
21
13.2526163
0
LINE
8
DEFAULT_255_1_388
10
22.8167054
20
13.2526163
11
23.2422843
21
12.5894
0
LINE
8
DEFAULT_255_1_388
10
23.2422843
20
12.5894
11
23.0362716
21
12.5894
0
LINE
8
DEFAULT_255_1_388
10
23.0362716
20
12.5894
11
22.7127955
21
13.1026246
0
LINE
8
DEFAULT_255_1_388
10
22.7127955
20
13.1026246
11
22.3875123
21
12.5894
0
LINE
8
DEFAULT_255_1_388
10
22.3875123
20
12.5894
11
22.1824032
21
12.5894
0
LINE
8
DEFAULT_255_1_388
10
22.1824032
20
12.5894
11
22.6088856
21
13.2526163
0
LINE
8
DEFAULT_255_1_388
10
22.6088856
20
13.2526163
11
22.1923424
21
13.9049898
0
LINE
8
DEFAULT_255_1_388
10
22.1923424
20
13.9049898
11
22.3956444
21
13.9049898
0
LINE
8
DEFAULT_255_1_388
10
24.2497586
20
13.9049898
11
24.2497586
21
13.8110191
0
LINE
8
DEFAULT_255_1_388
10
24.2497586
20
13.8110191
11
23.7049093
21
12.5894
0
LINE
8
DEFAULT_255_1_388
10
23.7049093
20
12.5894
11
23.5296178
21
12.5894
0
LINE
8
DEFAULT_255_1_388
10
23.5296178
20
12.5894
11
24.07266
21
13.767648
0
LINE
8
DEFAULT_255_1_388
10
24.07266
20
13.767648
11
23.3606512
21
13.767648
0
LINE
8
DEFAULT_255_1_388
10
23.3606512
20
13.767648
11
23.3606512
21
13.9049898
0
LINE
8
DEFAULT_255_1_388
10
23.3606512
20
13.9049898
11
24.2497586
21
13.9049898
0
LINE
8
DEFAULT_255_1_388
10
22.3956444
20
21.8424898
11
22.7127955
21
21.3383009
0
LINE
8
DEFAULT_255_1_388
10
22.7127955
20
21.3383009
11
23.0281395
21
21.8424898
0
LINE
8
DEFAULT_255_1_388
10
23.0281395
20
21.8424898
11
23.2323451
21
21.8424898
0
LINE
8
DEFAULT_255_1_388
10
23.2323451
20
21.8424898
11
22.8167054
21
21.1901163
0
LINE
8
DEFAULT_255_1_388
10
22.8167054
20
21.1901163
11
23.2422843
21
20.5269
0
LINE
8
DEFAULT_255_1_388
10
23.2422843
20
20.5269
11
23.0362716
21
20.5269
0
LINE
8
DEFAULT_255_1_388
10
23.0362716
20
20.5269
11
22.7127955
21
21.0401246
0
LINE
8
DEFAULT_255_1_388
10
22.7127955
20
21.0401246
11
22.3875123
21
20.5269
0
LINE
8
DEFAULT_255_1_388
10
22.3875123
20
20.5269
11
22.1824032
21
20.5269
0
LINE
8
DEFAULT_255_1_388
10
22.1824032
20
20.5269
11
22.6088856
21
21.1901163
0
LINE
8
DEFAULT_255_1_388
10
22.6088856
20
21.1901163
11
22.1923424
21
21.8424898
0
LINE
8
DEFAULT_255_1_388
10
22.1923424
20
21.8424898
11
22.3956444
21
21.8424898
0
LINE
8
DEFAULT_255_1_388
10
24.0265782
20
21.8433934
11
24.0563958
21
21.8433934
0
LINE
8
DEFAULT_255_1_388
10
24.0563958
20
21.8433934
11
24.0563958
21
21.7015338
0
LINE
8
DEFAULT_255_1_388
10
24.0563958
20
21.7015338
11
24.0256747
21
21.7015338
0
LINE
8
DEFAULT_255_1_388
10
23.4103473
20
21.0274747
11
23.4103473
21
21.0916278
0
LINE
8
DEFAULT_255_1_388
10
23.5784103
20
21.0699422
11
23.5784103
21
21.0084999
0
ARC
8
DEFAULT_255_1_388
10
24.0315638
20
21.1392826
40
0.562282
50
90.6001079
51
104.5146616
0
ARC
8
DEFAULT_255_1_388
10
23.9878598
20
21.30181
40
0.3939917
50
104.2855758
51
133.8630124
0
ARC
8
DEFAULT_255_1_388
10
24.006285
20
21.2896243
40
0.4155734
50
134.5304124
51
161.6210222
0
ARC
8
DEFAULT_255_1_388
10
24.1922782
20
21.2240421
40
0.6127682
50
161.2850533
51
174.2074364
0
ARC
8
DEFAULT_255_1_388
10
24.3512349
20
21.2021437
40
0.7731446
50
173.7817938
51
174.9251711
0
ARC
8
DEFAULT_255_1_388
10
23.8386543
20
21.046627
40
0.3412588
50
95.8332067
51
138.995412
0
ARC
8
DEFAULT_255_1_388
10
23.8637823
20
20.9027695
40
0.4870358
50
89.8755506
51
97.0540979
0
ARC
8
DEFAULT_255_1_388
10
23.8691212
20
20.9967841
40
0.3930432
50
71.6407016
51
90.6240821
0
ARC
8
DEFAULT_255_1_388
10
23.8860606
20
21.0591433
40
0.3285421
50
39.6368051
51
71.0190743
0
ARC
8
DEFAULT_255_1_388
10
23.8144513
20
20.9972586
40
0.4231706
50
10.6588054
51
39.9044509
0
ARC
8
DEFAULT_255_1_388
10
23.6403059
20
20.9594223
40
0.60133
50
359.6827842
51
11.1326896
0
ARC
8
DEFAULT_255_1_388
10
23.6358395
20
20.9514715
40
0.6058047
50
347.2485908
51
0.4371098
0
ARC
8
DEFAULT_255_1_388
10
23.823418
20
20.9063379
40
0.4128987
50
318.1408565
51
347.6118497
0
ARC
8
DEFAULT_255_1_388
10
23.8599777
20
20.8762903
40
0.3656244
50
275.6342406
51
317.824739
0
ARC
8
DEFAULT_255_1_388
10
23.8351298
20
21.0224827
40
0.513655
50
269.8872513
51
276.7916069
0
ARC
8
DEFAULT_255_1_388
10
23.828949
20
20.9071181
40
0.398323
50
246.9139443
51
270.7436787
0
ARC
8
DEFAULT_255_1_388
10
23.8296686
20
20.8911044
40
0.3839368
50
218.1665534
51
245.8780431
0
ARC
8
DEFAULT_255_1_388
10
23.9286059
20
20.9738903
40
0.5128958
50
191.4115343
51
218.6077624
0
ARC
8
DEFAULT_255_1_388
10
24.1466375
20
21.0227777
40
0.7363054
50
179.6344971
51
191.7836758
0
ARC
8
DEFAULT_255_1_388
10
24.7746249
20
21.0991495
40
1.3642984
50
171.4523743
51
180.3158856
0
ARC
8
DEFAULT_255_1_388
10
24.2801976
20
21.1760895
40
0.8639311
50
157.9802296
51
171.6246761
0
ARC
8
DEFAULT_255_1_388
10
24.0311327
20
21.2754038
40
0.5958004
50
141.4299236
51
157.8541251
0
ARC
8
DEFAULT_255_1_388
10
23.958941
20
21.3264746
40
0.5075416
50
102.871586
51
140.8564533
0
ARC
8
DEFAULT_255_1_388
10
24.0317963
20
21.0519943
40
0.7914163
50
90.377773
51
103.5868422
0
ARC
8
DEFAULT_255_1_388
10
23.8362484
20
20.9839543
40
0.2667015
50
89.8751238
51
126.2072139
0
ARC
8
DEFAULT_255_1_388
10
23.8413955
20
20.9665847
40
0.2838229
50
124.9742447
51
144.8960197
0
ARC
8
DEFAULT_255_1_388
10
23.82162
20
20.9826981
40
0.2583845
50
145.2974778
51
160.2660922
0
ARC
8
DEFAULT_255_1_388
10
24.1672689
20
21.0049151
40
0.5888695
50
179.6512124
51
190.285571
0
ARC
8
DEFAULT_255_1_388
10
23.9767168
20
20.9689968
40
0.3949683
50
190.0944895
51
207.5099647
0
ARC
8
DEFAULT_255_1_388
10
23.913075
20
20.9387177
40
0.3245464
50
207.9585471
51
216.325377
0
ARC
8
DEFAULT_255_1_388
10
23.8748387
20
20.9072712
40
0.2751259
50
215.7661336
51
232.5457193
0
ARC
8
DEFAULT_255_1_388
10
23.8317503
20
20.8525273
40
0.2054668
50
232.8005815
51
270.6605497
0
ARC
8
DEFAULT_255_1_388
10
23.8368927
20
20.8934853
40
0.2464268
50
269.3550767
51
288.474612
0
ARC
8
DEFAULT_255_1_388
10
23.8473434
20
20.8541721
40
0.2058436
50
289.1831976
51
322.9685307
0
ARC
8
DEFAULT_255_1_388
10
23.7785536
20
20.9084279
40
0.2934408
50
322.6007085
51
346.5183319
0
ARC
8
DEFAULT_255_1_388
10
23.6483292
20
20.9416434
40
0.4278249
50
346.2584622
51
358.7739592
0
ARC
8
DEFAULT_255_1_388
10
23.5331867
20
20.9478829
40
0.5430876
50
358.3757628
51
0.0082477
0
ARC
8
DEFAULT_255_1_388
10
23.6188686
20
20.9509856
40
0.4574157
50
359.6211417
51
11.28403
0
ARC
8
DEFAULT_255_1_388
10
23.7625292
20
20.9809535
40
0.3106708
50
11.0483152
51
31.8145585
0
ARC
8
DEFAULT_255_1_388
10
23.7972997
20
20.9998045
40
0.2711963
50
32.3028554
51
38.0820598
0
ARC
8
DEFAULT_255_1_388
10
23.844623
20
21.0426717
40
0.2075566
50
36.8249851
51
85.741667
0
ARC
8
DEFAULT_255_1_388
10
23.8370643
20
20.9863065
40
0.2643487
50
85.0150021
51
90.050843
0
LINE
8
DEFAULT_255_1_388
10
22.3956444
20
29.7799898
11
22.7127955
21
29.2758009
0
LINE
8
DEFAULT_255_1_388
10
22.7127955
20
29.2758009
11
23.0281395
21
29.7799898
0
LINE
8
DEFAULT_255_1_388
10
23.0281395
20
29.7799898
11
23.2323451
21
29.7799898
0
LINE
8
DEFAULT_255_1_388
10
23.2323451
20
29.7799898
11
22.8167054
21
29.1276163
0
LINE
8
DEFAULT_255_1_388
10
22.8167054
20
29.1276163
11
23.2422843
21
28.4644
0
LINE
8
DEFAULT_255_1_388
10
23.2422843
20
28.4644
11
23.0362716
21
28.4644
0
LINE
8
DEFAULT_255_1_388
10
23.0362716
20
28.4644
11
22.7127955
21
28.9776246
0
LINE
8
DEFAULT_255_1_388
10
22.7127955
20
28.9776246
11
22.3875123
21
28.4644
0
LINE
8
DEFAULT_255_1_388
10
22.3875123
20
28.4644
11
22.1824032
21
28.4644
0
LINE
8
DEFAULT_255_1_388
10
22.1824032
20
28.4644
11
22.6088856
21
29.1276163
0
LINE
8
DEFAULT_255_1_388
10
22.6088856
20
29.1276163
11
22.1923424
21
29.7799898
0
LINE
8
DEFAULT_255_1_388
10
22.1923424
20
29.7799898
11
22.3956444
21
29.7799898
0
LINE
8
DEFAULT_255_1_388
10
23.6109386
20
29.0896666
11
23.477211
21
29.1240021
0
LINE
8
DEFAULT_255_1_388
10
23.477211
20
29.1240021
11
23.5440748
21
29.7799898
0
LINE
8
DEFAULT_255_1_388
10
23.5440748
20
29.7799898
11
24.2181339
21
29.7799898
0
LINE
8
DEFAULT_255_1_388
10
24.2181339
20
29.7799898
11
24.2181339
21
29.6254803
0
LINE
8
DEFAULT_255_1_388
10
24.2181339
20
29.6254803
11
23.6859344
21
29.6254803
0
LINE
8
DEFAULT_255_1_388
10
23.6859344
20
29.6254803
11
23.6461776
21
29.2667652
0
LINE
8
DEFAULT_255_1_388
10
23.4302257
20
28.8104652
11
23.5883495
21
28.8104652
0
LINE
8
DEFAULT_255_1_388
10
23.6552132
20
29.1258092
11
23.6109386
21
29.0896666
0
ARC
8
DEFAULT_255_1_388
10
23.8548389
20
28.9090241
40
0.4141476
50
93.7181681
51
120.253934
0
ARC
8
DEFAULT_255_1_388
10
23.8654442
20
28.8181284
40
0.5055616
50
89.9660471
51
94.2495185
0
ARC
8
DEFAULT_255_1_388
10
23.8700263
20
28.8844154
40
0.4392953
50
73.8045384
51
90.5585736
0
ARC
8
DEFAULT_255_1_388
10
23.8964521
20
28.980952
40
0.3392225
50
41.3071072
51
73.543002
0
ARC
8
DEFAULT_255_1_388
10
23.8496341
20
28.9406461
40
0.4009977
50
13.5075837
51
41.2174839
0
ARC
8
DEFAULT_255_1_388
10
23.6649439
20
28.8922907
40
0.5918864
50
1.1330171
51
13.8830737
0
ARC
8
DEFAULT_255_1_388
10
23.5053084
20
28.8837522
40
0.7516787
50
359.9925091
51
1.5431298
0
ARC
8
DEFAULT_255_1_388
10
23.6497699
20
28.8791027
40
0.6072343
50
347.8572712
51
0.4294349
0
ARC
8
DEFAULT_255_1_388
10
23.8466834
20
28.8344898
40
0.4053482
50
323.6727442
51
348.1674594
0
ARC
8
DEFAULT_255_1_388
10
23.8797799
20
28.8143175
40
0.3667495
50
316.8171818
51
323.1486802
0
ARC
8
DEFAULT_255_1_388
10
23.8866922
20
28.8101612
40
0.358869
50
281.839603
51
316.5458142
0
ARC
8
DEFAULT_255_1_388
10
23.844421
20
28.9851363
40
0.5388223
50
269.5770964
51
282.4214641
0
ARC
8
DEFAULT_255_1_388
10
23.8364131
20
28.961093
40
0.5147801
50
256.2425863
51
270.4486481
0
ARC
8
DEFAULT_255_1_388
10
23.8027658
20
28.8261124
40
0.3756708
50
228.9024379
51
256.33135
0
ARC
8
DEFAULT_255_1_388
10
23.7944639
20
28.8130054
40
0.360344
50
193.7536029
51
228.5272638
0
ARC
8
DEFAULT_255_1_388
10
23.9337204
20
28.8538463
40
0.5053599
50
184.9244437
51
194.4976052
0
ARC
8
DEFAULT_255_1_388
10
23.9553845
20
28.8578722
40
0.3700839
50
187.3596909
51
198.6733728
0
ARC
8
DEFAULT_255_1_388
10
23.8373088
20
28.8169373
40
0.2451195
50
198.4453795
51
217.7945479
0
ARC
8
DEFAULT_255_1_388
10
23.8040261
20
28.7933563
40
0.2043754
50
218.2887146
51
228.5613203
0
ARC
8
DEFAULT_255_1_388
10
23.8150268
20
28.8081902
40
0.2227819
50
228.9652423
51
258.1237049
0
ARC
8
DEFAULT_255_1_388
10
23.8381705
20
28.9072964
40
0.3245374
50
257.7260585
51
270.4013717
0
ARC
8
DEFAULT_255_1_388
10
23.8432203
20
28.8572255
40
0.2744726
50
269.4204315
51
286.420998
0
ARC
8
DEFAULT_255_1_388
10
23.8599259
20
28.7965705
40
0.2115721
50
286.7250065
51
320.6004665
0
ARC
8
DEFAULT_255_1_388
10
23.8168174
20
28.8315527
40
0.2670878
50
320.6712228
51
344.5440474
0
ARC
8
DEFAULT_255_1_388
10
23.6866888
20
28.8697394
40
0.4026927
50
344.241448
51
356.735803
0
ARC
8
DEFAULT_255_1_388
10
23.5463195
20
28.8813656
40
0.5435085
50
356.3547471
51
0.0507222
0
ARC
8
DEFAULT_255_1_388
10
23.696546
20
28.8848812
40
0.3932934
50
359.5579289
51
12.9534322
0
ARC
8
DEFAULT_255_1_388
10
23.81523
20
28.9136586
40
0.2711827
50
12.6489751
51
41.608121
0
ARC
8
DEFAULT_255_1_388
10
23.841146
20
28.9356946
40
0.2371737
50
41.7851122
51
85.9892156
0
ARC
8
DEFAULT_255_1_388
10
23.827277
20
28.8441738
40
0.3295244
50
84.6965848
51
90.0672125
0
ARC
8
DEFAULT_255_1_388
10
23.8246338
20
28.7690118
40
0.4046926
50
89.6804991
51
99.161352
0
ARC
8
DEFAULT_255_1_388
10
23.8015347
20
28.9070848
40
0.2647044
50
98.9836248
51
113.8905702
0
ARC
8
DEFAULT_255_1_388
10
23.7757022
20
28.9680118
40
0.1985386
50
114.195234
51
127.3641866
0
LINE
8
DEFAULT_255_1_388
10
22.2633444
20
37.7174898
11
22.5804955
21
37.2133009
0
LINE
8
DEFAULT_255_1_388
10
22.5804955
20
37.2133009
11
22.8958395
21
37.7174898
0
LINE
8
DEFAULT_255_1_388
10
22.8958395
20
37.7174898
11
23.1000451
21
37.7174898
0
LINE
8
DEFAULT_255_1_388
10
23.1000451
20
37.7174898
11
22.6844054
21
37.0651163
0
LINE
8
DEFAULT_255_1_388
10
22.6844054
20
37.0651163
11
23.1099843
21
36.4019
0
LINE
8
DEFAULT_255_1_388
10
23.1099843
20
36.4019
11
22.9039716
21
36.4019
0
LINE
8
DEFAULT_255_1_388
10
22.9039716
20
36.4019
11
22.5804955
21
36.9151246
0
LINE
8
DEFAULT_255_1_388
10
22.5804955
20
36.9151246
11
22.2552123
21
36.4019
0
LINE
8
DEFAULT_255_1_388
10
22.2552123
20
36.4019
11
22.0501032
21
36.4019
0
LINE
8
DEFAULT_255_1_388
10
22.0501032
20
36.4019
11
22.4765856
21
37.0651163
0
LINE
8
DEFAULT_255_1_388
10
22.4765856
20
37.0651163
11
22.0600424
21
37.7174898
0
LINE
8
DEFAULT_255_1_388
10
22.0600424
20
37.7174898
11
22.2633444
21
37.7174898
0
LINE
8
DEFAULT_255_1_388
10
23.9737919
20
37.7174898
11
23.9737919
21
36.843743
0
LINE
8
DEFAULT_255_1_388
10
23.9737919
20
36.843743
11
24.1563119
21
36.843743
0
LINE
8
DEFAULT_255_1_388
10
24.1563119
20
36.843743
11
24.1563119
21
36.7073048
0
LINE
8
DEFAULT_255_1_388
10
24.1563119
20
36.7073048
11
23.9737919
21
36.7073048
0
LINE
8
DEFAULT_255_1_388
10
23.9737919
20
36.7073048
11
23.9737919
21
36.4019
0
LINE
8
DEFAULT_255_1_388
10
23.9737919
20
36.4019
11
23.8057289
21
36.4019
0
LINE
8
DEFAULT_255_1_388
10
23.8057289
20
36.4019
11
23.8057289
21
36.7073048
0
LINE
8
DEFAULT_255_1_388
10
23.8057289
20
36.7073048
11
23.2066657
21
36.7073048
0
LINE
8
DEFAULT_255_1_388
10
23.2066657
20
36.7073048
11
23.2066657
21
36.8057933
0
LINE
8
DEFAULT_255_1_388
10
23.2066657
20
36.8057933
11
23.7957897
21
37.7174898
0
LINE
8
DEFAULT_255_1_388
10
23.7957897
20
37.7174898
11
23.9737919
21
37.7174898
0
LINE
8
DEFAULT_255_1_388
10
23.7858505
20
37.4527455
11
23.3964142
21
36.843743
0
LINE
8
DEFAULT_255_1_388
10
23.3964142
20
36.843743
11
23.8057289
21
36.843743
0
LINE
8
DEFAULT_255_1_388
10
23.8057289
20
36.843743
11
23.8057289
21
37.488888
0
LINE
8
DEFAULT_255_1_388
10
23.8057289
20
37.488888
11
23.7858505
21
37.4527455
0
LINE
8
DEFAULT_255_1_388
10
22.3956444
20
45.6549898
11
22.7127955
21
45.1508009
0
LINE
8
DEFAULT_255_1_388
10
22.7127955
20
45.1508009
11
23.0281395
21
45.6549898
0
LINE
8
DEFAULT_255_1_388
10
23.0281395
20
45.6549898
11
23.2323451
21
45.6549898
0
LINE
8
DEFAULT_255_1_388
10
23.2323451
20
45.6549898
11
22.8167054
21
45.0026163
0
LINE
8
DEFAULT_255_1_388
10
22.8167054
20
45.0026163
11
23.2422843
21
44.3394
0
LINE
8
DEFAULT_255_1_388
10
23.2422843
20
44.3394
11
23.0362716
21
44.3394
0
LINE
8
DEFAULT_255_1_388
10
23.0362716
20
44.3394
11
22.7127955
21
44.8526246
0
LINE
8
DEFAULT_255_1_388
10
22.7127955
20
44.8526246
11
22.3875123
21
44.3394
0
LINE
8
DEFAULT_255_1_388
10
22.3875123
20
44.3394
11
22.1824032
21
44.3394
0
LINE
8
DEFAULT_255_1_388
10
22.1824032
20
44.3394
11
22.6088856
21
45.0026163
0
LINE
8
DEFAULT_255_1_388
10
22.6088856
20
45.0026163
11
22.1923424
21
45.6549898
0
LINE
8
DEFAULT_255_1_388
10
22.1923424
20
45.6549898
11
22.3956444
21
45.6549898
0
LINE
8
DEFAULT_255_1_388
10
23.6434669
20
44.9420775
11
23.6434669
21
45.0785157
0
LINE
8
DEFAULT_255_1_388
10
23.6434669
20
45.0785157
11
23.7690624
21
45.0785157
0
LINE
8
DEFAULT_255_1_388
10
23.5549176
20
45.3098282
11
23.3877582
21
45.3098282
0
LINE
8
DEFAULT_255_1_388
10
23.3760118
20
44.6863688
11
23.5440748
21
44.6863688
0
LINE
8
DEFAULT_255_1_388
10
23.7690624
20
44.9420775
11
23.6434669
21
44.9420775
0
ARC
8
DEFAULT_255_1_388
10
23.765785
20
45.4601922
40
0.3816905
50
270.491971
51
281.8953028
0
ARC
8
DEFAULT_255_1_388
10
23.7929277
20
45.3362199
40
0.2547877
50
281.6690378
51
301.2943765
0
ARC
8
DEFAULT_255_1_388
10
23.8120728
20
45.3011926
40
0.2149197
50
301.7834992
51
311.754567
0
ARC
8
DEFAULT_255_1_388
10
23.822377
20
45.289765
40
0.1995326
50
311.7325027
51
354.2803031
0
ARC
8
DEFAULT_255_1_388
10
23.7406186
20
45.303828
40
0.2823461
50
353.0941646
51
0.1174696
0
ARC
8
DEFAULT_255_1_388
10
23.6887744
20
45.3091874
40
0.3342238
50
359.1804452
51
15.0452323
0
ARC
8
DEFAULT_255_1_388
10
23.8401802
20
45.3533546
40
0.1765747
50
13.957816
51
77.6713812
0
ARC
8
DEFAULT_255_1_388
10
23.7967038
20
45.1975464
40
0.3381982
50
76.111571
51
90.7028736
0
ARC
8
DEFAULT_255_1_388
10
23.790045
20
45.228325
40
0.3074046
50
89.5321574
51
103.5319393
0
ARC
8
DEFAULT_255_1_388
10
23.7674833
20
45.3182443
40
0.2147041
50
103.2930114
51
133.5619756
0
ARC
8
DEFAULT_255_1_388
10
23.7624775
20
45.3249351
40
0.2064084
50
133.8349761
51
173.5343225
0
ARC
8
DEFAULT_255_1_388
10
23.8438432
20
45.3105144
40
0.2889266
50
172.5097183
51
180.1360699
0
ARC
8
DEFAULT_255_1_388
10
23.7368196
20
45.314388
40
0.3490913
50
155.3483706
51
180.7484035
0
ARC
8
DEFAULT_255_1_388
10
23.7313172
20
45.3111519
40
0.3454798
50
131.5745177
51
154.4799474
0
ARC
8
DEFAULT_255_1_388
10
23.7665455
20
45.2755422
40
0.3955058
50
96.9874487
51
131.9690874
0
ARC
8
DEFAULT_255_1_388
10
23.7912347
20
45.1354407
40
0.537622
50
89.8592909
51
97.7827481
0
ARC
8
DEFAULT_255_1_388
10
23.7966456
20
45.105936
40
0.5671399
50
78.3654493
51
90.4132586
0
ARC
8
DEFAULT_255_1_388
10
23.8369097
20
45.2925918
40
0.3762034
50
56.6229818
51
78.6387103
0
ARC
8
DEFAULT_255_1_388
10
23.8610927
20
45.3348846
40
0.3275964
50
47.0254604
51
56.085558
0
ARC
8
DEFAULT_255_1_388
10
23.8633178
20
45.3393189
40
0.3228382
50
10.9207523
51
46.777927
0
ARC
8
DEFAULT_255_1_388
10
23.7098772
20
45.3038401
40
0.4802559
50
359.6364235
51
11.6087615
0
ARC
8
DEFAULT_255_1_388
10
23.9162937
20
45.3021404
40
0.273833
50
332.3549969
51
359.7179765
0
ARC
8
DEFAULT_255_1_388
10
23.8431338
20
45.3368285
40
0.3547505
50
325.2332381
51
332.8746682
0
ARC
8
DEFAULT_255_1_388
10
23.8602921
20
45.3248763
40
0.3338396
50
292.9803892
51
325.2391113
0
ARC
8
DEFAULT_255_1_388
10
23.8292117
20
45.3853679
40
0.4016959
50
292.542178
51
293.6931461
0
ARC
8
DEFAULT_255_1_388
10
23.8735688
20
44.6588036
40
0.372079
50
57.643292
51
72.8626085
0
ARC
8
DEFAULT_255_1_388
10
23.9134523
20
44.7234273
40
0.2961455
50
36.7246661
51
57.4701329
0
ARC
8
DEFAULT_255_1_388
10
23.912168
20
44.724847
40
0.2963321
50
8.054535
51
36.3561529
0
ARC
8
DEFAULT_255_1_388
10
23.8151352
20
44.7074073
40
0.3948682
50
359.8316595
51
8.5873361
0
ARC
8
DEFAULT_255_1_388
10
23.7728827
20
44.701997
40
0.4371398
50
343.9831631
51
0.557075
0
ARC
8
DEFAULT_255_1_388
10
23.8725876
20
44.6746963
40
0.3337749
50
311.6358204
51
343.7652116
0
ARC
8
DEFAULT_255_1_388
10
23.830013
20
44.7226955
40
0.3979351
50
279.7829743
51
311.625622
0
ARC
8
DEFAULT_255_1_388
10
23.7961265
20
44.8843642
40
0.5630417
50
269.7285092
51
280.3857694
0
ARC
8
DEFAULT_255_1_388
10
23.7891578
20
44.8797241
40
0.5584119
50
256.6827433
51
270.4412869
0
ARC
8
DEFAULT_255_1_388
10
23.7510565
20
44.7239698
40
0.3980715
50
229.4223821
51
256.8554507
0
ARC
8
DEFAULT_255_1_388
10
23.7044118
20
44.6714683
40
0.3278564
50
181.8183354
51
229.6455015
0
ARC
8
DEFAULT_255_1_388
10
23.8213727
20
44.6861825
40
0.4453611
50
179.9760419
51
183.2330638
0
ARC
8
DEFAULT_255_1_388
10
23.802028
20
44.6838781
40
0.2579652
50
179.4467996
51
196.2871626
0
ARC
8
DEFAULT_255_1_388
10
23.7471733
20
44.6688709
40
0.2011057
50
196.5661293
51
227.7059371
0
ARC
8
DEFAULT_255_1_388
10
23.7656341
20
44.6895155
40
0.2287994
50
227.7653015
51
257.8763321
0
ARC
8
DEFAULT_255_1_388
10
23.7909424
20
44.7955961
40
0.3378385
50
257.4583525
51
270.4267406
0
ARC
8
DEFAULT_255_1_388
10
23.7960673
20
44.828223
40
0.3704652
50
269.5965319
51
280.8788143
0
ARC
8
DEFAULT_255_1_388
10
23.8218901
20
44.6992529
40
0.2389415
50
280.6347277
51
299.8594068
0
ARC
8
DEFAULT_255_1_388
10
23.8433671
20
44.6584736
40
0.19289
50
300.3575552
51
314.5515667
0
ARC
8
DEFAULT_255_1_388
10
23.8340347
20
44.6653025
40
0.204312
50
315.0730962
51
345.0429362
0
ARC
8
DEFAULT_255_1_388
10
23.7301854
20
44.6955539
40
0.31246
50
344.598526
51
357.9270698
0
ARC
8
DEFAULT_255_1_388
10
23.6292159
20
44.7024705
40
0.4136265
50
357.4755098
51
0.0224936
0
ARC
8
DEFAULT_255_1_388
10
23.7445037
20
44.7052099
40
0.2983498
50
359.5051035
51
13.4236939
0
ARC
8
DEFAULT_255_1_388
10
23.8420127
20
44.7301637
40
0.1977186
50
12.9497905
51
48.7550905
0
ARC
8
DEFAULT_255_1_388
10
23.8215048
20
44.7021373
40
0.2323321
50
49.509109
51
72.1832965
0
ARC
8
DEFAULT_255_1_388
10
23.7812517
20
44.5826632
40
0.358397
50
71.9008458
51
84.3555134
0
ARC
8
DEFAULT_255_1_388
10
23.7630911
20
44.4294712
40
0.512641
50
84.019632
51
89.3326067
0
LINE
8
DEFAULT_255_1_388
10
22.3956444
20
53.5924898
11
22.7127955
21
53.0883009
0
LINE
8
DEFAULT_255_1_388
10
22.7127955
20
53.0883009
11
23.0281395
21
53.5924898
0
LINE
8
DEFAULT_255_1_388
10
23.0281395
20
53.5924898
11
23.2323451
21
53.5924898
0
LINE
8
DEFAULT_255_1_388
10
23.2323451
20
53.5924898
11
22.8167054
21
52.9401163
0
LINE
8
DEFAULT_255_1_388
10
22.8167054
20
52.9401163
11
23.2422843
21
52.2769
0
LINE
8
DEFAULT_255_1_388
10
23.2422843
20
52.2769
11
23.0362716
21
52.2769
0
LINE
8
DEFAULT_255_1_388
10
23.0362716
20
52.2769
11
22.7127955
21
52.7901246
0
LINE
8
DEFAULT_255_1_388
10
22.7127955
20
52.7901246
11
22.3875123
21
52.2769
0
LINE
8
DEFAULT_255_1_388
10
22.3875123
20
52.2769
11
22.1824032
21
52.2769
0
LINE
8
DEFAULT_255_1_388
10
22.1824032
20
52.2769
11
22.6088856
21
52.9401163
0
LINE
8
DEFAULT_255_1_388
10
22.6088856
20
52.9401163
11
22.1923424
21
53.5924898
0
LINE
8
DEFAULT_255_1_388
10
22.1923424
20
53.5924898
11
22.3956444
21
53.5924898
0
LINE
8
DEFAULT_255_1_388
10
24.2624085
20
52.4133382
11
24.2624085
21
52.2769
0
LINE
8
DEFAULT_255_1_388
10
24.2624085
20
52.2769
11
23.4004081
21
52.2769
0
LINE
8
DEFAULT_255_1_388
10
23.4004081
20
52.2769
11
23.4004081
21
52.3970741
0
LINE
8
DEFAULT_255_1_388
10
23.4004081
20
52.3970741
11
23.8558045
21
52.9030702
0
LINE
8
DEFAULT_255_1_388
10
23.5422677
20
53.2048607
11
23.3751083
21
53.2048607
0
LINE
8
DEFAULT_255_1_388
10
23.9542931
20
52.795546
11
23.6019029
21
52.4133382
0
LINE
8
DEFAULT_255_1_388
10
23.6019029
20
52.4133382
11
24.2624085
21
52.4133382
0
ARC
8
DEFAULT_255_1_388
10
22.3382105
20
54.2450983
40
2.0258655
50
318.5132526
51
320.7829045
0
ARC
8
DEFAULT_255_1_388
10
22.9330062
20
53.7609929
40
1.2589638
50
320.7372878
51
323.9739031
0
ARC
8
DEFAULT_255_1_388
10
23.3738994
20
53.4415554
40
0.7145141
50
323.8962701
51
328.64194
0
ARC
8
DEFAULT_255_1_388
10
23.6041251
20
53.2995545
40
0.4440242
50
328.8294576
51
331.7891185
0
ARC
8
DEFAULT_255_1_388
10
23.7163571
20
53.2416374
40
0.3177517
50
331.4254512
51
352.9365785
0
ARC
8
DEFAULT_255_1_388
10
23.7316571
20
53.238205
40
0.3021496
50
353.2257659
51
0.0166158
0
ARC
8
DEFAULT_255_1_388
10
23.7553332
20
53.2407894
40
0.2784847
50
359.486299
51
15.9343185
0
ARC
8
DEFAULT_255_1_388
10
23.8123599
20
53.2561269
40
0.2194403
50
16.1712913
51
43.5286088
0
ARC
8
DEFAULT_255_1_388
10
23.8210543
20
53.2648191
40
0.2071504
50
43.4417391
51
83.1661095
0
ARC
8
DEFAULT_255_1_388
10
23.8059704
20
53.1819316
40
0.2912888
50
82.160179
51
90.1505708
0
ARC
8
DEFAULT_255_1_388
10
23.8024186
20
53.1215279
40
0.3517025
50
89.5460741
51
102.5418361
0
ARC
8
DEFAULT_255_1_388
10
23.7750906
20
53.2374933
40
0.2325748
50
102.1738499
51
129.206123
0
ARC
8
DEFAULT_255_1_388
10
23.7662359
20
53.2514664
40
0.2161591
50
129.72865
51
135.753947
0
ARC
8
DEFAULT_255_1_388
10
23.7798841
20
53.2405728
40
0.2335433
50
136.1757367
51
166.3673339
0
ARC
8
DEFAULT_255_1_388
10
23.893153
20
53.2102148
40
0.3507873
50
165.9090694
51
178.8684636
0
ARC
8
DEFAULT_255_1_388
10
23.9907301
20
53.2049263
40
0.4484624
50
178.4391136
51
180.0083808
0
ARC
8
DEFAULT_255_1_388
10
23.8328003
20
53.2093197
40
0.4577138
50
163.2878482
51
180.5581842
0
ARC
8
DEFAULT_255_1_388
10
23.7426044
20
53.2341393
40
0.3641968
50
133.4540601
51
162.947111
0
ARC
8
DEFAULT_255_1_388
10
23.7626926
20
53.2127789
40
0.3935189
50
100.7869829
51
133.4382499
0
ARC
8
DEFAULT_255_1_388
10
23.8018171
20
53.0385399
40
0.5720313
50
89.660664
51
101.3702276
0
ARC
8
DEFAULT_255_1_388
10
23.809278
20
53.0454263
40
0.5651495
50
78.2172678
51
90.412935
0
ARC
8
DEFAULT_255_1_388
10
23.8492245
20
53.2281511
40
0.378122
50
55.9269121
51
78.4888449
0
ARC
8
DEFAULT_255_1_388
10
23.8712961
20
53.2662187
40
0.3342379
50
47.929771
51
55.4049217
0
ARC
8
DEFAULT_255_1_388
10
23.8827491
20
53.2778618
40
0.3179217
50
4.334829
51
48.0560205
0
ARC
8
DEFAULT_255_1_388
10
23.7595293
20
53.2587487
40
0.442341
50
359.9251713
51
5.5971671
0
ARC
8
DEFAULT_255_1_388
10
23.8077447
20
53.2650728
40
0.3941854
50
337.8914027
51
358.9967534
0
ARC
8
DEFAULT_255_1_388
10
23.5025017
20
53.3828295
40
0.7213271
50
326.9132501
51
338.3508308
0
ARC
8
DEFAULT_255_1_388
10
23.0541129
20
53.6702105
40
1.2538973
50
319.6471833
51
327.0959558
0
ARC
8
DEFAULT_255_1_388
10
22.6227787
20
54.026005
40
1.8129975
50
317.2588228
51
319.9045804
0
LINE
8
DEFAULT_255_1_388
10
22.4037444
20
61.5299898
11
22.7208955
21
61.0258009
0
LINE
8
DEFAULT_255_1_388
10
22.7208955
20
61.0258009
11
23.0362395
21
61.5299898
0
LINE
8
DEFAULT_255_1_388
10
23.0362395
20
61.5299898
11
23.2404451
21
61.5299898
0
LINE
8
DEFAULT_255_1_388
10
23.2404451
20
61.5299898
11
22.8248054
21
60.8776163
0
LINE
8
DEFAULT_255_1_388
10
22.8248054
20
60.8776163
11
23.2503843
21
60.2144
0
LINE
8
DEFAULT_255_1_388
10
23.2503843
20
60.2144
11
23.0443716
21
60.2144
0
LINE
8
DEFAULT_255_1_388
10
23.0443716
20
60.2144
11
22.7208955
21
60.7276246
0
LINE
8
DEFAULT_255_1_388
10
22.7208955
20
60.7276246
11
22.3956123
21
60.2144
0
LINE
8
DEFAULT_255_1_388
10
22.3956123
20
60.2144
11
22.1905032
21
60.2144
0
LINE
8
DEFAULT_255_1_388
10
22.1905032
20
60.2144
11
22.6169856
21
60.8776163
0
LINE
8
DEFAULT_255_1_388
10
22.6169856
20
60.8776163
11
22.2004424
21
61.5299898
0
LINE
8
DEFAULT_255_1_388
10
22.2004424
20
61.5299898
11
22.4037444
21
61.5299898
0
LINE
8
DEFAULT_255_1_388
10
23.9578752
20
61.5363148
11
23.9578752
21
60.2144
0
LINE
8
DEFAULT_255_1_388
10
23.9578752
20
60.2144
11
23.7898123
21
60.2144
0
LINE
8
DEFAULT_255_1_388
10
23.7898123
20
60.2144
11
23.7898123
21
61.328495
0
LINE
8
DEFAULT_255_1_388
10
23.7898123
20
61.328495
11
23.4527827
21
61.2047066
0
LINE
8
DEFAULT_255_1_388
10
23.4527827
20
61.2047066
11
23.4527827
21
61.3565055
0
LINE
8
DEFAULT_255_1_388
10
23.4527827
20
61.3565055
11
23.9316719
21
61.5363148
0
LINE
8
DEFAULT_255_1_388
10
23.9316719
20
61.5363148
11
23.9578752
21
61.5363148
0
ENDSEC
0
EOF