0
SECTION
2
HEADER
9
$MEASUREMENT
70
1
0
ENDSEC
0
SECTION
2
TABLES
0
TABLE
2
LTYPE
0
LTYPE
72
65
70
64
2
CONTINUOUS
3
______
73
0
40
0
0
ENDTAB
0
TABLE
2
LAYER
0
LAYER
2
DEFAULT_255_2_778
70
0
62
255
6
CONTINUOUS
0
ENDTAB
0
ENDSEC
0
SECTION
2
ENTITIES
0
LINE
8
DEFAULT_255_2_778
10
0.1322834
20
8.598975
11
2.7780834
21
8.598975
0
LINE
8
DEFAULT_255_2_778
10
2.7780834
20
8.598975
11
2.7780834
21
7.805275
0
LINE
8
DEFAULT_255_2_778
10
2.7780834
20
7.805275
11
0.1322834
21
7.805275
0
LINE
8
DEFAULT_255_2_778
10
0.1322834
20
7.805275
11
0.1322834
21
8.598975
0
LINE
8
DEFAULT_255_2_778
10
2.7780834
20
8.598975
11
5.4238834
21
8.598975
0
LINE
8
DEFAULT_255_2_778
10
5.4238834
20
8.598975
11
5.4238834
21
7.805275
0
LINE
8
DEFAULT_255_2_778
10
5.4238834
20
7.805275
11
2.7780834
21
7.805275
0
LINE
8
DEFAULT_255_2_778
10
2.7780834
20
7.805275
11
2.7780834
21
8.598975
0
LINE
8
DEFAULT_255_2_778
10
5.4239834
20
8.598975
11
8.0697834
21
8.598975
0
LINE
8
DEFAULT_255_2_778
10
8.0697834
20
8.598975
11
8.0697834
21
7.805275
0
LINE
8
DEFAULT_255_2_778
10
8.0697834
20
7.805275
11
5.4239834
21
7.805275
0
LINE
8
DEFAULT_255_2_778
10
5.4239834
20
7.805275
11
5.4239834
21
8.598975
0
LINE
8
DEFAULT_255_2_778
10
8.0697834
20
8.598975
11
10.7155834
21
8.598975
0
LINE
8
DEFAULT_255_2_778
10
10.7155834
20
8.598975
11
10.7155834
21
7.805275
0
LINE
8
DEFAULT_255_2_778
10
10.7155834
20
7.805275
11
8.0697834
21
7.805275
0
LINE
8
DEFAULT_255_2_778
10
8.0697834
20
7.805275
11
8.0697834
21
8.598975
0
LINE
8
DEFAULT_255_2_778
10
10.7155834
20
8.598975
11
13.3613834
21
8.598975
0
LINE
8
DEFAULT_255_2_778
10
13.3613834
20
8.598975
11
13.3613834
21
7.805275
0
LINE
8
DEFAULT_255_2_778
10
13.3613834
20
7.805275
11
10.7155834
21
7.805275
0
LINE
8
DEFAULT_255_2_778
10
10.7155834
20
7.805275
11
10.7155834
21
8.598975
0
LINE
8
DEFAULT_255_2_778
10
13.3614834
20
8.598975
11
16.0072834
21
8.598975
0
LINE
8
DEFAULT_255_2_778
10
16.0072834
20
8.598975
11
16.0072834
21
7.805275
0
LINE
8
DEFAULT_255_2_778
10
16.0072834
20
7.805275
11
13.3614834
21
7.805275
0
LINE
8
DEFAULT_255_2_778
10
13.3614834
20
7.805275
11
13.3614834
21
8.598975
0
LINE
8
DEFAULT_255_2_778
10
16.007325
20
8.5989333
11
16.801025
21
8.5989333
0
LINE
8
DEFAULT_255_2_778
10
16.801025
20
8.5989333
11
16.801025
21
7.8052333
0
LINE
8
DEFAULT_255_2_778
10
16.801025
20
7.8052333
11
16.007325
21
7.8052333
0
LINE
8
DEFAULT_255_2_778
10
16.007325
20
7.8052333
11
16.007325
21
8.5989333
0
LINE
8
DEFAULT_255_2_778
10
16.007325
20
5.9531333
11
16.801025
21
5.9531333
0
LINE
8
DEFAULT_255_2_778
10
16.801025
20
5.9531333
11
16.801025
21
3.3072333
0
LINE
8
DEFAULT_255_2_778
10
16.801025
20
3.3072333
11
16.007325
21
3.3072333
0
LINE
8
DEFAULT_255_2_778
10
16.007325
20
3.3072333
11
16.007325
21
5.9531333
0
LINE
8
DEFAULT_255_2_778
10
16.007325
20
3.3073166
11
16.801025
21
3.3073166
0
LINE
8
DEFAULT_255_2_778
10
16.801025
20
3.3073166
11
16.801025
21
0.6615166
0
LINE
8
DEFAULT_255_2_778
10
16.801025
20
0.6615166
11
16.007325
21
0.6615166
0
LINE
8
DEFAULT_255_2_778
10
16.007325
20
0.6615166
11
16.007325
21
3.3073166
0
LINE
8
DEFAULT_255_2_778
10
16.007325
20
0.6615665
11
16.801025
21
0.6615665
0
LINE
8
DEFAULT_255_2_778
10
16.801025
20
0.6615665
11
16.801025
21
-2.7780335
0
LINE
8
DEFAULT_255_2_778
10
16.801025
20
-2.7780335
11
16.007325
21
-2.7780335
0
LINE
8
DEFAULT_255_2_778
10
16.007325
20
-2.7780335
11
16.007325
21
0.6615665
0
LINE
8
DEFAULT_255_2_778
10
16.007325
20
7.8052665
11
16.801025
21
7.8052665
0
LINE
8
DEFAULT_255_2_778
10
16.801025
20
7.8052665
11
16.801025
21
5.9531665
0
LINE
8
DEFAULT_255_2_778
10
16.801025
20
5.9531665
11
16.007325
21
5.9531665
0
LINE
8
DEFAULT_255_2_778
10
16.007325
20
5.9531665
11
16.007325
21
7.8052665
0
LINE
8
DEFAULT_255_2_778
10
0.1323002
20
7.8052665
11
16.0073002
21
7.8052665
0
LINE
8
DEFAULT_255_2_778
10
16.0073002
20
7.8052665
11
16.0073002
21
-2.7780335
0
LINE
8
DEFAULT_255_2_778
10
16.0073002
20
-2.7780335
11
0.1323002
21
-2.7780335
0
LINE
8
DEFAULT_255_2_778
10
0.1323002
20
-2.7780335
11
0.1323002
21
7.8052665
0
ENDSEC
0
EOF