0
SECTION
2
HEADER
9
$MEASUREMENT
70
1
0
ENDSEC
0
SECTION
2
TABLES
0
TABLE
2
LTYPE
0
LTYPE
72
65
70
64
2
CONTINUOUS
3
______
73
0
40
0
0
ENDTAB
0
TABLE
2
LAYER
0
LAYER
2
DEFAULT_255_2_778
70
0
62
255
6
CONTINUOUS
0
LAYER
2
DEFAULT_255_2_622
70
0
62
255
6
CONTINUOUS
0
ENDTAB
0
ENDSEC
0
SECTION
2
ENTITIES
0
LINE
8
DEFAULT_255_2_778
10
1.9843834
20
16.536375
11
4.6301834
21
16.536375
0
LINE
8
DEFAULT_255_2_778
10
4.6301834
20
16.536375
11
4.6301834
21
15.742675
0
LINE
8
DEFAULT_255_2_778
10
4.6301834
20
15.742675
11
1.9843834
21
15.742675
0
LINE
8
DEFAULT_255_2_778
10
1.9843834
20
15.742675
11
1.9843834
21
16.536375
0
LINE
8
DEFAULT_255_2_778
10
4.6301834
20
16.536375
11
7.2759834
21
16.536375
0
LINE
8
DEFAULT_255_2_778
10
7.2759834
20
16.536375
11
7.2759834
21
15.742675
0
LINE
8
DEFAULT_255_2_778
10
7.2759834
20
15.742675
11
4.6301834
21
15.742675
0
LINE
8
DEFAULT_255_2_778
10
4.6301834
20
15.742675
11
4.6301834
21
16.536375
0
LINE
8
DEFAULT_255_2_778
10
7.2760834
20
16.536375
11
9.9218834
21
16.536375
0
LINE
8
DEFAULT_255_2_778
10
9.9218834
20
16.536375
11
9.9218834
21
15.742675
0
LINE
8
DEFAULT_255_2_778
10
9.9218834
20
15.742675
11
7.2760834
21
15.742675
0
LINE
8
DEFAULT_255_2_778
10
7.2760834
20
15.742675
11
7.2760834
21
16.536375
0
LINE
8
DEFAULT_255_2_778
10
9.9218584
20
16.5364333
11
12.5676584
21
16.5364333
0
LINE
8
DEFAULT_255_2_778
10
12.5676584
20
16.5364333
11
12.5676584
21
15.7427333
0
LINE
8
DEFAULT_255_2_778
10
12.5676584
20
15.7427333
11
9.9218584
21
15.7427333
0
LINE
8
DEFAULT_255_2_778
10
9.9218584
20
15.7427333
11
9.9218584
21
16.5364333
0
LINE
8
DEFAULT_255_2_778
10
14.1551584
20
16.5364333
11
14.9489584
21
16.5364333
0
LINE
8
DEFAULT_255_2_778
10
14.9489584
20
16.5364333
11
14.9489584
21
15.7427333
0
LINE
8
DEFAULT_255_2_778
10
14.9489584
20
15.7427333
11
14.1551584
21
15.7427333
0
LINE
8
DEFAULT_255_2_778
10
14.1551584
20
15.7427333
11
14.1551584
21
16.5364333
0
LINE
8
DEFAULT_255_2_778
10
14.1551584
20
13.8906333
11
14.9489584
21
13.8906333
0
LINE
8
DEFAULT_255_2_778
10
14.9489584
20
13.8906333
11
14.9489584
21
11.2447333
0
LINE
8
DEFAULT_255_2_778
10
14.9489584
20
11.2447333
11
14.1551584
21
11.2447333
0
LINE
8
DEFAULT_255_2_778
10
14.1551584
20
11.2447333
11
14.1551584
21
13.8906333
0
LINE
8
DEFAULT_255_2_778
10
14.1552085
20
11.2447415
11
14.9490085
21
11.2447415
0
LINE
8
DEFAULT_255_2_778
10
14.9490085
20
11.2447415
11
14.9490085
21
8.5989415
0
LINE
8
DEFAULT_255_2_778
10
14.9490085
20
8.5989415
11
14.1552085
21
8.5989415
0
LINE
8
DEFAULT_255_2_778
10
14.1552085
20
8.5989415
11
14.1552085
21
11.2447415
0
LINE
8
DEFAULT_255_2_778
10
14.1552085
20
3.3072415
11
14.9490085
21
3.3072415
0
LINE
8
DEFAULT_255_2_778
10
14.9490085
20
3.3072415
11
14.9490085
21
-0.1323585
0
LINE
8
DEFAULT_255_2_778
10
14.9490085
20
-0.1323585
11
14.1552085
21
-0.1323585
0
LINE
8
DEFAULT_255_2_778
10
14.1552085
20
-0.1323585
11
14.1552085
21
3.3072415
0
LINE
8
DEFAULT_255_2_778
10
1.9844085
20
1.4551415
11
3.3073085
21
1.4551415
0
LINE
8
DEFAULT_255_2_778
10
3.3073085
20
1.4551415
11
3.3073085
21
-0.1323585
0
LINE
8
DEFAULT_255_2_778
10
3.3073085
20
-0.1323585
11
1.9844085
21
-0.1323585
0
LINE
8
DEFAULT_255_2_778
10
1.9844085
20
-0.1323585
11
1.9844085
21
1.4551415
0
LINE
8
DEFAULT_255_2_778
10
3.3073084
20
1.45515
11
6.7469084
21
1.45515
0
LINE
8
DEFAULT_255_2_778
10
6.7469084
20
1.45515
11
6.7469084
21
-0.13235
0
LINE
8
DEFAULT_255_2_778
10
6.7469084
20
-0.13235
11
3.3073084
21
-0.13235
0
LINE
8
DEFAULT_255_2_778
10
3.3073084
20
-0.13235
11
3.3073084
21
1.45515
0
LINE
8
DEFAULT_255_2_778
10
6.7468417
20
1.455175
11
8.0697417
21
1.455175
0
LINE
8
DEFAULT_255_2_778
10
8.0697417
20
1.455175
11
8.0697417
21
0.661475
0
LINE
8
DEFAULT_255_2_778
10
8.0697417
20
0.661475
11
6.7468417
21
0.661475
0
LINE
8
DEFAULT_255_2_778
10
6.7468417
20
0.661475
11
6.7468417
21
1.455175
0
LINE
8
DEFAULT_255_2_778
10
6.7468417
20
0.661375
11
8.0697417
21
0.661375
0
LINE
8
DEFAULT_255_2_778
10
8.0697417
20
0.661375
11
8.0697417
21
-0.132325
0
LINE
8
DEFAULT_255_2_778
10
8.0697417
20
-0.132325
11
6.7468417
21
-0.132325
0
LINE
8
DEFAULT_255_2_778
10
6.7468417
20
-0.132325
11
6.7468417
21
0.661375
0
LINE
8
DEFAULT_255_2_778
10
8.0697834
20
0.661375
11
10.7155834
21
0.661375
0
LINE
8
DEFAULT_255_2_778
10
10.7155834
20
0.661375
11
10.7155834
21
-0.132325
0
LINE
8
DEFAULT_255_2_778
10
10.7155834
20
-0.132325
11
8.0697834
21
-0.132325
0
LINE
8
DEFAULT_255_2_778
10
8.0697834
20
-0.132325
11
8.0697834
21
0.661375
0
LINE
8
DEFAULT_255_2_778
10
8.0697834
20
1.455175
11
10.7155834
21
1.455175
0
LINE
8
DEFAULT_255_2_778
10
10.7155834
20
1.455175
11
10.7155834
21
0.661475
0
LINE
8
DEFAULT_255_2_778
10
10.7155834
20
0.661475
11
8.0697834
21
0.661475
0
LINE
8
DEFAULT_255_2_778
10
8.0697834
20
0.661475
11
8.0697834
21
1.455175
0
LINE
8
DEFAULT_255_2_778
10
10.7156084
20
1.45515
11
14.1552084
21
1.45515
0
LINE
8
DEFAULT_255_2_778
10
14.1552084
20
1.45515
11
14.1552084
21
-0.13235
0
LINE
8
DEFAULT_255_2_778
10
14.1552084
20
-0.13235
11
10.7156084
21
-0.13235
0
LINE
8
DEFAULT_255_2_778
10
10.7156084
20
-0.13235
11
10.7156084
21
1.45515
0
LINE
8
DEFAULT_255_2_778
10
1.9843835
20
15.7426498
11
14.1551835
21
15.7426498
0
LINE
8
DEFAULT_255_2_778
10
14.1551835
20
15.7426498
11
14.1551835
21
1.4551498
0
LINE
8
DEFAULT_255_2_778
10
14.1551835
20
1.4551498
11
1.9843835
21
1.4551498
0
LINE
8
DEFAULT_255_2_778
10
1.9843835
20
1.4551498
11
1.9843835
21
15.7426498
0
LINE
8
DEFAULT_255_2_622
10
7.2941081
20
9.7949
11
7.0978332
21
10.4434605
0
LINE
8
DEFAULT_255_2_622
10
7.0978332
20
10.4434605
11
6.258118
21
10.4434605
0
LINE
8
DEFAULT_255_2_622
10
6.258118
20
10.4434605
11
6.0652565
21
9.7949
0
LINE
8
DEFAULT_255_2_622
10
6.0652565
20
9.7949
11
5.7443897
21
9.7949
0
LINE
8
DEFAULT_255_2_622
10
5.7443897
20
9.7949
11
6.54485
21
12.2799109
0
LINE
8
DEFAULT_255_2_622
10
6.54485
20
12.2799109
11
6.8128079
21
12.2799109
0
LINE
8
DEFAULT_255_2_622
10
6.8128079
20
12.2799109
11
7.6149749
21
9.7949
0
LINE
8
DEFAULT_255_2_622
10
7.6149749
20
9.7949
11
7.2941081
21
9.7949
0
LINE
8
DEFAULT_255_2_622
10
6.6779756
20
11.8429859
11
6.3400414
21
10.7131252
0
LINE
8
DEFAULT_255_2_622
10
6.3400414
20
10.7131252
11
7.0176165
21
10.7131252
0
LINE
8
DEFAULT_255_2_622
10
7.0176165
20
10.7131252
11
6.6779756
21
11.8429859
0
LINE
8
DEFAULT_255_2_622
10
9.0281542
20
12.2799109
11
9.0281542
21
10.629495
0
LINE
8
DEFAULT_255_2_622
10
9.0281542
20
10.629495
11
9.3046458
21
10.629495
0
LINE
8
DEFAULT_255_2_622
10
9.3046458
20
10.629495
11
9.3046458
21
10.3717775
0
LINE
8
DEFAULT_255_2_622
10
9.3046458
20
10.3717775
11
9.0281542
21
10.3717775
0
LINE
8
DEFAULT_255_2_622
10
9.0281542
20
10.3717775
11
9.0281542
21
9.7949
0
LINE
8
DEFAULT_255_2_622
10
9.0281542
20
9.7949
11
8.7260615
21
9.7949
0
LINE
8
DEFAULT_255_2_622
10
8.7260615
20
9.7949
11
8.7260615
21
10.3717775
0
LINE
8
DEFAULT_255_2_622
10
8.7260615
20
10.3717775
11
7.7873555
21
10.3717775
0
LINE
8
DEFAULT_255_2_622
10
7.7873555
20
10.3717775
11
7.7873555
21
10.557812
0
LINE
8
DEFAULT_255_2_622
10
7.7873555
20
10.557812
11
8.7107009
21
12.2799109
0
LINE
8
DEFAULT_255_2_622
10
8.7107009
20
12.2799109
11
9.0281542
21
12.2799109
0
LINE
8
DEFAULT_255_2_622
10
8.7260615
20
11.8105579
11
8.1218762
21
10.629495
0
LINE
8
DEFAULT_255_2_622
10
8.1218762
20
10.629495
11
8.7260615
21
10.629495
0
LINE
8
DEFAULT_255_2_622
10
8.7260615
20
10.629495
11
8.7260615
21
11.8105579
0
LINE
8
DEFAULT_255_2_622
10
7.4841588
20
6.3858901
11
7.4841588
21
6.184495
0
LINE
8
DEFAULT_255_2_622
10
6.4515821
20
5.525694
11
6.4515821
21
4.6398969
0
LINE
8
DEFAULT_255_2_622
10
6.4515821
20
4.6398969
11
6.1511962
21
4.6398969
0
LINE
8
DEFAULT_255_2_622
10
6.1511962
20
4.6398969
11
6.1511962
21
7.1965908
0
LINE
8
DEFAULT_255_2_622
10
6.1511962
20
7.1965908
11
6.4242743
21
7.1965908
0
LINE
8
DEFAULT_255_2_622
10
6.4242743
20
7.1965908
11
6.439635
21
6.9917822
0
LINE
8
DEFAULT_255_2_622
10
7.1837729
20
6.1725479
11
7.1837729
21
6.3568756
0
LINE
8
DEFAULT_255_2_622
10
6.4515821
20
6.7460119
11
6.4515821
21
5.7851183
0
ARC
8
DEFAULT_255_2_622
10
5.5265652
20
6.1763645
40
1.9576105
50
353.5204348
51
0.237967
0
ARC
8
DEFAULT_255_2_622
10
6.2607647
20
6.0898681
40
1.2183438
50
343.5414432
51
353.665766
0
ARC
8
DEFAULT_255_2_622
10
6.7293578
20
5.9480737
40
0.728785
50
327.2144202
51
343.7947267
0
ARC
8
DEFAULT_255_2_622
10
6.8725866
20
5.8637367
40
0.5627434
50
323.7289287
51
326.5367736
0
ARC
8
DEFAULT_255_2_622
10
6.9134125
20
5.8249245
40
0.5069172
50
275.1045794
51
324.5358123
0
ARC
8
DEFAULT_255_2_622
10
6.88115
20
6.0214202
40
0.705656
50
269.9044677
51
276.2942954
0
ARC
8
DEFAULT_255_2_622
10
6.8731298
20
5.9019524
40
0.5862271
50
251.7390147
51
270.6688922
0
ARC
8
DEFAULT_255_2_622
10
6.8448974
20
5.7971562
40
0.4779002
50
214.6130356
51
251.016422
0
ARC
8
DEFAULT_255_2_622
10
6.8915937
20
6.7133095
40
0.5308613
50
125.4178067
51
148.3608511
0
ARC
8
DEFAULT_255_2_622
10
6.8566079
20
6.7457891
40
0.4842135
50
92.4466465
51
124.271314
0
ARC
8
DEFAULT_255_2_622
10
6.874553
20
6.5899763
40
0.6407495
50
89.973154
51
93.4551056
0
ARC
8
DEFAULT_255_2_622
10
6.8816319
20
6.5402213
40
0.6905376
50
75.229466
51
90.5624549
0
ARC
8
DEFAULT_255_2_622
10
6.9373309
20
6.7460291
40
0.4773322
50
34.8937463
51
75.3960689
0
ARC
8
DEFAULT_255_2_622
10
6.7493791
20
6.6184192
40
0.7044988
50
17.5491357
51
34.6618362
0
ARC
8
DEFAULT_255_2_622
10
6.3079377
20
6.4728052
40
1.1693149
50
7.6698273
51
17.8299982
0
ARC
8
DEFAULT_255_2_622
10
5.6105575
20
6.3747437
40
1.8735482
50
0.842052
51
7.7954836
0
ARC
8
DEFAULT_255_2_622
10
5.1215033
20
6.357263
40
2.362829
50
0.6941909
51
1.0916118
0
ARC
8
DEFAULT_255_2_622
10
5.5756471
20
6.3628446
40
1.6081368
50
359.7873328
51
5.562006
0
ARC
8
DEFAULT_255_2_622
10
6.1975307
20
6.4252609
40
0.9831332
50
5.4543216
51
13.7803181
0
ARC
8
DEFAULT_255_2_622
10
6.5994528
20
6.5260682
40
0.5687718
50
13.561932
51
26.7168735
0
ARC
8
DEFAULT_255_2_622
10
6.7545836
20
6.599781
40
0.3970819
50
27.2797626
51
32.8431364
0
ARC
8
DEFAULT_255_2_622
10
6.8260021
20
6.6466283
40
0.3116726
50
32.7280523
51
80.9083863
0
ARC
8
DEFAULT_255_2_622
10
6.7838547
20
6.4608096
40
0.5019664
50
79.5093086
51
90.3278303
0
ARC
8
DEFAULT_255_2_622
10
6.7729499
20
6.6275232
40
0.3353407
50
88.627408
51
141.9066997
0
ARC
8
DEFAULT_255_2_622
10
6.9058189
20
6.5136595
40
0.5102144
50
141.0488482
51
152.9092221
0
ARC
8
DEFAULT_255_2_622
10
6.8546027
20
5.9901681
40
0.4521847
50
206.9662011
51
224.8518419
0
ARC
8
DEFAULT_255_2_622
10
6.7733557
20
5.9151506
40
0.3417029
50
225.5425474
51
271.0631633
0
ARC
8
DEFAULT_255_2_622
10
6.7843899
20
6.0325378
40
0.4590552
50
269.4141168
51
270.0007684
0
ARC
8
DEFAULT_255_2_622
10
6.7890451
20
6.0198087
40
0.4463502
50
269.4032173
51
285.1648686
0
ARC
8
DEFAULT_255_2_622
10
6.8256756
20
5.8865166
40
0.3081179
50
285.074487
51
327.5331851
0
ARC
8
DEFAULT_255_2_622
10
6.6732208
20
5.9832031
40
0.4886468
50
327.5642379
51
343.089468
0
ARC
8
DEFAULT_255_2_622
10
6.3338257
20
6.0902276
40
0.8445055
50
342.8401864
51
352.4577851
0
ARC
8
DEFAULT_255_2_622
10
5.7949473
20
6.1651292
40
1.3885577
50
352.3124493
51
358.6917513
0
ARC
8
DEFAULT_255_2_622
10
5.3471039
20
6.1825501
40
1.8366962
50
358.46741
51
359.6879768
0
LINE
8
DEFAULT_255_2_622
10
8.0712768
20
7.1965908
11
8.3819031
21
6.5224292
0
LINE
8
DEFAULT_255_2_622
10
8.3819031
20
6.5224292
11
8.6976497
21
7.1965908
0
LINE
8
DEFAULT_255_2_622
10
8.6976497
20
7.1965908
11
9.0475311
21
7.1965908
0
LINE
8
DEFAULT_255_2_622
10
9.0475311
20
7.1965908
11
8.54575
21
6.2834858
0
LINE
8
DEFAULT_255_2_622
10
8.54575
20
6.2834858
11
9.0594782
21
5.3499
0
LINE
8
DEFAULT_255_2_622
10
9.0594782
20
5.3499
11
8.7130104
21
5.3499
0
LINE
8
DEFAULT_255_2_622
10
8.7130104
20
5.3499
11
8.3870233
21
6.041129
0
LINE
8
DEFAULT_255_2_622
10
8.3870233
20
6.041129
11
8.0593296
21
5.3499
0
LINE
8
DEFAULT_255_2_622
10
8.0593296
20
5.3499
11
7.711155
21
5.3499
0
LINE
8
DEFAULT_255_2_622
10
7.711155
20
5.3499
11
8.2248832
21
6.2834858
0
LINE
8
DEFAULT_255_2_622
10
8.2248832
20
6.2834858
11
7.7248089
21
7.1965908
0
LINE
8
DEFAULT_255_2_622
10
7.7248089
20
7.1965908
11
8.0712768
21
7.1965908
0
LINE
8
DEFAULT_255_2_778
10
14.155225
20
8.5989166
11
14.948925
21
8.5989166
0
LINE
8
DEFAULT_255_2_778
10
14.948925
20
8.5989166
11
14.948925
21
5.9531166
0
LINE
8
DEFAULT_255_2_778
10
14.948925
20
5.9531166
11
14.155225
21
5.9531166
0
LINE
8
DEFAULT_255_2_778
10
14.155225
20
5.9531166
11
14.155225
21
8.5989166
0
LINE
8
DEFAULT_255_2_778
10
14.155175
20
5.9530831
11
14.948875
21
5.9530831
0
LINE
8
DEFAULT_255_2_778
10
14.948875
20
5.9530831
11
14.948875
21
3.3071831
0
LINE
8
DEFAULT_255_2_778
10
14.948875
20
3.3071831
11
14.155175
21
3.3071831
0
LINE
8
DEFAULT_255_2_778
10
14.155175
20
3.3071831
11
14.155175
21
5.9530831
0
LINE
8
DEFAULT_255_2_778
10
12.567675
20
16.5363831
11
14.155175
21
16.5363831
0
LINE
8
DEFAULT_255_2_778
10
14.155175
20
16.5363831
11
14.155175
21
15.7426831
0
LINE
8
DEFAULT_255_2_778
10
14.155175
20
15.7426831
11
12.567675
21
15.7426831
0
LINE
8
DEFAULT_255_2_778
10
12.567675
20
15.7426831
11
12.567675
21
16.5363831
0
LINE
8
DEFAULT_255_2_778
10
14.155225
20
15.7426416
11
14.948925
21
15.7426416
0
LINE
8
DEFAULT_255_2_778
10
14.948925
20
15.7426416
11
14.948925
21
13.8905416
0
LINE
8
DEFAULT_255_2_778
10
14.948925
20
13.8905416
11
14.155225
21
13.8905416
0
LINE
8
DEFAULT_255_2_778
10
14.155225
20
13.8905416
11
14.155225
21
15.7426416
0
ENDSEC
0
EOF