0
SECTION
2
HEADER
9
$MEASUREMENT
70
1
0
ENDSEC
0
SECTION
2
TABLES
0
TABLE
2
LTYPE
0
LTYPE
72
65
70
64
2
CONTINUOUS
3
______
73
0
40
0
0
ENDTAB
0
TABLE
2
LAYER
0
LAYER
2
DEFAULT_255_2_778
70
0
62
255
6
CONTINUOUS
0
LAYER
2
DEFAULT_255_2_159
70
0
62
255
6
CONTINUOUS
0
ENDTAB
0
ENDSEC
0
SECTION
2
ENTITIES
0
ARC
8
DEFAULT_255_2_778
10
0.6603366
20
-1.0571781
40
0.5280127
50
89.8710178
51
180.1289822
0
ARC
8
DEFAULT_255_2_778
10
16.2730355
20
-1.0571566
40
0.527991
50
359.8686797
51
90.1204794
0
ARC
8
DEFAULT_255_2_778
10
16.2730355
20
-5.2928769
40
0.5279911
50
269.8795206
51
0.1313203
0
ARC
8
DEFAULT_255_2_778
10
0.6603366
20
-5.2928554
40
0.5280127
50
179.8710178
51
270.1289822
0
LINE
8
DEFAULT_255_2_778
10
0.6615252
20
-0.5291667
11
16.2719252
21
-0.5291667
0
LINE
8
DEFAULT_255_2_778
10
16.8010252
20
-1.0583667
11
16.8010252
21
-5.2916667
0
LINE
8
DEFAULT_255_2_778
10
16.2719252
20
-5.8208667
11
0.6615252
21
-5.8208667
0
LINE
8
DEFAULT_255_2_778
10
0.1323252
20
-5.2916667
11
0.1323252
21
-1.0583667
0
LINE
8
DEFAULT_255_2_159
10
3.1575981
20
-3.260255
11
2.744376
21
-3.260255
0
LINE
8
DEFAULT_255_2_159
10
2.744376
20
-3.260255
11
2.744376
21
-4.0614
0
LINE
8
DEFAULT_255_2_159
10
2.744376
20
-4.0614
11
2.4871663
21
-4.0614
0
LINE
8
DEFAULT_255_2_159
10
2.4871663
20
-4.0614
11
2.4871663
21
-2.0149664
0
LINE
8
DEFAULT_255_2_159
10
2.4871663
20
-2.0149664
11
3.1393264
21
-2.0149664
0
LINE
8
DEFAULT_255_2_159
10
2.744376
20
-2.2370382
11
2.744376
21
-3.0395887
0
LINE
8
DEFAULT_255_2_159
10
2.744376
20
-3.0395887
11
3.1393264
21
-3.0395887
0
LINE
8
DEFAULT_255_2_159
10
3.1407319
20
-2.2370382
11
2.744376
21
-2.2370382
0
ARC
8
DEFAULT_255_2_159
10
3.1458763
20
-2.78201
40
0.7670716
50
76.2185257
51
90.4892477
0
ARC
8
DEFAULT_255_2_159
10
3.2045451
20
-2.5531821
40
0.530861
50
43.8020172
51
76.4849468
0
ARC
8
DEFAULT_255_2_159
10
3.1690123
20
-2.5811998
40
0.5759159
50
10.3313226
51
43.3669221
0
ARC
8
DEFAULT_255_2_159
10
2.9192534
20
-2.6359066
40
0.8314855
50
359.6888684
51
10.9534393
0
ARC
8
DEFAULT_255_2_159
10
2.8512613
20
-2.6467691
40
0.8994876
50
348.9274984
51
0.4043209
0
ARC
8
DEFAULT_255_2_159
10
3.1591238
20
-2.7096684
40
0.585282
50
329.2234425
51
349.1823303
0
ARC
8
DEFAULT_255_2_159
10
3.2489038
20
-2.7580157
40
0.4834269
50
315.7896534
51
328.7018087
0
ARC
8
DEFAULT_255_2_159
10
3.2245909
20
-2.7287924
40
0.5212467
50
284.5173727
51
315.3506772
0
ARC
8
DEFAULT_255_2_159
10
3.152419
20
-2.4752503
40
0.7848107
50
271.8468586
51
284.9781323
0
ARC
8
DEFAULT_255_2_159
10
3.1378017
20
-2.2621637
40
0.9982876
50
271.136271
51
272.2912264
0
ARC
8
DEFAULT_255_2_159
10
3.1431445
20
-2.5820932
40
0.4575114
50
269.5218385
51
282.9269392
0
ARC
8
DEFAULT_255_2_159
10
3.1812417
20
-2.736572
40
0.2984362
50
282.4328741
51
314.2454411
0
ARC
8
DEFAULT_255_2_159
10
3.1853988
20
-2.7440444
40
0.2901914
50
314.6868632
51
318.3271255
0
ARC
8
DEFAULT_255_2_159
10
3.1507247
20
-2.7176919
40
0.3336296
50
318.905872
51
343.5104143
0
ARC
8
DEFAULT_255_2_159
10
2.9789487
20
-2.6636796
40
0.5136806
50
343.1720285
51
355.8493284
0
ARC
8
DEFAULT_255_2_159
10
2.7757765
20
-2.6442576
40
0.7177409
50
355.4768818
51
0.0818076
0
ARC
8
DEFAULT_255_2_159
10
2.9073834
20
-2.6391857
40
0.5861474
50
359.604394
51
11.6988715
0
ARC
8
DEFAULT_255_2_159
10
3.0916228
20
-2.5991006
40
0.3976119
50
11.4258642
51
34.1662724
0
ARC
8
DEFAULT_255_2_159
10
3.1284555
20
-2.5778257
40
0.3552015
50
34.6634328
51
40.302314
0
ARC
8
DEFAULT_255_2_159
10
3.1638062
20
-2.5468982
40
0.3082378
50
40.1682769
51
84.6027867
0
ARC
8
DEFAULT_255_2_159
10
3.1415908
20
-2.6770936
40
0.4400564
50
83.3174924
51
90.1118235
0
LINE
8
DEFAULT_255_2_159
10
5.0733186
20
-4.0614
11
4.8147034
21
-4.0614
0
LINE
8
DEFAULT_255_2_159
10
4.5954426
20
-3.1393805
11
4.7781599
21
-3.1393805
0
LINE
8
DEFAULT_255_2_159
10
4.7781599
20
-3.1393805
11
4.7781599
21
-2.9777459
0
LINE
8
DEFAULT_255_2_159
10
4.2806067
20
-2.9622853
11
4.0318301
21
-2.9622853
0
LINE
8
DEFAULT_255_2_159
10
5.025531
20
-2.9665018
11
5.025531
21
-3.7339144
0
LINE
8
DEFAULT_255_2_159
10
5.0733186
20
-4.0389117
11
5.0733186
21
-4.0614
0
LINE
8
DEFAULT_255_2_159
10
4.7781599
20
-3.6861268
11
4.7781599
21
-3.3235033
0
LINE
8
DEFAULT_255_2_159
10
4.7781599
20
-3.3235033
11
4.6376082
21
-3.3235033
0
ARC
8
DEFAULT_255_2_159
10
5.0177226
20
-3.9712655
40
0.2221284
50
195.1861257
51
203.9397898
0
ARC
8
DEFAULT_255_2_159
10
5.2396439
20
-3.9092354
40
0.4525527
50
190.0951862
51
195.405222
0
ARC
8
DEFAULT_255_2_159
10
5.5916089
20
-3.8451346
40
0.8103055
50
186.7055377
51
190.1952096
0
ARC
8
DEFAULT_255_2_159
10
6.0357668
20
-3.7911261
40
1.2577327
50
184.7624432
51
186.7864484
0
ARC
8
DEFAULT_255_2_159
10
4.3560522
20
-3.6117157
40
0.5121657
50
310.0138963
51
326.3455731
0
ARC
8
DEFAULT_255_2_159
10
4.4496715
20
-3.7221419
40
0.3673974
50
269.2796046
51
309.9046019
0
ARC
8
DEFAULT_255_2_159
10
4.4404939
20
-3.4969331
40
0.5925948
50
257.6471671
51
270.4407293
0
ARC
8
DEFAULT_255_2_159
10
4.3955888
20
-3.6906578
40
0.393756
50
231.8569235
51
257.9995575
0
ARC
8
DEFAULT_255_2_159
10
4.3789979
20
-3.7171712
40
0.3626721
50
224.9857051
51
231.331292
0
ARC
8
DEFAULT_255_2_159
10
4.3922128
20
-3.7079148
40
0.3785728
50
194.0334627
51
224.5626623
0
ARC
8
DEFAULT_255_2_159
10
4.5808644
20
-3.6561762
40
0.574157
50
181.1498315
51
194.4774031
0
ARC
8
DEFAULT_255_2_159
10
4.7470759
20
-3.6468962
40
0.7405452
50
179.9904137
51
181.6096219
0
ARC
8
DEFAULT_255_2_159
10
4.5570361
20
-3.6411149
40
0.5505344
50
163.0023617
51
180.5887962
0
ARC
8
DEFAULT_255_2_159
10
4.4468527
20
-3.6106259
40
0.4362619
50
130.4265487
51
162.6014004
0
ARC
8
DEFAULT_255_2_159
10
4.5119781
20
-3.6876213
40
0.537106
50
105.2155813
51
130.3888387
0
ARC
8
DEFAULT_255_2_159
10
4.5858761
20
-3.9423118
40
0.8022754
50
92.8505304
51
105.5343554
0
ARC
8
DEFAULT_255_2_159
10
4.6057778
20
-4.1923533
40
1.0530235
50
90.562352
51
93.2554765
0
ARC
8
DEFAULT_255_2_159
10
4.2912224
20
-2.9752218
40
0.4869441
50
359.702996
51
7.5939482
0
ARC
8
DEFAULT_255_2_159
10
4.4814121
20
-2.9488445
40
0.2949383
50
7.397352
51
19.7864675
0
ARC
8
DEFAULT_255_2_159
10
4.5944395
20
-2.9069135
40
0.1743938
50
19.3941943
51
42.3374072
0
ARC
8
DEFAULT_255_2_159
10
4.6192508
20
-2.887044
40
0.1426858
50
43.1497753
51
46.3595356
0
ARC
8
DEFAULT_255_2_159
10
4.5902606
20
-2.9205753
40
0.1869714
50
47.0218369
51
71.377936
0
ARC
8
DEFAULT_255_2_159
10
4.5535595
20
-3.0238256
40
0.2965412
50
71.0283544
51
83.8291213
0
ARC
8
DEFAULT_255_2_159
10
4.5350408
20
-3.1736818
40
0.4475256
50
83.5342943
51
90.1844754
0
ARC
8
DEFAULT_255_2_159
10
4.5309098
20
-3.0346892
40
0.3085427
50
89.5004644
51
105.0694412
0
ARC
8
DEFAULT_255_2_159
10
4.5117287
20
-2.9619954
40
0.233362
50
105.1622653
51
133.5712237
0
ARC
8
DEFAULT_255_2_159
10
4.5027808
20
-2.9549113
40
0.2220678
50
133.1583731
51
179.8485046
0
ARC
8
DEFAULT_255_2_159
10
4.5743078
20
-2.9622587
40
0.2937011
50
178.4519154
51
180.0051813
0
ARC
8
DEFAULT_255_2_159
10
4.4272037
20
-2.9634766
40
0.3953754
50
150.0695254
51
179.8273531
0
ARC
8
DEFAULT_255_2_159
10
4.5063653
20
-3.0030395
40
0.4837472
50
146.9913611
51
150.686751
0
ARC
8
DEFAULT_255_2_159
10
4.5029184
20
-3.0009417
40
0.4797139
50
116.8531908
51
146.9772036
0
ARC
8
DEFAULT_255_2_159
10
4.5344282
20
-3.0570108
40
0.5439772
50
93.4069942
51
117.1465572
0
ARC
8
DEFAULT_255_2_159
10
4.5459424
20
-3.1646069
40
0.6520872
50
89.9730143
51
93.8550745
0
ARC
8
DEFAULT_255_2_159
10
4.5510685
20
-3.2644219
40
0.7519177
50
80.0369596
51
90.3672089
0
ARC
8
DEFAULT_255_2_159
10
4.5997565
20
-2.998152
40
0.4812434
50
63.2681482
51
80.261455
0
ARC
8
DEFAULT_255_2_159
10
4.6501453
20
-2.8929013
40
0.3645835
50
46.4924671
51
62.9003902
0
ARC
8
DEFAULT_255_2_159
10
4.6380859
20
-2.8996707
40
0.3778175
50
16.0439838
51
45.8728052
0
ARC
8
DEFAULT_255_2_159
10
4.4485301
20
-2.9589142
40
0.5763814
50
3.3042785
51
16.4960354
0
ARC
8
DEFAULT_255_2_159
10
4.2566776
20
-2.9757927
40
0.7689096
50
0.6923336
51
3.7358984
0
ARC
8
DEFAULT_255_2_159
10
6.172533
20
-3.7287668
40
1.1470136
50
180.2571353
51
187.5123446
0
ARC
8
DEFAULT_255_2_159
10
5.8405973
20
-3.7735133
40
0.8120775
50
187.4442449
51
197.3601421
0
ARC
8
DEFAULT_255_2_159
10
5.7031913
20
-3.8130966
40
0.6691277
50
197.635739
51
199.7232204
0
ARC
8
DEFAULT_255_2_159
10
4.4821554
20
-3.5356562
40
0.3275669
50
270.1479459
51
300.7203934
0
ARC
8
DEFAULT_255_2_159
10
4.4533941
20
-3.4785005
40
0.3914203
50
300.0656705
51
301.3927327
0
ARC
8
DEFAULT_255_2_159
10
4.4751275
20
-3.5095286
40
0.3536212
50
301.0055706
51
315.4351296
0
ARC
8
DEFAULT_255_2_159
10
4.5234573
20
-3.5582468
40
0.2850029
50
315.5951169
51
333.3398784
0
ARC
8
DEFAULT_255_2_159
10
4.6445539
20
-4.0015593
40
0.6780916
50
90.5868918
51
100.1334378
0
ARC
8
DEFAULT_255_2_159
10
4.6026863
20
-3.7736731
40
0.4463955
50
99.9896983
51
114.4241086
0
ARC
8
DEFAULT_255_2_159
10
4.5596507
20
-3.6745799
40
0.3383802
50
114.7271112
51
126.5978775
0
ARC
8
DEFAULT_255_2_159
10
4.5022547
20
-3.6021216
40
0.2460053
50
125.9269875
51
175.4861865
0
ARC
8
DEFAULT_255_2_159
10
4.5957145
20
-3.61679
40
0.3404073
50
174.2628266
51
180.0785025
0
ARC
8
DEFAULT_255_2_159
10
4.7640645
20
-3.6197802
40
0.5087633
50
179.7157738
51
187.2459568
0
ARC
8
DEFAULT_255_2_159
10
4.5684637
20
-3.6453579
40
0.3114995
50
187.1167411
51
198.0695187
0
ARC
8
DEFAULT_255_2_159
10
4.448859
20
-3.6855726
40
0.1853235
50
197.7190825
51
217.1988256
0
ARC
8
DEFAULT_255_2_159
10
4.4156779
20
-3.7083214
40
0.1451527
50
217.9647884
51
221.7061219
0
ARC
8
DEFAULT_255_2_159
10
4.4196372
20
-3.7019499
40
0.1523626
50
222.5043323
51
249.4724243
0
ARC
8
DEFAULT_255_2_159
10
4.4571739
20
-3.607869
40
0.2536414
50
248.9838164
51
262.1583461
0
ARC
8
DEFAULT_255_2_159
10
4.4807307
20
-3.4475872
40
0.415641
50
261.9559288
51
270.3129862
0
LINE
8
DEFAULT_255_2_159
10
5.3614497
20
-3.4008067
11
5.3614497
21
-3.2321446
0
LINE
8
DEFAULT_255_2_159
10
6.2216265
20
-2.7106976
11
6.2342761
21
-2.54063
0
LINE
8
DEFAULT_255_2_159
10
6.2342761
20
-2.54063
11
6.4591589
21
-2.54063
0
LINE
8
DEFAULT_255_2_159
10
6.4591589
20
-2.54063
11
6.4591589
21
-4.0754552
0
LINE
8
DEFAULT_255_2_159
10
5.4485918
20
-4.4675946
11
5.5497891
21
-4.2961214
0
LINE
8
DEFAULT_255_2_159
10
6.2103823
20
-4.1091876
11
6.2103823
21
-3.9110096
0
LINE
8
DEFAULT_255_2_159
10
5.6102263
20
-3.222306
11
5.6102263
21
-3.3741019
0
LINE
8
DEFAULT_255_2_159
10
6.2103823
20
-3.6805047
11
6.2103823
21
-2.9201197
0
ARC
8
DEFAULT_255_2_159
10
6.9294407
20
-3.2251431
40
1.5680066
50
173.0830806
51
180.2558392
0
ARC
8
DEFAULT_255_2_159
10
6.3444901
20
-3.1517021
40
0.9784721
50
162.4986945
51
173.2271846
0
ARC
8
DEFAULT_255_2_159
10
5.9815178
20
-3.0346832
40
0.5971159
50
145.2739332
51
162.7334259
0
ARC
8
DEFAULT_255_2_159
10
5.8345579
20
-2.933711
40
0.4188131
50
95.060097
51
145.1742489
0
ARC
8
DEFAULT_255_2_159
10
5.8676423
20
-3.125677
40
0.6131585
50
89.8879418
51
96.557608
0
ARC
8
DEFAULT_255_2_159
10
5.8748266
20
-2.941139
40
0.4286611
50
68.335068
51
90.8000026
0
ARC
8
DEFAULT_255_2_159
10
5.8836933
20
-2.897904
40
0.3852842
50
34.1435312
51
67.1867856
0
ARC
8
DEFAULT_255_2_159
10
5.7809109
20
-2.9791486
40
0.5160389
50
31.3466499
51
35.2041845
0
ARC
8
DEFAULT_255_2_159
10
5.5762093
20
-4.0814975
40
0.8829703
50
349.339958
51
0.3920887
0
ARC
8
DEFAULT_255_2_159
10
5.8823918
20
-4.1414754
40
0.5709816
50
331.0147518
51
349.5712364
0
ARC
8
DEFAULT_255_2_159
10
5.984864
20
-4.1939872
40
0.4559133
50
316.2847626
51
330.5469824
0
ARC
8
DEFAULT_255_2_159
10
5.9734493
20
-4.1786448
40
0.4747772
50
281.9697797
51
315.8984886
0
ARC
8
DEFAULT_255_2_159
10
5.9164483
20
-3.9437468
40
0.7164243
50
269.5648369
51
282.5331968
0
ARC
8
DEFAULT_255_2_159
10
5.9144156
20
-4.1151514
40
0.5450097
50
258.2554579
51
269.6416675
0
ARC
8
DEFAULT_255_2_159
10
5.9643487
20
-3.8682855
40
0.7968725
50
250.3769848
51
258.3533448
0
ARC
8
DEFAULT_255_2_159
10
6.0370866
20
-3.6526864
40
1.0243852
50
248.3236696
51
250.5946274
0
ARC
8
DEFAULT_255_2_159
10
5.9307443
20
-3.9106319
40
0.74541
50
240.8085215
51
248.596296
0
ARC
8
DEFAULT_255_2_159
10
5.8079909
20
-4.128273
40
0.4955411
50
229.5649699
51
240.9256471
0
ARC
8
DEFAULT_255_2_159
10
5.7250082
20
-4.2281327
40
0.3657158
50
220.9026652
51
229.3133751
0
ARC
8
DEFAULT_255_2_159
10
5.9620676
20
-3.8835037
40
0.5832898
50
225.0235593
51
240.5751877
0
ARC
8
DEFAULT_255_2_159
10
5.8907943
20
-4.008612
40
0.4393055
50
240.6555048
51
270.0698477
0
ARC
8
DEFAULT_255_2_159
10
5.8980277
20
-4.0378572
40
0.4101149
50
269.0642204
51
287.3508575
0
ARC
8
DEFAULT_255_2_159
10
5.9413363
20
-4.1845144
40
0.2572267
50
287.88513
51
347.3268896
0
ARC
8
DEFAULT_255_2_159
10
5.6727363
20
-4.1025091
40
0.5376874
50
345.0800622
51
359.2883185
0
ARC
8
DEFAULT_255_2_159
10
5.8736039
20
-3.6904718
40
0.4025626
50
300.0174013
51
326.781392
0
ARC
8
DEFAULT_255_2_159
10
5.8805069
20
-3.6857949
40
0.4032447
50
272.2744294
51
298.835615
0
ARC
8
DEFAULT_255_2_159
10
5.8676456
20
-3.5608958
40
0.5286146
50
269.9772856
51
273.1301248
0
ARC
8
DEFAULT_255_2_159
10
5.8615219
20
-3.5887524
40
0.5007928
50
251.0657613
51
270.676656
0
ARC
8
DEFAULT_255_2_159
10
5.8412366
20
-3.6660855
40
0.4211035
50
215.6825129
51
250.2622129
0
ARC
8
DEFAULT_255_2_159
10
5.9921453
20
-3.5538504
40
0.6091549
50
197.3940376
51
215.9778766
0
ARC
8
DEFAULT_255_2_159
10
6.3333478
20
-3.4423853
40
0.9680861
50
186.6818662
51
197.6525847
0
ARC
8
DEFAULT_255_2_159
10
6.811128
20
-3.3806223
40
1.4498189
50
180.7976988
51
186.9091267
0
ARC
8
DEFAULT_255_2_159
10
6.9947592
20
-3.3790079
40
1.3845415
50
179.7969783
51
185.2797816
0
ARC
8
DEFAULT_255_2_159
10
6.454
20
-3.4305525
40
0.8413349
50
185.1731571
51
193.1103435
0
ARC
8
DEFAULT_255_2_159
10
6.1017883
20
-3.5144949
40
0.4792668
50
192.8875826
51
205.4972451
0
ARC
8
DEFAULT_255_2_159
10
5.9616158
20
-3.5778929
40
0.3254705
50
206.0458589
51
211.9402252
0
ARC
8
DEFAULT_255_2_159
10
5.8945874
20
-3.6203039
40
0.2461537
50
211.8169311
51
260.6697223
0
ARC
8
DEFAULT_255_2_159
10
5.9296355
20
-3.4686081
40
0.401649
50
259.244393
51
270.3501161
0
ARC
8
DEFAULT_255_2_159
10
5.9391207
20
-3.5921503
40
0.2781882
50
268.5517747
51
322.4107785
0
ARC
8
DEFAULT_255_2_159
10
5.8213786
20
-3.4939868
40
0.431408
50
321.6188048
51
334.3833998
0
ARC
8
DEFAULT_255_2_159
10
5.8237029
20
-3.1155699
40
0.4332687
50
26.8146757
51
41.8264992
0
ARC
8
DEFAULT_255_2_159
10
5.9398357
20
-3.0084396
40
0.2752979
50
41.3303818
51
91.0271061
0
ARC
8
DEFAULT_255_2_159
10
5.9311937
20
-3.1167665
40
0.3835986
50
89.4462701
51
103.8631458
0
ARC
8
DEFAULT_255_2_159
10
5.8953514
20
-2.9825208
40
0.2446895
50
103.2467122
51
148.1386318
0
ARC
8
DEFAULT_255_2_159
10
6.030503
20
-3.063911
40
0.4024468
50
148.4539791
51
163.5415647
0
ARC
8
DEFAULT_255_2_159
10
6.3169855
20
-3.152043
40
0.7021683
50
163.2678296
51
172.421665
0
ARC
8
DEFAULT_255_2_159
10
6.7557724
20
-3.2134072
40
1.1452192
50
172.273559
51
178.2506359
0
ARC
8
DEFAULT_255_2_159
10
7.1440937
20
-3.2304651
40
1.5338892
50
178.0565668
51
179.6952303
0
LINE
8
DEFAULT_255_2_159
10
6.782428
20
-3.423295
11
6.782428
21
-3.2391722
0
LINE
8
DEFAULT_255_2_159
10
7.8787317
20
-3.2124674
11
7.8787317
21
-3.3755074
0
LINE
8
DEFAULT_255_2_159
10
7.8787317
20
-3.3755074
11
7.0297991
21
-3.3755074
0
LINE
8
DEFAULT_255_2_159
10
7.0297991
20
-3.3755074
11
7.0297991
21
-3.4106454
0
LINE
8
DEFAULT_255_2_159
10
7.7367744
20
-3.7043985
11
7.866082
21
-3.8618165
0
LINE
8
DEFAULT_255_2_159
10
7.0312046
20
-3.1618688
11
7.6299551
21
-3.1618688
0
LINE
8
DEFAULT_255_2_159
10
7.6299551
20
-3.1618688
11
7.6299551
21
-3.1281363
0
ARC
8
DEFAULT_255_2_159
10
7.3664456
20
-3.3290252
40
0.7605112
50
257.1184762
51
270.4746227
0
ARC
8
DEFAULT_255_2_159
10
7.3036763
20
-3.5848518
40
0.497147
50
226.3660218
51
257.5975396
0
ARC
8
DEFAULT_255_2_159
10
7.2953656
20
-3.5991128
40
0.4811059
50
221.8575316
51
225.9103842
0
ARC
8
DEFAULT_255_2_159
10
7.3486653
20
-3.5592984
40
0.5474031
50
197.7984208
51
221.2387377
0
ARC
8
DEFAULT_255_2_159
10
7.6379775
20
-3.4610768
40
0.8529066
50
185.8157793
51
198.1401371
0
ARC
8
DEFAULT_255_2_159
10
8.0189466
20
-3.415582
40
1.2365428
50
180.3573898
51
186.1242325
0
ARC
8
DEFAULT_255_2_159
10
8.0458587
20
-3.2321126
40
1.2634504
50
170.8763177
51
180.3201457
0
ARC
8
DEFAULT_255_2_159
10
7.6116426
20
-3.159732
40
0.823255
50
156.1714477
51
171.0581645
0
ARC
8
DEFAULT_255_2_159
10
7.4193105
20
-3.0783748
40
0.6144579
50
142.6716053
51
155.8655745
0
ARC
8
DEFAULT_255_2_159
10
7.3138408
20
-2.9934611
40
0.4791144
50
94.0433267
51
143.0980715
0
ARC
8
DEFAULT_255_2_159
10
7.3437906
20
-3.1864442
40
0.6739252
50
89.9282058
51
95.4265178
0
ARC
8
DEFAULT_255_2_159
10
7.3504703
20
-3.1770848
40
0.6645908
50
76.8319753
51
90.5030761
0
ARC
8
DEFAULT_255_2_159
10
7.410641
20
-2.9426514
40
0.422646
50
37.9754597
51
77.5346189
0
ARC
8
DEFAULT_255_2_159
10
7.3182804
20
-3.0040376
40
0.5332907
50
18.4867167
51
37.068366
0
ARC
8
DEFAULT_255_2_159
10
6.9652777
20
-3.1272434
40
0.9071575
50
7.9359133
51
18.7972261
0
ARC
8
DEFAULT_255_2_159
10
6.3964853
20
-3.2109009
40
1.4820591
50
1.0384198
51
8.1031487
0
ARC
8
DEFAULT_255_2_159
10
5.9596164
20
-3.2273227
40
1.9191729
50
0.4435006
51
1.2922359
0
ARC
8
DEFAULT_255_2_159
10
8.0600839
20
-3.415349
40
1.0302956
50
179.7384256
51
186.7265868
0
ARC
8
DEFAULT_255_2_159
10
7.6610208
20
-3.463903
40
0.6282941
50
186.5919086
51
196.8831483
0
ARC
8
DEFAULT_255_2_159
10
7.4129108
20
-3.5412427
40
0.3684221
50
196.5798885
51
214.046767
0
ARC
8
DEFAULT_255_2_159
10
7.3355035
20
-3.589316
40
0.2773913
50
214.7708325
51
219.6293578
0
ARC
8
DEFAULT_255_2_159
10
7.351245
20
-3.5753141
40
0.2984468
50
219.7721582
51
260.2417717
0
ARC
8
DEFAULT_255_2_159
10
7.3843327
20
-3.4269394
40
0.4503447
50
259.2925125
51
270.3139704
0
ARC
8
DEFAULT_255_2_159
10
7.3894626
20
-3.3851443
40
0.4921401
50
269.6900808
51
281.5997527
0
ARC
8
DEFAULT_255_2_159
10
7.4109228
20
-3.4918385
40
0.38331
50
281.6642496
51
296.1838127
0
ARC
8
DEFAULT_255_2_159
10
7.3945359
20
-3.4671347
40
0.412727
50
296.7119921
51
311.1159862
0
ARC
8
DEFAULT_255_2_159
10
7.2911989
20
-3.3471864
40
0.5710475
50
311.0132198
51
320.6026024
0
ARC
8
DEFAULT_255_2_159
10
7.2067051
20
-3.2737668
40
0.6829473
50
320.3418541
51
320.909373
0
ARC
8
DEFAULT_255_2_159
10
7.4386907
20
-3.5599233
40
0.5232617
50
278.8162082
51
324.7640504
0
ARC
8
DEFAULT_255_2_159
10
7.3768296
20
-3.2771696
40
0.8123508
50
269.711932
51
280.0713248
0
ARC
8
DEFAULT_255_2_159
10
7.3411542
20
-3.0810866
40
0.3549454
50
89.4381204
51
104.4132363
0
ARC
8
DEFAULT_255_2_159
10
7.3104778
20
-2.9673731
40
0.2371792
50
104.0735626
51
145.2773785
0
ARC
8
DEFAULT_255_2_159
10
7.4147991
20
-3.0368117
40
0.362483
50
145.6486716
51
161.0499925
0
ARC
8
DEFAULT_255_2_159
10
7.6644931
20
-3.1254721
40
0.6274421
50
160.7971513
51
170.3081299
0
ARC
8
DEFAULT_255_2_159
10
8.0624376
20
-3.1960248
40
1.0315876
50
170.1663883
51
176.5001001
0
ARC
8
DEFAULT_255_2_159
10
8.3933707
20
-3.2215867
40
1.3634744
50
176.2768877
51
177.4897355
0
ARC
8
DEFAULT_255_2_159
10
6.46247
20
-3.1772358
40
1.1685171
50
2.408199
51
7.640452
0
ARC
8
DEFAULT_255_2_159
10
6.9190634
20
-3.1146877
40
0.7076623
50
7.5363409
51
15.1171933
0
ARC
8
DEFAULT_255_2_159
10
7.2173744
20
-3.0324374
40
0.3982273
50
14.8860891
51
27.0601989
0
ARC
8
DEFAULT_255_2_159
10
7.3468731
20
-2.968469
40
0.2538114
50
27.4996551
51
36.1004962
0
ARC
8
DEFAULT_255_2_159
10
7.3748252
20
-2.9490537
40
0.2197883
50
36.3044125
51
79.8524324
0
ARC
8
DEFAULT_255_2_159
10
7.3467954
20
-3.0694854
40
0.3433338
50
78.7888
51
90.3605276
0
LINE
8
DEFAULT_255_2_159
10
10.0109019
20
-2.0149664
11
10.0109019
21
-2.2370382
0
LINE
8
DEFAULT_255_2_159
10
10.0109019
20
-2.2370382
11
9.4725886
21
-2.2370382
0
LINE
8
DEFAULT_255_2_159
10
9.4725886
20
-2.2370382
11
9.4725886
21
-4.0614
0
LINE
8
DEFAULT_255_2_159
10
9.4725886
20
-4.0614
11
9.2153789
21
-4.0614
0
LINE
8
DEFAULT_255_2_159
10
9.2153789
20
-4.0614
11
9.2153789
21
-2.2370382
0
LINE
8
DEFAULT_255_2_159
10
9.2153789
20
-2.2370382
11
8.6784712
21
-2.2370382
0
LINE
8
DEFAULT_255_2_159
10
8.6784712
20
-2.2370382
11
8.6784712
21
-2.0149664
0
LINE
8
DEFAULT_255_2_159
10
8.6784712
20
-2.0149664
11
10.0109019
21
-2.0149664
0
LINE
8
DEFAULT_255_2_159
10
10.5464041
20
-2.54063
11
10.5464041
21
-4.0614
0
LINE
8
DEFAULT_255_2_159
10
10.5464041
20
-4.0614
11
10.2976274
21
-4.0614
0
LINE
8
DEFAULT_255_2_159
10
10.2976274
20
-4.0614
11
10.2976274
21
-2.54063
0
LINE
8
DEFAULT_255_2_159
10
10.2976274
20
-2.54063
11
10.5464041
21
-2.54063
0
ARC
8
DEFAULT_255_2_159
10
10.3780794
20
-2.1387496
40
0.1880079
50
345.1733523
51
0.4580829
0
ARC
8
DEFAULT_255_2_159
10
10.4186566
20
-2.1491613
40
0.1461178
50
320.2165424
51
345.0485067
0
ARC
8
DEFAULT_255_2_159
10
10.4459344
20
-2.1708616
40
0.1112725
50
284.9015134
51
319.8155182
0
ARC
8
DEFAULT_255_2_159
10
10.4281448
20
-2.1112365
40
0.173477
50
272.0757186
51
285.5152503
0
ARC
8
DEFAULT_255_2_159
10
10.4242144
20
-2.0541402
40
0.2306856
50
269.9775439
51
272.5376376
0
ARC
8
DEFAULT_255_2_159
10
10.4226535
20
-2.0981404
40
0.1866912
50
257.9355933
51
270.4512974
0
ARC
8
DEFAULT_255_2_159
10
10.4080823
20
-2.1626795
40
0.1205342
50
233.753477
51
258.2968672
0
ARC
8
DEFAULT_255_2_159
10
10.4012035
20
-2.1740939
40
0.1072682
50
219.732534
51
233.1118586
0
ARC
8
DEFAULT_255_2_159
10
10.4342858
20
-2.1471916
40
0.1499066
50
187.8064346
51
219.5576644
0
ARC
8
DEFAULT_255_2_159
10
10.4857774
20
-2.1378275
40
0.2022059
50
179.8353612
51
188.4534478
0
ARC
8
DEFAULT_255_2_159
10
10.4722861
20
-2.1356729
40
0.1887204
50
164.0989256
51
180.4777193
0
ARC
8
DEFAULT_255_2_159
10
10.4376872
20
-2.1265291
40
0.1529417
50
141.0709343
51
163.8421713
0
ARC
8
DEFAULT_255_2_159
10
10.406008
20
-2.1014641
40
0.1125485
50
102.5462953
51
140.8636471
0
ARC
8
DEFAULT_255_2_159
10
10.4223104
20
-2.164304
40
0.1774436
50
89.8813162
51
103.2768623
0
ARC
8
DEFAULT_255_2_159
10
10.4241547
20
-2.223786
40
0.2369299
50
90.0074294
51
90.3571227
0
ARC
8
DEFAULT_255_2_159
10
10.425682
20
-2.1640537
40
0.1772045
50
76.6710215
51
90.5037652
0
ARC
8
DEFAULT_255_2_159
10
10.4412531
20
-2.1035068
40
0.1147048
50
39.1228016
51
77.2669724
0
ARC
8
DEFAULT_255_2_159
10
10.4053215
20
-2.1319804
40
0.1605478
50
2.5398331
51
38.9148561
0
ARC
8
DEFAULT_255_2_159
10
10.3614037
20
-2.1371609
40
0.2046775
50
359.9760536
51
3.4438497
0
LINE
8
DEFAULT_255_2_159
10
11.0158469
20
-2.1723844
11
11.263218
21
-2.1723844
0
LINE
8
DEFAULT_255_2_159
10
11.263218
20
-2.1723844
11
11.263218
21
-2.54063
0
LINE
8
DEFAULT_255_2_159
10
11.263218
20
-2.54063
11
11.4923174
21
-2.54063
0
LINE
8
DEFAULT_255_2_159
10
11.4923174
20
-2.54063
11
11.4923174
21
-2.741619
0
LINE
8
DEFAULT_255_2_159
10
11.4923174
20
-2.741619
11
11.263218
21
-2.741619
0
LINE
8
DEFAULT_255_2_159
10
11.263218
20
-2.741619
11
11.263218
21
-3.6847213
0
LINE
8
DEFAULT_255_2_159
10
11.4937229
20
-3.8505724
11
11.4909119
21
-4.0614
0
LINE
8
DEFAULT_255_2_159
10
11.0158469
20
-3.6861268
11
11.0158469
21
-2.741619
0
LINE
8
DEFAULT_255_2_159
10
11.0158469
20
-2.741619
11
10.7839365
21
-2.741619
0
LINE
8
DEFAULT_255_2_159
10
10.7839365
20
-2.741619
11
10.7839365
21
-2.54063
0
LINE
8
DEFAULT_255_2_159
10
10.7839365
20
-2.54063
11
11.0158469
21
-2.54063
0
LINE
8
DEFAULT_255_2_159
10
11.0158469
20
-2.54063
11
11.0158469
21
-2.1723844
0
ARC
8
DEFAULT_255_2_159
10
11.7031158
20
-3.6864886
40
0.4399013
50
179.769811
51
186.2384091
0
ARC
8
DEFAULT_255_2_159
10
11.5403334
20
-3.7047637
40
0.2760974
50
186.1392201
51
195.2857027
0
ARC
8
DEFAULT_255_2_159
10
11.4347824
20
-3.734348
40
0.1664826
50
195.0409721
51
209.9871599
0
ARC
8
DEFAULT_255_2_159
10
11.400816
20
-3.7523021
40
0.1280974
50
210.6249718
51
212.4617142
0
ARC
8
DEFAULT_255_2_159
10
11.3726366
20
-3.7699294
40
0.09486
50
212.6138244
51
255.9656101
0
ARC
8
DEFAULT_255_2_159
10
11.3906979
20
-3.7088964
40
0.1584745
50
254.9816341
51
268.6989067
0
ARC
8
DEFAULT_255_2_159
10
11.393877
20
-3.6551353
40
0.2123031
50
268.170617
51
270.014623
0
ARC
8
DEFAULT_255_2_159
10
11.392775
20
-3.5594233
40
0.3080174
50
270.215068
51
286.052081
0
ARC
8
DEFAULT_255_2_159
10
11.3812269
20
-3.5133293
40
0.3555111
50
285.7865229
51
288.447425
0
ARC
8
DEFAULT_255_2_159
10
11.3184305
20
-3.5462979
40
0.5432127
50
269.9580908
51
288.5130603
0
ARC
8
DEFAULT_255_2_159
10
11.3145763
20
-3.761285
40
0.3282436
50
253.7914628
51
270.6034172
0
ARC
8
DEFAULT_255_2_159
10
11.2924068
20
-3.841518
40
0.2450139
50
215.5857282
51
253.5324806
0
ARC
8
DEFAULT_255_2_159
10
11.3829186
20
-3.776325
40
0.3565594
50
196.4705085
51
215.6415277
0
ARC
8
DEFAULT_255_2_159
10
11.5748342
20
-3.7169866
40
0.5574292
50
185.5270111
51
196.7265793
0
ARC
8
DEFAULT_255_2_159
10
11.8349564
20
-3.6883014
40
0.8191123
50
179.8478874
51
185.7716996
0
LINE
8
DEFAULT_255_2_159
10
12.0559299
20
-1.902525
11
12.0559299
21
-4.0614
0
LINE
8
DEFAULT_255_2_159
10
12.0559299
20
-4.0614
11
11.8071533
21
-4.0614
0
LINE
8
DEFAULT_255_2_159
10
11.8071533
20
-4.0614
11
11.8071533
21
-1.902525
0
LINE
8
DEFAULT_255_2_159
10
11.8071533
20
-1.902525
11
12.0559299
21
-1.902525
0
LINE
8
DEFAULT_255_2_159
10
12.4002817
20
-3.423295
11
12.4002817
21
-3.2391722
0
LINE
8
DEFAULT_255_2_159
10
13.4965854
20
-3.2124674
11
13.4965854
21
-3.3755074
0
LINE
8
DEFAULT_255_2_159
10
13.4965854
20
-3.3755074
11
12.6476528
21
-3.3755074
0
LINE
8
DEFAULT_255_2_159
10
12.6476528
20
-3.3755074
11
12.6476528
21
-3.4106454
0
LINE
8
DEFAULT_255_2_159
10
13.3546282
20
-3.7043985
11
13.4839358
21
-3.8618165
0
LINE
8
DEFAULT_255_2_159
10
12.6490583
20
-3.1618688
11
13.2478088
21
-3.1618688
0
LINE
8
DEFAULT_255_2_159
10
13.2478088
20
-3.1618688
11
13.2478088
21
-3.1281363
0
ARC
8
DEFAULT_255_2_159
10
12.9842993
20
-3.3290252
40
0.7605112
50
257.1184762
51
270.4746227
0
ARC
8
DEFAULT_255_2_159
10
12.92153
20
-3.5848518
40
0.497147
50
226.3660218
51
257.5975396
0
ARC
8
DEFAULT_255_2_159
10
12.9132194
20
-3.5991128
40
0.4811059
50
221.8575316
51
225.9103842
0
ARC
8
DEFAULT_255_2_159
10
12.9665191
20
-3.5592984
40
0.5474031
50
197.7984208
51
221.2387377
0
ARC
8
DEFAULT_255_2_159
10
13.2558312
20
-3.4610768
40
0.8529066
50
185.8157793
51
198.1401371
0
ARC
8
DEFAULT_255_2_159
10
13.6368004
20
-3.415582
40
1.2365428
50
180.3573898
51
186.1242325
0
ARC
8
DEFAULT_255_2_159
10
13.6637125
20
-3.2321126
40
1.2634504
50
170.8763177
51
180.3201457
0
ARC
8
DEFAULT_255_2_159
10
13.2294964
20
-3.159732
40
0.823255
50
156.1714477
51
171.0581645
0
ARC
8
DEFAULT_255_2_159
10
13.0371642
20
-3.0783748
40
0.6144579
50
142.6716053
51
155.8655745
0
ARC
8
DEFAULT_255_2_159
10
12.9316946
20
-2.9934611
40
0.4791144
50
94.0433267
51
143.0980715
0
ARC
8
DEFAULT_255_2_159
10
12.9616443
20
-3.1864442
40
0.6739252
50
89.9282058
51
95.4265178
0
ARC
8
DEFAULT_255_2_159
10
12.968324
20
-3.1770848
40
0.6645908
50
76.8319753
51
90.5030761
0
ARC
8
DEFAULT_255_2_159
10
13.0284948
20
-2.9426514
40
0.422646
50
37.9754597
51
77.5346189
0
ARC
8
DEFAULT_255_2_159
10
12.9361341
20
-3.0040376
40
0.5332907
50
18.4867167
51
37.068366
0
ARC
8
DEFAULT_255_2_159
10
12.5831314
20
-3.1272434
40
0.9071575
50
7.9359133
51
18.7972261
0
ARC
8
DEFAULT_255_2_159
10
12.0143391
20
-3.2109009
40
1.4820591
50
1.0384198
51
8.1031487
0
ARC
8
DEFAULT_255_2_159
10
11.5774702
20
-3.2273227
40
1.9191729
50
0.4435006
51
1.2922359
0
ARC
8
DEFAULT_255_2_159
10
13.6779377
20
-3.415349
40
1.0302956
50
179.7384256
51
186.7265868
0
ARC
8
DEFAULT_255_2_159
10
13.2788746
20
-3.463903
40
0.6282941
50
186.5919086
51
196.8831483
0
ARC
8
DEFAULT_255_2_159
10
13.0307646
20
-3.5412427
40
0.3684221
50
196.5798885
51
214.046767
0
ARC
8
DEFAULT_255_2_159
10
12.9533572
20
-3.589316
40
0.2773913
50
214.7708325
51
219.6293578
0
ARC
8
DEFAULT_255_2_159
10
12.9690988
20
-3.5753141
40
0.2984468
50
219.7721582
51
260.2417717
0
ARC
8
DEFAULT_255_2_159
10
13.0021865
20
-3.4269394
40
0.4503447
50
259.2925125
51
270.3139704
0
ARC
8
DEFAULT_255_2_159
10
13.0073163
20
-3.3851443
40
0.4921401
50
269.6900808
51
281.5997527
0
ARC
8
DEFAULT_255_2_159
10
13.0287765
20
-3.4918385
40
0.38331
50
281.6642496
51
296.1838127
0
ARC
8
DEFAULT_255_2_159
10
13.0123897
20
-3.4671347
40
0.412727
50
296.7119921
51
311.1159862
0
ARC
8
DEFAULT_255_2_159
10
12.9090526
20
-3.3471864
40
0.5710475
50
311.0132198
51
320.6026024
0
ARC
8
DEFAULT_255_2_159
10
12.8245588
20
-3.2737668
40
0.6829473
50
320.3418541
51
320.909373
0
ARC
8
DEFAULT_255_2_159
10
13.0565445
20
-3.5599233
40
0.5232617
50
278.8162082
51
324.7640504
0
ARC
8
DEFAULT_255_2_159
10
12.9946834
20
-3.2771696
40
0.8123508
50
269.711932
51
280.0713248
0
ARC
8
DEFAULT_255_2_159
10
12.959008
20
-3.0810866
40
0.3549454
50
89.4381204
51
104.4132363
0
ARC
8
DEFAULT_255_2_159
10
12.9283316
20
-2.9673731
40
0.2371792
50
104.0735626
51
145.2773785
0
ARC
8
DEFAULT_255_2_159
10
13.0326529
20
-3.0368117
40
0.362483
50
145.6486716
51
161.0499925
0
ARC
8
DEFAULT_255_2_159
10
13.2823469
20
-3.1254721
40
0.6274421
50
160.7971513
51
170.3081299
0
ARC
8
DEFAULT_255_2_159
10
13.6802914
20
-3.1960248
40
1.0315876
50
170.1663883
51
176.5001001
0
ARC
8
DEFAULT_255_2_159
10
14.0112245
20
-3.2215867
40
1.3634744
50
176.2768877
51
177.4897355
0
ARC
8
DEFAULT_255_2_159
10
12.0803237
20
-3.1772358
40
1.1685171
50
2.408199
51
7.640452
0
ARC
8
DEFAULT_255_2_159
10
12.5369171
20
-3.1146877
40
0.7076623
50
7.5363409
51
15.1171933
0
ARC
8
DEFAULT_255_2_159
10
12.8352281
20
-3.0324374
40
0.3982273
50
14.8860891
51
27.0601989
0
ARC
8
DEFAULT_255_2_159
10
12.9647269
20
-2.968469
40
0.2538114
50
27.4996551
51
36.1004962
0
ARC
8
DEFAULT_255_2_159
10
12.992679
20
-2.9490537
40
0.2197883
50
36.3044125
51
79.8524324
0
ARC
8
DEFAULT_255_2_159
10
12.9646491
20
-3.0694854
40
0.3433338
50
78.7888
51
90.3605276
0
ENDSEC
0
EOF