0
SECTION
2
HEADER
9
$MEASUREMENT
70
1
0
ENDSEC
0
SECTION
2
TABLES
0
TABLE
2
LTYPE
0
LTYPE
72
65
70
64
2
CONTINUOUS
3
______
73
0
40
0
0
ENDTAB
0
TABLE
2
LAYER
0
LAYER
2
DEFAULT_255_2_778
70
0
62
255
6
CONTINUOUS
0
LAYER
2
DEFAULT_255_2_159
70
0
62
255
6
CONTINUOUS
0
LAYER
2
DEFAULT_9_2_005
70
0
62
9
6
CONTINUOUS
0
ENDTAB
0
ENDSEC
0
SECTION
2
ENTITIES
0
ARC
8
DEFAULT_255_2_778
10
0.6603366
20
6.8802552
40
0.5280127
50
89.8710178
51
180.1289822
0
ARC
8
DEFAULT_255_2_778
10
16.2730355
20
6.8802767
40
0.527991
50
359.8686781
51
90.1204832
0
ARC
8
DEFAULT_255_2_778
10
16.2730571
20
-2.6470654
40
0.5279693
50
269.8771674
51
0.1228348
0
ARC
8
DEFAULT_255_2_778
10
0.660315
20
-2.6470438
40
0.527991
50
179.8795076
51
270.1313257
0
LINE
8
DEFAULT_255_2_778
10
0.6615252
20
7.4082665
11
16.2719252
21
7.4082665
0
LINE
8
DEFAULT_255_2_778
10
16.8010252
20
6.8790665
11
16.8010252
21
-2.6459335
0
LINE
8
DEFAULT_255_2_778
10
16.2719252
20
-3.1750335
11
0.6615252
21
-3.1750335
0
LINE
8
DEFAULT_255_2_778
10
0.1323252
20
-2.6459335
11
0.1323252
21
6.8790665
0
LINE
8
DEFAULT_255_2_159
10
4.025465
20
-1.4156
11
3.5672663
21
-1.4156
0
LINE
8
DEFAULT_255_2_159
10
3.5672663
20
-1.4156
11
3.5672663
21
0.6308336
0
LINE
8
DEFAULT_255_2_159
10
3.5672663
20
0.6308336
11
4.0549809
21
0.6308336
0
LINE
8
DEFAULT_255_2_159
10
4.8097438
20
-0.2237211
11
4.8097438
21
-0.5666674
0
LINE
8
DEFAULT_255_2_159
10
4.0549809
20
0.4087618
11
3.824476
21
0.4087618
0
LINE
8
DEFAULT_255_2_159
10
3.824476
20
0.4087618
11
3.824476
21
-1.1949337
0
LINE
8
DEFAULT_255_2_159
10
3.824476
20
-1.1949337
11
4.0310871
21
-1.1949337
0
LINE
8
DEFAULT_255_2_159
10
4.5553451
20
-0.579317
11
4.5553451
21
-0.2166935
0
ARC
8
DEFAULT_255_2_159
10
4.0631561
20
-0.2874732
40
0.9183432
50
75.8804541
51
90.5100607
0
ARC
8
DEFAULT_255_2_159
10
4.1344196
20
-0.0151132
40
0.6368326
50
41.4746205
51
76.1206265
0
ARC
8
DEFAULT_255_2_159
10
4.0547345
20
-0.0763843
40
0.7371476
50
16.0222103
51
40.9408541
0
ARC
8
DEFAULT_255_2_159
10
3.6939266
20
-0.1864734
40
1.1143429
50
3.6039309
51
16.3423372
0
ARC
8
DEFAULT_255_2_159
10
3.2897216
20
-0.2221139
40
1.5200229
50
359.9394166
51
3.9869834
0
ARC
8
DEFAULT_255_2_159
10
3.4926329
20
-0.5754003
40
1.3171399
50
349.5927546
51
0.3798873
0
ARC
8
DEFAULT_255_2_159
10
3.9478806
20
-0.6622646
40
0.8536962
50
332.0445312
51
349.8073663
0
ARC
8
DEFAULT_255_2_159
10
4.1094803
20
-0.7422157
40
0.6734929
50
317.8440626
51
331.6077831
0
ARC
8
DEFAULT_255_2_159
10
4.132852
20
-0.756294
40
0.6467398
50
283.7610111
51
317.3790059
0
ARC
8
DEFAULT_255_2_159
10
4.0413731
20
-0.4240495
40
0.9912566
50
271.1291701
51
284.3286974
0
ARC
8
DEFAULT_255_2_159
10
4.0256601
20
-0.1382871
40
1.2773129
50
269.9912502
51
271.5812686
0
ARC
8
DEFAULT_255_2_159
10
4.0367068
20
-0.4468662
40
0.7480887
50
269.5695864
51
280.9858621
0
ARC
8
DEFAULT_255_2_159
10
4.0920352
20
-0.720213
40
0.4692127
50
280.714323
51
300.3482054
0
ARC
8
DEFAULT_255_2_159
10
4.1395239
20
-0.8078
40
0.3696484
50
300.8554293
51
321.1600005
0
ARC
8
DEFAULT_255_2_159
10
4.0314852
20
-0.728298
40
0.5036929
50
321.8234217
51
341.8328361
0
ARC
8
DEFAULT_255_2_159
10
3.742235
20
-0.6292374
40
0.8094199
50
341.5541464
51
353.1447363
0
ARC
8
DEFAULT_255_2_159
10
3.3096941
20
-0.5723323
40
1.2456705
50
352.9207598
51
359.6787296
0
ARC
8
DEFAULT_255_2_159
10
3.2188861
20
-0.2104659
40
1.3364735
50
359.7330169
51
6.9618506
0
ARC
8
DEFAULT_255_2_159
10
3.7310535
20
-0.1458143
40
0.8202485
50
6.8154444
51
17.6124154
0
ARC
8
DEFAULT_255_2_159
10
4.0468875
20
-0.0429169
40
0.4880914
50
17.3177593
51
35.6427517
0
ARC
8
DEFAULT_255_2_159
10
4.1364556
20
0.0153181
40
0.3813983
50
36.3741163
51
39.4516051
0
ARC
8
DEFAULT_255_2_159
10
4.1268125
20
0.004298
40
0.3958541
50
39.796351
51
75.9981464
0
ARC
8
DEFAULT_255_2_159
10
4.0656575
20
-0.2119691
40
0.6205317
50
75.3507456
51
88.878044
0
ARC
8
DEFAULT_255_2_159
10
4.0551119
20
-0.4002722
40
0.8090341
50
88.3924619
51
90.0092801
0
LINE
8
DEFAULT_255_2_159
10
5.8020392
20
0.1136031
11
5.8034447
21
-0.1281459
0
LINE
8
DEFAULT_255_2_159
10
5.423955
20
-0.3277294
11
5.423955
21
-1.4156
0
LINE
8
DEFAULT_255_2_159
10
5.423955
20
-1.4156
11
5.1751784
21
-1.4156
0
LINE
8
DEFAULT_255_2_159
10
5.1751784
20
-1.4156
11
5.1751784
21
0.10517
0
LINE
8
DEFAULT_255_2_159
10
5.1751784
20
0.10517
11
5.4169274
21
0.10517
0
LINE
8
DEFAULT_255_2_159
10
5.4169274
20
0.10517
11
5.4211439
21
-0.0494369
0
ARC
8
DEFAULT_255_2_159
10
5.7004237
20
-0.6802472
40
0.5616308
50
79.4302773
51
86.4555486
0
ARC
8
DEFAULT_255_2_159
10
5.6915717
20
-0.8051131
40
0.6868059
50
86.3624901
51
90.0474182
0
ARC
8
DEFAULT_255_2_159
10
5.6854188
20
-0.3826065
40
0.2643583
50
88.7895522
51
118.998694
0
ARC
8
DEFAULT_255_2_159
10
5.6940213
20
-0.3824607
40
0.2685085
50
120.6195062
51
149.2845525
0
ARC
8
DEFAULT_255_2_159
10
5.83788
20
-0.4741929
40
0.4390735
50
148.5819541
51
160.5141528
0
ARC
8
DEFAULT_255_2_159
10
5.7920456
20
-0.246677
40
0.4200853
50
135.8490819
51
151.9966043
0
ARC
8
DEFAULT_255_2_159
10
5.6974876
20
-0.1551168
40
0.288463
50
88.7753225
51
135.8154666
0
ARC
8
DEFAULT_255_2_159
10
5.7049069
20
-0.1605867
40
0.2938697
50
82.1271594
51
90.2444683
0
ARC
8
DEFAULT_255_2_159
10
5.7180739
20
-0.0684139
40
0.2007627
50
70.2497775
51
82.246336
0
ARC
8
DEFAULT_255_2_159
10
5.7323249
20
-0.0262503
40
0.156266
50
63.504623
51
69.9435376
0
LINE
8
DEFAULT_255_2_159
10
7.0360836
20
-1.4156
11
6.7774684
21
-1.4156
0
LINE
8
DEFAULT_255_2_159
10
6.5582077
20
-0.4935805
11
6.740925
21
-0.4935805
0
LINE
8
DEFAULT_255_2_159
10
6.740925
20
-0.4935805
11
6.740925
21
-0.3319459
0
LINE
8
DEFAULT_255_2_159
10
6.2433717
20
-0.3164853
11
5.9945951
21
-0.3164853
0
LINE
8
DEFAULT_255_2_159
10
6.988296
20
-0.3207018
11
6.988296
21
-1.0881144
0
LINE
8
DEFAULT_255_2_159
10
7.0360836
20
-1.3931117
11
7.0360836
21
-1.4156
0
LINE
8
DEFAULT_255_2_159
10
6.740925
20
-1.0403268
11
6.740925
21
-0.6777033
0
LINE
8
DEFAULT_255_2_159
10
6.740925
20
-0.6777033
11
6.6003732
21
-0.6777033
0
ARC
8
DEFAULT_255_2_159
10
6.9804876
20
-1.3254655
40
0.2221284
50
195.1861257
51
203.9397898
0
ARC
8
DEFAULT_255_2_159
10
7.202409
20
-1.2634354
40
0.4525527
50
190.0951862
51
195.405222
0
ARC
8
DEFAULT_255_2_159
10
7.5543739
20
-1.1993346
40
0.8103055
50
186.7055377
51
190.1952096
0
ARC
8
DEFAULT_255_2_159
10
7.9985318
20
-1.1453261
40
1.2577327
50
184.7624432
51
186.7864484
0
ARC
8
DEFAULT_255_2_159
10
6.3188173
20
-0.9659157
40
0.5121657
50
310.0138963
51
326.3455731
0
ARC
8
DEFAULT_255_2_159
10
6.4124366
20
-1.0763419
40
0.3673974
50
269.2796046
51
309.9046019
0
ARC
8
DEFAULT_255_2_159
10
6.403259
20
-0.8511331
40
0.5925948
50
257.6471671
51
270.4407293
0
ARC
8
DEFAULT_255_2_159
10
6.3583539
20
-1.0448578
40
0.393756
50
231.8569235
51
257.9995575
0
ARC
8
DEFAULT_255_2_159
10
6.3417629
20
-1.0713712
40
0.3626721
50
224.9857051
51
231.331292
0
ARC
8
DEFAULT_255_2_159
10
6.3549779
20
-1.0621148
40
0.3785728
50
194.0334627
51
224.5626623
0
ARC
8
DEFAULT_255_2_159
10
6.5436294
20
-1.0103762
40
0.574157
50
181.1498315
51
194.4774031
0
ARC
8
DEFAULT_255_2_159
10
6.7098409
20
-1.0010962
40
0.7405452
50
179.9904137
51
181.6096219
0
ARC
8
DEFAULT_255_2_159
10
6.5198011
20
-0.9953149
40
0.5505344
50
163.0023617
51
180.5887962
0
ARC
8
DEFAULT_255_2_159
10
6.4096177
20
-0.9648259
40
0.4362619
50
130.4265487
51
162.6014004
0
ARC
8
DEFAULT_255_2_159
10
6.4747432
20
-1.0418213
40
0.537106
50
105.2155813
51
130.3888387
0
ARC
8
DEFAULT_255_2_159
10
6.5486411
20
-1.2965118
40
0.8022754
50
92.8505304
51
105.5343554
0
ARC
8
DEFAULT_255_2_159
10
6.5685428
20
-1.5465533
40
1.0530235
50
90.562352
51
93.2554765
0
ARC
8
DEFAULT_255_2_159
10
6.2539874
20
-0.3294218
40
0.4869441
50
359.702996
51
7.5939482
0
ARC
8
DEFAULT_255_2_159
10
6.4441772
20
-0.3030445
40
0.2949383
50
7.397352
51
19.7864675
0
ARC
8
DEFAULT_255_2_159
10
6.5572045
20
-0.2611135
40
0.1743938
50
19.3941943
51
42.3374072
0
ARC
8
DEFAULT_255_2_159
10
6.5820159
20
-0.241244
40
0.1426858
50
43.1497753
51
46.3595356
0
ARC
8
DEFAULT_255_2_159
10
6.5530256
20
-0.2747753
40
0.1869714
50
47.0218369
51
71.377936
0
ARC
8
DEFAULT_255_2_159
10
6.5163246
20
-0.3780256
40
0.2965412
50
71.0283544
51
83.8291213
0
ARC
8
DEFAULT_255_2_159
10
6.4978058
20
-0.5278818
40
0.4475256
50
83.5342943
51
90.1844754
0
ARC
8
DEFAULT_255_2_159
10
6.4936749
20
-0.3888892
40
0.3085427
50
89.5004644
51
105.0694412
0
ARC
8
DEFAULT_255_2_159
10
6.4744937
20
-0.3161954
40
0.233362
50
105.1622653
51
133.5712237
0
ARC
8
DEFAULT_255_2_159
10
6.4655458
20
-0.3091113
40
0.2220678
50
133.1583731
51
179.8485046
0
ARC
8
DEFAULT_255_2_159
10
6.5370728
20
-0.3164587
40
0.2937011
50
178.4519154
51
180.0051813
0
ARC
8
DEFAULT_255_2_159
10
6.3899687
20
-0.3176766
40
0.3953754
50
150.0695254
51
179.8273531
0
ARC
8
DEFAULT_255_2_159
10
6.4691303
20
-0.3572395
40
0.4837472
50
146.9913611
51
150.686751
0
ARC
8
DEFAULT_255_2_159
10
6.4656834
20
-0.3551417
40
0.4797139
50
116.8531908
51
146.9772036
0
ARC
8
DEFAULT_255_2_159
10
6.4971932
20
-0.4112108
40
0.5439772
50
93.4069942
51
117.1465572
0
ARC
8
DEFAULT_255_2_159
10
6.5087074
20
-0.5188069
40
0.6520872
50
89.9730143
51
93.8550745
0
ARC
8
DEFAULT_255_2_159
10
6.5138336
20
-0.6186219
40
0.7519177
50
80.0369596
51
90.3672089
0
ARC
8
DEFAULT_255_2_159
10
6.5625215
20
-0.352352
40
0.4812434
50
63.2681482
51
80.261455
0
ARC
8
DEFAULT_255_2_159
10
6.6129103
20
-0.2471013
40
0.3645835
50
46.4924671
51
62.9003902
0
ARC
8
DEFAULT_255_2_159
10
6.6008509
20
-0.2538707
40
0.3778175
50
16.0439838
51
45.8728052
0
ARC
8
DEFAULT_255_2_159
10
6.4112951
20
-0.3131142
40
0.5763814
50
3.3042785
51
16.4960354
0
ARC
8
DEFAULT_255_2_159
10
6.2194426
20
-0.3299927
40
0.7689096
50
0.6923336
51
3.7358984
0
ARC
8
DEFAULT_255_2_159
10
8.1352981
20
-1.0829668
40
1.1470136
50
180.2571353
51
187.5123446
0
ARC
8
DEFAULT_255_2_159
10
7.8033623
20
-1.1277133
40
0.8120775
50
187.4442449
51
197.3601421
0
ARC
8
DEFAULT_255_2_159
10
7.6659563
20
-1.1672966
40
0.6691277
50
197.635739
51
199.7232204
0
ARC
8
DEFAULT_255_2_159
10
6.4449204
20
-0.8898562
40
0.3275669
50
270.1479459
51
300.7203934
0
ARC
8
DEFAULT_255_2_159
10
6.4161591
20
-0.8327005
40
0.3914203
50
300.0656705
51
301.3927327
0
ARC
8
DEFAULT_255_2_159
10
6.4378926
20
-0.8637286
40
0.3536212
50
301.0055706
51
315.4351296
0
ARC
8
DEFAULT_255_2_159
10
6.4862224
20
-0.9124468
40
0.2850029
50
315.5951169
51
333.3398784
0
ARC
8
DEFAULT_255_2_159
10
6.6073189
20
-1.3557593
40
0.6780916
50
90.5868918
51
100.1334378
0
ARC
8
DEFAULT_255_2_159
10
6.5654513
20
-1.1278731
40
0.4463955
50
99.9896983
51
114.4241086
0
ARC
8
DEFAULT_255_2_159
10
6.5224158
20
-1.0287799
40
0.3383802
50
114.7271112
51
126.5978775
0
ARC
8
DEFAULT_255_2_159
10
6.4650198
20
-0.9563216
40
0.2460053
50
125.9269875
51
175.4861865
0
ARC
8
DEFAULT_255_2_159
10
6.5584795
20
-0.97099
40
0.3404073
50
174.2628266
51
180.0785025
0
ARC
8
DEFAULT_255_2_159
10
6.7268295
20
-0.9739802
40
0.5087633
50
179.7157738
51
187.2459568
0
ARC
8
DEFAULT_255_2_159
10
6.5312287
20
-0.9995579
40
0.3114995
50
187.1167411
51
198.0695187
0
ARC
8
DEFAULT_255_2_159
10
6.4116241
20
-1.0397726
40
0.1853235
50
197.7190825
51
217.1988256
0
ARC
8
DEFAULT_255_2_159
10
6.3784429
20
-1.0625214
40
0.1451527
50
217.9647884
51
221.7061219
0
ARC
8
DEFAULT_255_2_159
10
6.3824023
20
-1.0561499
40
0.1523626
50
222.5043323
51
249.4724243
0
ARC
8
DEFAULT_255_2_159
10
6.4199389
20
-0.962069
40
0.2536414
50
248.9838164
51
262.1583461
0
ARC
8
DEFAULT_255_2_159
10
6.4434958
20
-0.8017872
40
0.415641
50
261.9559288
51
270.3129862
0
LINE
8
DEFAULT_255_2_159
10
8.2181239
20
0.10517
11
8.5076605
21
-0.978484
0
LINE
8
DEFAULT_255_2_159
10
8.5076605
20
-0.978484
11
8.7381654
21
0.10517
0
LINE
8
DEFAULT_255_2_159
10
8.7381654
20
0.10517
11
8.984131
21
0.10517
0
LINE
8
DEFAULT_255_2_159
10
8.984131
20
0.10517
11
8.6116688
21
-1.4156
0
LINE
8
DEFAULT_255_2_159
10
8.6116688
20
-1.4156
11
8.4134909
21
-1.4156
0
LINE
8
DEFAULT_255_2_159
10
8.4134909
20
-1.4156
11
8.1169267
21
-0.3277294
0
LINE
8
DEFAULT_255_2_159
10
8.1169267
20
-0.3277294
11
7.82739
21
-1.4156
0
LINE
8
DEFAULT_255_2_159
10
7.82739
20
-1.4156
11
7.6278065
21
-1.4156
0
LINE
8
DEFAULT_255_2_159
10
7.6278065
20
-1.4156
11
7.2581554
21
0.10517
0
LINE
8
DEFAULT_255_2_159
10
7.2581554
20
0.10517
11
7.5027155
21
0.10517
0
LINE
8
DEFAULT_255_2_159
10
7.5027155
20
0.10517
11
7.7388424
21
-0.9517792
0
LINE
8
DEFAULT_255_2_159
10
7.7388424
20
-0.9517792
11
8.0213515
21
0.10517
0
LINE
8
DEFAULT_255_2_159
10
8.0213515
20
0.10517
11
8.2181239
21
0.10517
0
LINE
8
DEFAULT_255_2_159
10
9.5126056
20
0.10517
11
9.5126056
21
-1.4156
0
LINE
8
DEFAULT_255_2_159
10
9.5126056
20
-1.4156
11
9.263829
21
-1.4156
0
LINE
8
DEFAULT_255_2_159
10
9.263829
20
-1.4156
11
9.263829
21
0.10517
0
LINE
8
DEFAULT_255_2_159
10
9.263829
20
0.10517
11
9.5126056
21
0.10517
0
ARC
8
DEFAULT_255_2_159
10
9.344281
20
0.5070504
40
0.1880079
50
345.1733523
51
0.4580829
0
ARC
8
DEFAULT_255_2_159
10
9.3848581
20
0.4966387
40
0.1461178
50
320.2165424
51
345.0485067
0
ARC
8
DEFAULT_255_2_159
10
9.412136
20
0.4749384
40
0.1112725
50
284.9015134
51
319.8155182
0
ARC
8
DEFAULT_255_2_159
10
9.3943464
20
0.5345635
40
0.173477
50
272.0757186
51
285.5152503
0
ARC
8
DEFAULT_255_2_159
10
9.390416
20
0.5916598
40
0.2306856
50
269.9775439
51
272.5376376
0
ARC
8
DEFAULT_255_2_159
10
9.3888551
20
0.5476596
40
0.1866912
50
257.9355933
51
270.4512974
0
ARC
8
DEFAULT_255_2_159
10
9.3742839
20
0.4831205
40
0.1205342
50
233.753477
51
258.2968672
0
ARC
8
DEFAULT_255_2_159
10
9.367405
20
0.4717061
40
0.1072682
50
219.732534
51
233.1118586
0
ARC
8
DEFAULT_255_2_159
10
9.4004874
20
0.4986084
40
0.1499066
50
187.8064346
51
219.5576644
0
ARC
8
DEFAULT_255_2_159
10
9.451979
20
0.5079725
40
0.2022059
50
179.8353612
51
188.4534478
0
ARC
8
DEFAULT_255_2_159
10
9.4384877
20
0.5101271
40
0.1887204
50
164.0989256
51
180.4777193
0
ARC
8
DEFAULT_255_2_159
10
9.4038887
20
0.5192709
40
0.1529417
50
141.0709343
51
163.8421713
0
ARC
8
DEFAULT_255_2_159
10
9.3722096
20
0.5443359
40
0.1125485
50
102.5462953
51
140.8636471
0
ARC
8
DEFAULT_255_2_159
10
9.388512
20
0.481496
40
0.1774436
50
89.8813162
51
103.2768623
0
ARC
8
DEFAULT_255_2_159
10
9.3903563
20
0.422014
40
0.2369299
50
90.0074294
51
90.3571227
0
ARC
8
DEFAULT_255_2_159
10
9.3918836
20
0.4817463
40
0.1772045
50
76.6710215
51
90.5037652
0
ARC
8
DEFAULT_255_2_159
10
9.4074547
20
0.5422932
40
0.1147048
50
39.1228016
51
77.2669724
0
ARC
8
DEFAULT_255_2_159
10
9.3715231
20
0.5138196
40
0.1605478
50
2.5398331
51
38.9148561
0
ARC
8
DEFAULT_255_2_159
10
9.3276053
20
0.5086391
40
0.2046775
50
359.9760536
51
3.4438497
0
LINE
8
DEFAULT_255_2_159
10
9.9033395
20
0.10517
11
10.1380609
21
0.10517
0
LINE
8
DEFAULT_255_2_159
10
10.1380609
20
0.10517
11
10.1450885
21
-0.0592755
0
LINE
8
DEFAULT_255_2_159
10
10.9237453
20
-0.4050329
11
10.9237453
21
-1.4156
0
LINE
8
DEFAULT_255_2_159
10
10.9237453
20
-1.4156
11
10.6763742
21
-1.4156
0
LINE
8
DEFAULT_255_2_159
10
10.6763742
20
-1.4156
11
10.6763742
21
-0.416277
0
LINE
8
DEFAULT_255_2_159
10
10.1521161
20
-0.3108632
11
10.1521161
21
-1.4156
0
LINE
8
DEFAULT_255_2_159
10
10.1521161
20
-1.4156
11
9.9033395
21
-1.4156
0
LINE
8
DEFAULT_255_2_159
10
9.9033395
20
-1.4156
11
9.9033395
21
0.10517
0
ARC
8
DEFAULT_255_2_159
10
10.5611126
20
-0.3645443
40
0.5160088
50
124.3810182
51
143.7296491
0
ARC
8
DEFAULT_255_2_159
10
10.5080549
20
-0.2970462
40
0.4303785
50
89.1100339
51
123.6257834
0
ARC
8
DEFAULT_255_2_159
10
10.5251099
20
-0.2908231
40
0.4242302
50
65.1645568
51
91.4007267
0
ARC
8
DEFAULT_255_2_159
10
10.5456275
20
-0.2153054
40
0.347326
50
20.1816531
51
63.0033084
0
ARC
8
DEFAULT_255_2_159
10
10.2278526
20
-0.3484738
40
0.6917041
50
6.209125
51
21.4541324
0
ARC
8
DEFAULT_255_2_159
10
9.7438309
20
-0.4131528
40
1.1799425
50
0.3942922
51
6.789351
0
ARC
8
DEFAULT_255_2_159
10
9.8228338
20
-0.4132844
40
0.8535456
50
359.7991158
51
5.3646314
0
ARC
8
DEFAULT_255_2_159
10
10.1562835
20
-0.3806609
40
0.518508
50
5.2204066
51
13.7717367
0
ARC
8
DEFAULT_255_2_159
10
10.3762093
20
-0.3254228
40
0.2917579
50
13.5172713
51
27.381952
0
ARC
8
DEFAULT_255_2_159
10
10.4681193
20
-0.279575
40
0.1890658
50
27.8547855
51
38.2285572
0
ARC
8
DEFAULT_255_2_159
10
10.4669743
20
-0.2823645
40
0.1916971
50
38.6717494
51
78.0507227
0
ARC
8
DEFAULT_255_2_159
10
10.4399403
20
-0.3900674
40
0.3026919
50
77.2653752
51
90.474002
0
ARC
8
DEFAULT_255_2_159
10
10.4364066
20
-0.3398148
40
0.252431
50
89.7663125
51
130.9743444
0
ARC
8
DEFAULT_255_2_159
10
10.5430453
20
-0.4705164
40
0.4210683
50
130.2679423
51
149.5909187
0
ARC
8
DEFAULT_255_2_159
10
10.6321281
20
-0.5263027
40
0.5261421
50
149.2619548
51
155.8284538
0
LINE
8
DEFAULT_255_2_159
10
11.2470143
20
-0.7550067
11
11.2470143
21
-0.5863446
0
LINE
8
DEFAULT_255_2_159
10
12.1071911
20
-0.0648976
11
12.1198407
21
0.10517
0
LINE
8
DEFAULT_255_2_159
10
12.1198407
20
0.10517
11
12.3447235
21
0.10517
0
LINE
8
DEFAULT_255_2_159
10
12.3447235
20
0.10517
11
12.3447235
21
-1.4296552
0
LINE
8
DEFAULT_255_2_159
10
11.3341564
20
-1.8217946
11
11.4353537
21
-1.6503214
0
LINE
8
DEFAULT_255_2_159
10
12.0959469
20
-1.4633876
11
12.0959469
21
-1.2652096
0
LINE
8
DEFAULT_255_2_159
10
11.4957909
20
-0.576506
11
11.4957909
21
-0.7283019
0
LINE
8
DEFAULT_255_2_159
10
12.0959469
20
-1.0347047
11
12.0959469
21
-0.2743197
0
ARC
8
DEFAULT_255_2_159
10
12.8150053
20
-0.5793431
40
1.5680066
50
173.0830806
51
180.2558392
0
ARC
8
DEFAULT_255_2_159
10
12.2300547
20
-0.5059021
40
0.9784721
50
162.4986945
51
173.2271846
0
ARC
8
DEFAULT_255_2_159
10
11.8670824
20
-0.3888832
40
0.5971159
50
145.2739332
51
162.7334259
0
ARC
8
DEFAULT_255_2_159
10
11.7201225
20
-0.287911
40
0.4188131
50
95.060097
51
145.1742489
0
ARC
8
DEFAULT_255_2_159
10
11.7532069
20
-0.479877
40
0.6131585
50
89.8879418
51
96.557608
0
ARC
8
DEFAULT_255_2_159
10
11.7603912
20
-0.295339
40
0.4286611
50
68.335068
51
90.8000026
0
ARC
8
DEFAULT_255_2_159
10
11.7692579
20
-0.252104
40
0.3852842
50
34.1435312
51
67.1867856
0
ARC
8
DEFAULT_255_2_159
10
11.6664755
20
-0.3333486
40
0.5160389
50
31.3466499
51
35.2041845
0
ARC
8
DEFAULT_255_2_159
10
11.4617739
20
-1.4356975
40
0.8829703
50
349.339958
51
0.3920887
0
ARC
8
DEFAULT_255_2_159
10
11.7679564
20
-1.4956754
40
0.5709816
50
331.0147518
51
349.5712364
0
ARC
8
DEFAULT_255_2_159
10
11.8704286
20
-1.5481872
40
0.4559133
50
316.2847626
51
330.5469824
0
ARC
8
DEFAULT_255_2_159
10
11.8590139
20
-1.5328448
40
0.4747772
50
281.9697797
51
315.8984886
0
ARC
8
DEFAULT_255_2_159
10
11.8020129
20
-1.2979468
40
0.7164243
50
269.5648369
51
282.5331968
0
ARC
8
DEFAULT_255_2_159
10
11.7999802
20
-1.4693514
40
0.5450097
50
258.2554579
51
269.6416675
0
ARC
8
DEFAULT_255_2_159
10
11.8499133
20
-1.2224855
40
0.7968725
50
250.3769848
51
258.3533448
0
ARC
8
DEFAULT_255_2_159
10
11.9226512
20
-1.0068864
40
1.0243852
50
248.3236696
51
250.5946274
0
ARC
8
DEFAULT_255_2_159
10
11.8163089
20
-1.2648319
40
0.74541
50
240.8085215
51
248.596296
0
ARC
8
DEFAULT_255_2_159
10
11.6935555
20
-1.482473
40
0.4955411
50
229.5649699
51
240.9256471
0
ARC
8
DEFAULT_255_2_159
10
11.6105728
20
-1.5823327
40
0.3657158
50
220.9026652
51
229.3133751
0
ARC
8
DEFAULT_255_2_159
10
11.8476322
20
-1.2377037
40
0.5832898
50
225.0235593
51
240.5751877
0
ARC
8
DEFAULT_255_2_159
10
11.7763589
20
-1.362812
40
0.4393055
50
240.6555048
51
270.0698477
0
ARC
8
DEFAULT_255_2_159
10
11.7835923
20
-1.3920572
40
0.4101149
50
269.0642204
51
287.3508575
0
ARC
8
DEFAULT_255_2_159
10
11.8269009
20
-1.5387144
40
0.2572267
50
287.88513
51
347.3268896
0
ARC
8
DEFAULT_255_2_159
10
11.5583009
20
-1.4567091
40
0.5376874
50
345.0800622
51
359.2883185
0
ARC
8
DEFAULT_255_2_159
10
11.7591685
20
-1.0446718
40
0.4025626
50
300.0174013
51
326.781392
0
ARC
8
DEFAULT_255_2_159
10
11.7660715
20
-1.0399949
40
0.4032447
50
272.2744294
51
298.835615
0
ARC
8
DEFAULT_255_2_159
10
11.7532102
20
-0.9150958
40
0.5286146
50
269.9772856
51
273.1301248
0
ARC
8
DEFAULT_255_2_159
10
11.7470865
20
-0.9429524
40
0.5007928
50
251.0657613
51
270.676656
0
ARC
8
DEFAULT_255_2_159
10
11.7268012
20
-1.0202855
40
0.4211035
50
215.6825129
51
250.2622129
0
ARC
8
DEFAULT_255_2_159
10
11.8777099
20
-0.9080504
40
0.6091549
50
197.3940376
51
215.9778766
0
ARC
8
DEFAULT_255_2_159
10
12.2189124
20
-0.7965853
40
0.9680861
50
186.6818662
51
197.6525847
0
ARC
8
DEFAULT_255_2_159
10
12.6966926
20
-0.7348223
40
1.4498189
50
180.7976988
51
186.9091267
0
ARC
8
DEFAULT_255_2_159
10
12.8803238
20
-0.7332079
40
1.3845415
50
179.7969783
51
185.2797816
0
ARC
8
DEFAULT_255_2_159
10
12.3395646
20
-0.7847525
40
0.8413349
50
185.1731571
51
193.1103435
0
ARC
8
DEFAULT_255_2_159
10
11.9873529
20
-0.8686949
40
0.4792668
50
192.8875826
51
205.4972451
0
ARC
8
DEFAULT_255_2_159
10
11.8471804
20
-0.9320929
40
0.3254705
50
206.0458589
51
211.9402252
0
ARC
8
DEFAULT_255_2_159
10
11.780152
20
-0.9745039
40
0.2461537
50
211.8169311
51
260.6697223
0
ARC
8
DEFAULT_255_2_159
10
11.8152001
20
-0.8228081
40
0.401649
50
259.244393
51
270.3501161
0
ARC
8
DEFAULT_255_2_159
10
11.8246853
20
-0.9463503
40
0.2781882
50
268.5517747
51
322.4107785
0
ARC
8
DEFAULT_255_2_159
10
11.7069432
20
-0.8481868
40
0.431408
50
321.6188048
51
334.3833998
0
ARC
8
DEFAULT_255_2_159
10
11.7092675
20
-0.4697699
40
0.4332687
50
26.8146757
51
41.8264992
0
ARC
8
DEFAULT_255_2_159
10
11.8254003
20
-0.3626396
40
0.2752979
50
41.3303818
51
91.0271061
0
ARC
8
DEFAULT_255_2_159
10
11.8167583
20
-0.4709665
40
0.3835986
50
89.4462701
51
103.8631458
0
ARC
8
DEFAULT_255_2_159
10
11.780916
20
-0.3367208
40
0.2446895
50
103.2467122
51
148.1386318
0
ARC
8
DEFAULT_255_2_159
10
11.9160676
20
-0.418111
40
0.4024468
50
148.4539791
51
163.5415647
0
ARC
8
DEFAULT_255_2_159
10
12.2025501
20
-0.506243
40
0.7021683
50
163.2678296
51
172.421665
0
ARC
8
DEFAULT_255_2_159
10
12.641337
20
-0.5676072
40
1.1452192
50
172.273559
51
178.2506359
0
ARC
8
DEFAULT_255_2_159
10
13.0296583
20
-0.5846651
40
1.5338892
50
178.0565668
51
179.6952303
0
LINE
8
DEFAULT_255_2_778
10
0.1322711
20
2.1166
11
16.6687711
21
2.1166
0
LINE
8
DEFAULT_9_2_005
10
5.5165483
20
5.8520648
11
5.5165483
21
4.1567049
0
LINE
8
DEFAULT_9_2_005
10
5.5165483
20
4.1567049
11
6.2617758
21
4.1567049
0
LINE
8
DEFAULT_9_2_005
10
6.2617758
20
4.1567049
11
6.2617758
21
3.9518
0
LINE
8
DEFAULT_9_2_005
10
6.2617758
20
3.9518
11
5.2764049
21
3.9518
0
LINE
8
DEFAULT_9_2_005
10
5.2764049
20
3.9518
11
5.2764049
21
5.8520648
0
LINE
8
DEFAULT_9_2_005
10
5.2764049
20
5.8520648
11
5.5165483
21
5.8520648
0
LINE
8
DEFAULT_9_2_005
10
7.4807644
20
3.9518
11
7.240621
21
3.9518
0
LINE
8
DEFAULT_9_2_005
10
7.0370212
20
4.8079633
11
7.2066877
21
4.8079633
0
LINE
8
DEFAULT_9_2_005
10
7.2066877
20
4.8079633
11
7.2066877
21
4.9580529
0
LINE
8
DEFAULT_9_2_005
10
6.7446728
20
4.9724093
11
6.5136653
21
4.9724093
0
LINE
8
DEFAULT_9_2_005
10
7.43639
20
4.9684939
11
7.43639
21
4.2558946
0
LINE
8
DEFAULT_9_2_005
10
7.4807644
20
3.972682
11
7.4807644
21
3.9518
0
LINE
8
DEFAULT_9_2_005
10
7.2066877
20
4.3002689
11
7.2066877
21
4.6369917
0
LINE
8
DEFAULT_9_2_005
10
7.2066877
20
4.6369917
11
7.076175
21
4.6369917
0
ARC
8
DEFAULT_9_2_005
10
7.4291158
20
4.0354884
40
0.2062378
50
195.1856753
51
203.9403969
0
ARC
8
DEFAULT_9_2_005
10
7.6351547
20
4.0930849
40
0.4201727
50
190.0949994
51
195.4057441
0
ARC
8
DEFAULT_9_2_005
10
7.9620378
20
4.1526149
40
0.7524306
50
186.7052442
51
190.1949064
0
ARC
8
DEFAULT_9_2_005
10
8.3747925
20
4.2028047
40
1.1682236
50
184.762857
51
186.7862978
0
ARC
8
DEFAULT_9_2_005
10
6.8147328
20
4.3693628
40
0.4755796
50
310.0137676
51
326.3455815
0
ARC
8
DEFAULT_9_2_005
10
6.9016617
20
4.2668261
40
0.3411557
50
269.2796505
51
309.9046522
0
ARC
8
DEFAULT_9_2_005
10
6.8931406
20
4.4759534
40
0.5502722
50
257.6471898
51
270.4406558
0
ARC
8
DEFAULT_9_2_005
10
6.8514409
20
4.2960591
40
0.3656288
50
231.8568396
51
257.9996717
0
ARC
8
DEFAULT_9_2_005
10
6.8360489
20
4.2714563
40
0.3367871
50
224.985918
51
231.3311422
0
ARC
8
DEFAULT_9_2_005
10
6.8483069
20
4.280037
40
0.3515324
50
194.0334555
51
224.562694
0
ARC
8
DEFAULT_9_2_005
10
7.0234802
20
4.3280805
40
0.5331434
50
181.1498584
51
194.4775283
0
ARC
8
DEFAULT_9_2_005
10
7.1786159
20
4.3367038
40
0.6884429
50
179.9909577
51
181.608303
0
ARC
8
DEFAULT_9_2_005
10
7.0013566
20
4.3420652
40
0.5112106
50
163.002257
51
180.5887303
0
ARC
8
DEFAULT_9_2_005
10
6.8990422
20
4.3703788
40
0.4050988
50
130.4264634
51
162.6015345
0
ARC
8
DEFAULT_9_2_005
10
6.9595194
20
4.2988785
40
0.4987454
50
105.2156284
51
130.3887407
0
ARC
8
DEFAULT_9_2_005
10
7.028136
20
4.0623942
40
0.74496
50
92.8504239
51
105.5344554
0
ARC
8
DEFAULT_9_2_005
10
7.0466062
20
3.8305257
40
0.9774845
50
90.5618419
51
93.2558637
0
ARC
8
DEFAULT_9_2_005
10
6.7545113
20
4.9603942
40
0.4521825
50
359.7033268
51
7.5939472
0
ARC
8
DEFAULT_9_2_005
10
6.9311129
20
4.9848845
40
0.2738951
50
7.3978866
51
19.7859544
0
ARC
8
DEFAULT_9_2_005
10
7.0360904
20
5.0238265
40
0.1619367
50
19.3941242
51
42.3374573
0
ARC
8
DEFAULT_9_2_005
10
7.0589461
20
5.0420926
40
0.1327532
50
43.1536809
51
46.3571778
0
ARC
8
DEFAULT_9_2_005
10
7.0322125
20
5.0111458
40
0.1736104
50
47.0213218
51
71.3783362
0
ARC
8
DEFAULT_9_2_005
10
6.9981293
20
4.915263
40
0.2753619
50
71.0283866
51
83.8290818
0
ARC
8
DEFAULT_9_2_005
10
6.9809336
20
4.776104
40
0.4155685
50
83.5344242
51
90.1844783
0
ARC
8
DEFAULT_9_2_005
10
6.9770983
20
4.9051729
40
0.2865086
50
89.5005898
51
105.0693506
0
ARC
8
DEFAULT_9_2_005
10
6.9592866
20
4.9726782
40
0.2166941
50
105.1622477
51
133.5711751
0
ARC
8
DEFAULT_9_2_005
10
6.9509782
20
4.9792566
40
0.2062066
50
133.1584616
51
179.8485193
0
ARC
8
DEFAULT_9_2_005
10
7.0172348
20
4.9724414
40
0.2725618
50
178.4525613
51
180.0067461
0
ARC
8
DEFAULT_9_2_005
10
6.8807982
20
4.9713033
40
0.3671346
50
150.0695048
51
179.8273918
0
ARC
8
DEFAULT_9_2_005
10
6.9543327
20
4.9345528
40
0.4492245
50
146.9917845
51
150.6869327
0
ARC
8
DEFAULT_9_2_005
10
6.9511058
20
4.9365136
40
0.4454502
50
116.8531967
51
146.9771833
0
ARC
8
DEFAULT_9_2_005
10
6.9803649
20
4.8844494
40
0.5051232
50
93.4070088
51
117.1465635
0
ARC
8
DEFAULT_9_2_005
10
6.9910621
20
4.784451
40
0.6055991
50
89.9735435
51
93.8550408
0
ARC
8
DEFAULT_9_2_005
10
6.9958165
20
4.6918535
40
0.6982108
50
80.0369524
51
90.3672082
0
ARC
8
DEFAULT_9_2_005
10
7.041027
20
4.9391076
40
0.4468668
50
63.2679751
51
80.2614002
0
ARC
8
DEFAULT_9_2_005
10
7.0878199
20
5.0368429
40
0.3385363
50
46.4922353
51
62.9004664
0
ARC
8
DEFAULT_9_2_005
10
7.0766207
20
5.0305528
40
0.3508291
50
16.0438805
51
45.8729062
0
ARC
8
DEFAULT_9_2_005
10
6.9005873
20
4.9755373
40
0.5352275
50
3.3044205
51
16.4958111
0
ARC
8
DEFAULT_9_2_005
10
6.7225464
20
4.9598685
40
0.7138959
50
0.6922744
51
3.736238
0
ARC
8
DEFAULT_9_2_005
10
8.5014449
20
4.260673
40
1.0650656
50
180.2570586
51
187.5124134
0
ARC
8
DEFAULT_9_2_005
10
8.1932408
20
4.2191227
40
0.7540752
50
187.4441277
51
197.3600099
0
ARC
8
DEFAULT_9_2_005
10
8.0656054
20
4.1823565
40
0.6212908
50
197.6359061
51
199.7235345
0
ARC
8
DEFAULT_9_2_005
10
6.9318255
20
4.4399929
40
0.304171
50
270.1479771
51
300.7203309
0
ARC
8
DEFAULT_9_2_005
10
6.9051321
20
4.4930376
40
0.363432
50
300.0660192
51
301.3931932
0
ARC
8
DEFAULT_9_2_005
10
6.9253065
20
4.4642439
40
0.3283518
50
301.0054222
51
315.4354915
0
ARC
8
DEFAULT_9_2_005
10
6.9701795
20
4.4190137
40
0.264644
50
315.5950155
51
333.3399305
0
ARC
8
DEFAULT_9_2_005
10
7.0826239
20
4.0073729
40
0.6296518
50
90.5868361
51
100.1334782
0
ARC
8
DEFAULT_9_2_005
10
7.0437494
20
4.2189708
40
0.4145164
50
99.9898384
51
114.4240672
0
ARC
8
DEFAULT_9_2_005
10
7.0037979
20
4.3109713
40
0.314234
50
114.7276273
51
126.5975211
0
ARC
8
DEFAULT_9_2_005
10
6.9504892
20
4.3782737
40
0.2284342
50
125.926929
51
175.4861293
0
ARC
8
DEFAULT_9_2_005
10
7.0372393
20
4.3646533
40
0.3160592
50
174.2622153
51
180.0785212
0
ARC
8
DEFAULT_9_2_005
10
7.1936255
20
4.3618779
40
0.4724508
50
179.7159497
51
187.2457114
0
ARC
8
DEFAULT_9_2_005
10
7.0119658
20
4.3381264
40
0.289247
50
187.1169474
51
198.0698464
0
ARC
8
DEFAULT_9_2_005
10
6.9009024
20
4.3007817
40
0.1720812
50
197.7190534
51
217.1993972
0
ARC
8
DEFAULT_9_2_005
10
6.8702346
20
4.2797753
40
0.1349653
50
217.967406
51
221.703741
0
ARC
8
DEFAULT_9_2_005
10
6.8737731
20
4.2855764
40
0.1414803
50
222.5043887
51
249.47241
0
ARC
8
DEFAULT_9_2_005
10
6.9086296
20
4.3729431
40
0.2355309
50
248.9840763
51
262.1582616
0
ARC
8
DEFAULT_9_2_005
10
6.9305052
20
4.521801
40
0.3859839
50
261.9562035
51
270.312599
0
LINE
8
DEFAULT_9_2_005
10
8.8172144
20
4.7296557
11
8.8172144
21
4.5900071
0
LINE
8
DEFAULT_9_2_005
10
8.0171715
20
4.1188562
11
8.0054254
21
3.9518
0
LINE
8
DEFAULT_9_2_005
10
8.0054254
20
3.9518
11
7.7953
21
3.9518
0
LINE
8
DEFAULT_9_2_005
10
7.7953
20
3.9518
11
7.7953
21
5.956475
0
LINE
8
DEFAULT_9_2_005
10
7.7953
20
5.956475
11
8.0250023
21
5.956475
0
LINE
8
DEFAULT_9_2_005
10
8.0250023
20
5.956475
11
8.0250023
21
5.2086373
0
LINE
8
DEFAULT_9_2_005
10
8.587512
20
4.5795661
11
8.587512
21
4.7218249
0
LINE
8
DEFAULT_9_2_005
10
8.0250023
20
4.9919862
11
8.0250023
21
4.3198458
0
ARC
8
DEFAULT_9_2_005
10
7.3496655
20
4.5834214
40
1.4675636
50
353.147896
51
0.2571155
0
ARC
8
DEFAULT_9_2_005
10
7.9011743
20
4.5150022
40
0.9118336
50
342.7988801
51
353.2818431
0
ARC
8
DEFAULT_9_2_005
10
8.2457116
20
4.40566
40
0.5503771
50
325.6065431
51
343.0656646
0
ARC
8
DEFAULT_9_2_005
10
8.3303504
20
4.3543848
40
0.4516045
50
324.5960816
51
324.9088614
0
ARC
8
DEFAULT_9_2_005
10
8.3834154
20
4.3110186
40
0.3832558
50
275.2624315
51
325.2844963
0
ARC
8
DEFAULT_9_2_005
10
8.3549664
20
4.4768567
40
0.5511602
50
269.8885497
51
276.6263267
0
ARC
8
DEFAULT_9_2_005
10
8.3482011
20
4.3358219
40
0.410164
50
249.0157606
51
270.7953074
0
ARC
8
DEFAULT_9_2_005
10
8.3365489
20
4.2856262
40
0.3591946
50
213.0267481
51
247.8837564
0
ARC
8
DEFAULT_9_2_005
10
8.437517
20
4.3627409
40
0.4859732
50
210.1223284
51
214.1614257
0
ARC
8
DEFAULT_9_2_005
10
8.3687125
20
4.9999794
40
0.4020881
50
126.6234863
51
148.7391166
0
ARC
8
DEFAULT_9_2_005
10
8.33761
20
5.0300924
40
0.3594341
50
92.271038
51
125.5078871
0
ARC
8
DEFAULT_9_2_005
10
8.3510715
20
4.9134124
40
0.4766375
50
89.9744459
51
93.3322036
0
ARC
8
DEFAULT_9_2_005
10
8.3565981
20
4.8709567
40
0.5191204
50
74.622133
51
90.5865284
0
ARC
8
DEFAULT_9_2_005
10
8.3963799
20
5.0159513
40
0.3687675
50
34.6472664
51
74.6077308
0
ARC
8
DEFAULT_9_2_005
10
8.2567978
20
4.9210347
40
0.5375608
50
17.2617056
51
34.5118191
0
ARC
8
DEFAULT_9_2_005
10
7.907423
20
4.8078548
40
0.9047948
50
7.2233106
51
17.540964
0
ARC
8
DEFAULT_9_2_005
10
7.3687083
20
4.7352711
40
1.4483668
50
0.7985979
51
7.3922795
0
ARC
8
DEFAULT_9_2_005
10
6.9717251
20
4.7225316
40
1.8455029
50
0.2211744
51
1.0222928
0
ARC
8
DEFAULT_9_2_005
10
7.148293
20
4.7260315
40
1.4392252
50
359.8325335
51
4.4661266
0
ARC
8
DEFAULT_9_2_005
10
7.7136396
20
4.7719477
40
0.8720214
50
4.350921
51
11.3304827
0
ARC
8
DEFAULT_9_2_005
10
8.0934933
20
4.8497874
40
0.4842809
50
11.1301071
51
22.0710093
0
ARC
8
DEFAULT_9_2_005
10
8.2764575
20
4.9226334
40
0.2873549
50
22.3186555
51
32.9142022
0
ARC
8
DEFAULT_9_2_005
10
8.3282815
20
4.9547383
40
0.2264074
50
33.2200966
51
79.2767907
0
ARC
8
DEFAULT_9_2_005
10
8.2940315
20
4.8149064
40
0.3702489
50
78.0953223
51
90.4307188
0
ARC
8
DEFAULT_9_2_005
10
8.2855753
20
4.9262097
40
0.2589974
50
88.7449276
51
143.3054849
0
ARC
8
DEFAULT_9_2_005
10
8.417844
20
4.8186705
40
0.4293749
50
142.345813
51
156.1936724
0
ARC
8
DEFAULT_9_2_005
10
8.3943373
20
4.4817529
40
0.4032645
50
203.6714283
51
219.4334788
0
ARC
8
DEFAULT_9_2_005
10
8.2862792
20
4.3919558
40
0.2627679
50
219.2766256
51
271.6528674
0
ARC
8
DEFAULT_9_2_005
10
8.2971461
20
4.4805052
40
0.3512233
50
269.4636748
51
283.4814364
0
ARC
8
DEFAULT_9_2_005
10
8.3306585
20
4.3534202
40
0.2198474
50
282.7095555
51
328.6153771
0
ARC
8
DEFAULT_9_2_005
10
8.2052034
20
4.4273013
40
0.3654303
50
328.9701946
51
343.5699128
0
ARC
8
DEFAULT_9_2_005
10
7.9374769
20
4.5093609
40
0.6454412
50
343.3050591
51
352.2473716
0
ARC
8
DEFAULT_9_2_005
10
7.5102884
20
4.5698192
40
1.0768829
50
352.1260909
51
358.2534336
0
ARC
8
DEFAULT_9_2_005
10
7.115476
20
4.5873483
40
1.4720566
50
358.039841
51
359.6970949
0
LINE
8
DEFAULT_9_2_005
10
9.0691039
20
4.5443276
11
9.0691039
21
4.7152993
0
LINE
8
DEFAULT_9_2_005
10
10.0871029
20
4.7400967
11
10.0871029
21
4.588702
0
LINE
8
DEFAULT_9_2_005
10
10.0871029
20
4.588702
11
9.2988062
21
4.588702
0
LINE
8
DEFAULT_9_2_005
10
9.2988062
20
4.588702
11
9.2988062
21
4.5560738
0
LINE
8
DEFAULT_9_2_005
10
9.9552851
20
4.2833022
11
10.0753567
21
4.137128
0
LINE
8
DEFAULT_9_2_005
10
9.3001113
20
4.7870813
11
9.8560954
21
4.7870813
0
LINE
8
DEFAULT_9_2_005
10
9.8560954
20
4.7870813
11
9.8560954
21
4.8184043
0
ARC
8
DEFAULT_9_2_005
10
9.6114065
20
4.6318632
40
0.70619
50
257.1185276
51
270.4746926
0
ARC
8
DEFAULT_9_2_005
10
9.5531213
20
4.3943106
40
0.4616381
50
226.3660656
51
257.5975634
0
ARC
8
DEFAULT_9_2_005
10
9.5455149
20
4.3811723
40
0.4468944
50
221.8580533
51
225.9095262
0
ARC
8
DEFAULT_9_2_005
10
9.5948995
20
4.4180394
40
0.5083068
50
197.7984477
51
221.2386454
0
ARC
8
DEFAULT_9_2_005
10
9.8635475
20
4.5092453
40
0.7919896
50
185.8158209
51
198.1401346
0
ARC
8
DEFAULT_9_2_005
10
10.2173093
20
4.5514896
40
1.1482278
50
180.3573773
51
186.1241873
0
ARC
8
DEFAULT_9_2_005
10
10.242329
20
4.7218524
40
1.1732435
50
170.8764926
51
180.3200279
0
ARC
8
DEFAULT_9_2_005
10
9.8390925
20
4.7890654
40
0.7644546
50
156.1714952
51
171.0581838
0
ARC
8
DEFAULT_9_2_005
10
9.6604807
20
4.8646207
40
0.5705516
50
142.6713883
51
155.8657746
0
ARC
8
DEFAULT_9_2_005
10
9.5625597
20
4.9434603
40
0.4448928
50
94.0432969
51
143.0980634
0
ARC
8
DEFAULT_9_2_005
10
9.5903687
20
4.7642745
40
0.6257759
50
89.9280384
51
95.4264684
0
ARC
8
DEFAULT_9_2_005
10
9.596573
20
4.7729477
40
0.617126
50
76.83206
51
90.5030668
0
ARC
8
DEFAULT_9_2_005
10
9.6524467
20
4.9906417
40
0.392457
50
37.975401
51
77.5346733
0
ARC
8
DEFAULT_9_2_005
10
9.5666864
20
4.9336407
40
0.4951957
50
18.48669
51
37.0684983
0
ARC
8
DEFAULT_9_2_005
10
9.2388979
20
4.8192341
40
0.8423583
50
7.9359145
51
18.7972862
0
ARC
8
DEFAULT_9_2_005
10
8.7107322
20
4.7415508
40
1.3761969
50
1.0384438
51
8.1031962
0
ARC
8
DEFAULT_9_2_005
10
8.3079178
20
4.7263486
40
1.7792383
50
0.4427265
51
1.292824
0
ARC
8
DEFAULT_9_2_005
10
10.2554801
20
4.5517032
40
0.9566839
50
179.7382444
51
186.7265648
0
ARC
8
DEFAULT_9_2_005
10
9.8849233
20
4.5066159
40
0.5833982
50
186.5917069
51
196.8832883
0
ARC
8
DEFAULT_9_2_005
10
9.6545514
20
4.4348032
40
0.3421045
50
196.5797923
51
214.0468078
0
ARC
8
DEFAULT_9_2_005
10
9.5826985
20
4.3901849
40
0.2576087
50
214.7715462
51
219.6294961
0
ARC
8
DEFAULT_9_2_005
10
9.5972921
20
4.403166
40
0.2771291
50
219.7720964
51
260.2418253
0
ARC
8
DEFAULT_9_2_005
10
9.628016
20
4.5409469
40
0.4181814
50
259.2927156
51
270.3140889
0
ARC
8
DEFAULT_9_2_005
10
9.6327786
20
4.5797609
40
0.456996
50
269.6903094
51
281.5997818
0
ARC
8
DEFAULT_9_2_005
10
9.6527124
20
4.4806655
40
0.3559166
50
281.6639754
51
296.1841552
0
ARC
8
DEFAULT_9_2_005
10
9.6374863
20
4.5036264
40
0.3832563
50
296.7121789
51
311.1158427
0
ARC
8
DEFAULT_9_2_005
10
9.5415435
20
4.6149911
40
0.5302476
50
311.013186
51
320.6027891
0
ARC
8
DEFAULT_9_2_005
10
9.4590363
20
4.6865115
40
0.6394064
50
320.3427777
51
320.9056463
0
ARC
8
DEFAULT_9_2_005
10
9.6784921
20
4.4174583
40
0.4858875
50
278.8162382
51
324.7640569
0
ARC
8
DEFAULT_9_2_005
10
9.6210477
20
4.6800293
40
0.7543414
50
269.7120884
51
280.071295
0
ARC
8
DEFAULT_9_2_005
10
9.5879239
20
4.8620924
40
0.3295941
50
89.4383644
51
104.4134245
0
ARC
8
DEFAULT_9_2_005
10
9.5594374
20
4.9676845
40
0.2202387
50
104.073607
51
145.2773536
0
ARC
8
DEFAULT_9_2_005
10
9.6563039
20
4.9032077
40
0.3365886
50
145.648589
51
161.0500796
0
ARC
8
DEFAULT_9_2_005
10
9.8881582
20
4.8208797
40
0.5826181
50
160.797023
51
170.3081388
0
ARC
8
DEFAULT_9_2_005
10
10.257674
20
4.7553652
40
0.9578921
50
170.1662744
51
176.5000745
0
ARC
8
DEFAULT_9_2_005
10
10.5654699
20
4.7315984
40
1.2665744
50
176.2769493
51
177.4893303
0
ARC
8
DEFAULT_9_2_005
10
8.7719
20
4.7728021
40
1.085154
50
2.4084898
51
7.6402625
0
ARC
8
DEFAULT_9_2_005
10
9.1959865
20
4.8308924
40
0.6571103
50
7.5364131
51
15.1173394
0
ARC
8
DEFAULT_9_2_005
10
9.4729877
20
4.9072688
40
0.3697795
50
14.8861126
51
27.0603538
0
ARC
8
DEFAULT_9_2_005
10
9.5932209
20
4.9666596
40
0.2356968
50
27.4999496
51
36.1002742
0
ARC
8
DEFAULT_9_2_005
10
9.6191887
20
4.9846963
40
0.2040892
50
36.3043267
51
79.8524657
0
ARC
8
DEFAULT_9_2_005
10
9.5931599
20
4.8728627
40
0.3188142
50
78.7887703
51
90.3603758
0
LINE
8
DEFAULT_9_2_005
10
10.613069
20
5.956475
11
10.613069
21
3.9518
0
LINE
8
DEFAULT_9_2_005
10
10.613069
20
3.9518
11
10.3820616
21
3.9518
0
LINE
8
DEFAULT_9_2_005
10
10.3820616
20
3.9518
11
10.3820616
21
5.956475
0
LINE
8
DEFAULT_9_2_005
10
10.3820616
20
5.956475
11
10.613069
21
5.956475
0
ENDSEC
0
EOF