0
SECTION
2
HEADER
9
$MEASUREMENT
70
1
0
ENDSEC
0
SECTION
2
TABLES
0
TABLE
2
LTYPE
0
LTYPE
72
65
70
64
2
CONTINUOUS
3
______
73
0
40
0
0
ENDTAB
0
TABLE
2
LAYER
0
LAYER
2
DEFAULT_255_2_778
70
0
62
255
6
CONTINUOUS
0
ENDTAB
0
ENDSEC
0
SECTION
2
ENTITIES
0
ARC
8
DEFAULT_255_2_778
10
12.8674735
20
75.2727918
40
0.2998255
50
204.9978083
51
265.0369266
0
ARC
8
DEFAULT_255_2_778
10
12.8677258
20
75.274974
40
0.3020213
50
265.0250588
51
269.9978974
0
ARC
8
DEFAULT_255_2_778
10
12.8677758
20
75.2730979
40
0.3001452
50
269.9883311
51
324.9647626
0
ARC
8
DEFAULT_255_2_778
10
12.8683746
20
75.2727333
40
0.2994457
50
324.956117
51
0.0169178
0
ARC
8
DEFAULT_255_2_778
10
12.8669695
20
75.2728135
40
0.3008507
50
0.0015725
51
1.7062868
0
ARC
8
DEFAULT_255_2_778
10
12.8662888
20
75.2727061
40
0.3015344
50
1.722825
51
24.9267326
0
ARC
8
DEFAULT_255_2_778
10
18.5803548
20
79.9283193
40
0.4993297
50
329.9650182
51
0.0096033
0
LINE
8
DEFAULT_255_2_778
10
19.0796845
20
79.928403
11
19.0796844
21
79.9287643
0
ARC
8
DEFAULT_255_2_778
10
18.5799477
20
79.9284523
40
0.4997367
50
0.0357665
51
30.0224765
0
ARC
8
DEFAULT_255_2_778
10
18.5795985
20
79.9284501
40
0.5000404
50
30.0026728
51
90.0073343
0
LINE
8
DEFAULT_255_2_778
10
11.3752345
20
75.7881905
11
11.5752345
21
76.1345905
0
LINE
8
DEFAULT_255_2_778
10
11.5752345
20
76.1345905
11
12.3409345
21
75.6923905
0
LINE
8
DEFAULT_255_2_778
10
12.3409345
20
75.6923905
11
12.5957345
21
75.1460905
0
LINE
8
DEFAULT_255_2_778
10
13.1397345
20
75.3997905
11
12.7944345
21
76.1403905
0
LINE
8
DEFAULT_255_2_778
10
12.7944345
20
76.1403905
11
11.9755345
21
76.8274905
0
LINE
8
DEFAULT_255_2_778
10
11.9755345
20
76.8274905
11
13.2754345
21
79.0790905
0
LINE
8
DEFAULT_255_2_778
10
13.2754345
20
79.0790905
11
14.2800345
21
78.7133905
0
LINE
8
DEFAULT_255_2_778
10
14.2800345
20
78.7133905
11
14.3049345
21
78.7155905
0
LINE
8
DEFAULT_255_2_778
10
12.8047345
20
76.1175905
11
13.4773345
21
75.7291905
0
LINE
8
DEFAULT_255_2_778
10
18.5221345
20
78.8282905
11
19.2021345
21
76.2906905
0
LINE
8
DEFAULT_255_2_778
10
19.2021345
20
76.2906905
11
19.2436345
21
76.2665905
0
LINE
8
DEFAULT_255_2_778
10
16.4435345
20
75.2280905
11
19.2436345
21
75.2280905
0
LINE
8
DEFAULT_255_2_778
10
15.5199345
20
73.6283905
11
19.0126345
21
79.6783905
0
LINE
8
DEFAULT_255_2_778
10
18.5795345
20
80.4284905
11
16.3806345
21
80.4284905
0
LINE
8
DEFAULT_255_2_778
10
16.3806345
20
80.4284905
11
15.3804345
21
81.4285905
0
LINE
8
DEFAULT_255_2_778
10
15.3804345
20
81.4285905
11
13.8805345
21
81.4285905
0
LINE
8
DEFAULT_255_2_778
10
13.8805345
20
81.4285905
11
10.2433345
21
75.1285905
0
LINE
8
DEFAULT_255_2_778
10
10.2433345
20
75.1285905
11
10.2433345
21
73.6286905
0
LINE
8
DEFAULT_255_2_778
10
10.2433345
20
73.6286905
11
19.2434345
21
73.6286905
0
LINE
8
DEFAULT_255_2_778
10
12.812223
20
79.5772399
11
14.977323
21
78.3273399
0
LINE
8
DEFAULT_255_2_778
10
14.977323
20
78.3273399
11
12.977323
21
74.8631399
0
LINE
8
DEFAULT_255_2_778
10
12.977323
20
74.8631399
11
10.812223
21
76.1130399
0
LINE
8
DEFAULT_255_2_778
10
90.243623
20
32.8216399
11
81.943623
21
29.8006399
0
LINE
8
DEFAULT_255_2_778
10
81.943623
20
29.8006399
11
81.943623
21
27.6191399
0
LINE
8
DEFAULT_255_2_778
10
81.9436475
20
75.0192586
11
81.9436475
21
72.8377586
0
LINE
8
DEFAULT_255_2_778
10
81.9436475
20
72.8377586
11
90.2435475
21
69.8167586
0
LINE
8
DEFAULT_255_2_778
10
44.9437475
20
27.0691586
11
44.9437475
21
75.5690586
0
LINE
8
DEFAULT_255_2_778
10
44.9437475
20
75.5690586
11
46.7437475
21
74.8234586
0
LINE
8
DEFAULT_255_2_778
10
46.7437475
20
74.8234586
11
49.6893475
21
77.7690586
0
LINE
8
DEFAULT_255_2_778
10
48.9437475
20
23.0691586
11
44.9437475
21
27.0691586
0
LINE
8
DEFAULT_255_2_778
10
44.9437475
20
27.0691586
11
46.7437475
21
27.8146586
0
LINE
8
DEFAULT_255_2_778
10
46.7437475
20
27.8146586
11
46.7437475
21
74.8234586
0
LINE
8
DEFAULT_255_2_778
10
90.2435475
20
23.0691586
11
48.9437475
21
23.0691586
0
LINE
8
DEFAULT_255_2_778
10
48.9437475
20
23.0691586
11
49.6893475
21
24.8690586
0
LINE
8
DEFAULT_255_2_778
10
49.6893475
20
24.8690586
11
90.2438475
21
24.8690586
0
LINE
8
DEFAULT_255_2_778
10
44.9437475
20
75.5690586
11
48.9437475
21
79.5690586
0
LINE
8
DEFAULT_255_2_778
10
48.9437475
20
79.5690586
11
49.6893475
21
77.7690586
0
LINE
8
DEFAULT_255_2_778
10
49.6893475
20
77.7690586
11
90.2438475
21
77.7690586
0
LINE
8
DEFAULT_255_2_778
10
49.6892325
20
24.8691538
11
46.7436325
21
27.8147538
0
LINE
8
DEFAULT_255_2_778
10
90.2435325
20
79.5690538
11
48.9436325
21
79.5690538
0
LINE
8
DEFAULT_255_2_778
10
90.2435325
20
101.3191538
11
31.3435325
21
101.3191538
0
LINE
8
DEFAULT_255_2_778
10
31.3435325
20
101.3191538
11
31.3435325
21
101.7192538
0
LINE
8
DEFAULT_255_2_778
10
31.3435325
20
101.7192538
11
30.7434325
21
101.7192538
0
LINE
8
DEFAULT_255_2_778
10
30.7434325
20
101.7192538
11
30.7434325
21
102.1192538
0
LINE
8
DEFAULT_255_2_778
10
30.7434325
20
102.1192538
11
29.9433325
21
102.1192538
0
LINE
8
DEFAULT_255_2_778
10
29.9433325
20
102.1192538
11
29.9433325
21
102.5193538
0
LINE
8
DEFAULT_255_2_778
10
29.9433325
20
102.5193538
11
29.1432325
21
102.5193538
0
LINE
8
DEFAULT_255_2_778
10
29.1432325
20
102.5193538
11
29.1432325
21
102.8193538
0
LINE
8
DEFAULT_255_2_778
10
29.1432325
20
102.8193538
11
26.2437325
21
102.8193538
0
LINE
8
DEFAULT_255_2_778
10
26.2437325
20
102.8193538
11
24.7438325
21
101.3194538
0
LINE
8
DEFAULT_255_2_778
10
24.7438325
20
101.3194538
11
0.2436325
21
101.3194538
0
LINE
8
DEFAULT_255_2_778
10
0.2436325
20
101.3194538
11
0.2436325
21
1.3193538
0
LINE
8
DEFAULT_255_2_778
10
0.2436325
20
1.3193538
11
24.7435325
21
1.3193538
0
LINE
8
DEFAULT_255_2_778
10
24.7435325
20
1.3193538
11
26.2434325
21
-0.1805462
0
LINE
8
DEFAULT_255_2_778
10
26.2434325
20
-0.1805462
11
29.1435325
21
-0.1805462
0
LINE
8
DEFAULT_255_2_778
10
29.1435325
20
-0.1805462
11
29.1435325
21
0.1194538
0
LINE
8
DEFAULT_255_2_778
10
29.1435325
20
0.1194538
11
29.9436325
21
0.1194538
0
LINE
8
DEFAULT_255_2_778
10
29.9436325
20
0.1194538
11
29.9436325
21
0.5195538
0
LINE
8
DEFAULT_255_2_778
10
29.9436325
20
0.5195538
11
30.7437325
21
0.5195538
0
LINE
8
DEFAULT_255_2_778
10
30.7437325
20
0.5195538
11
30.7437325
21
0.9195538
0
LINE
8
DEFAULT_255_2_778
10
30.7437325
20
0.9195538
11
31.3438325
21
0.9195538
0
LINE
8
DEFAULT_255_2_778
10
31.3438325
20
0.9195538
11
31.3438325
21
1.3196538
0
LINE
8
DEFAULT_255_2_778
10
31.3438325
20
1.3196538
11
90.2437325
21
1.3196538
0
LINE
8
DEFAULT_255_2_778
10
90.2437325
20
1.3196538
11
90.2437325
21
33.8215538
0
LINE
8
DEFAULT_255_2_778
10
90.2437325
20
33.8215538
11
87.4436325
21
35.4381538
0
LINE
8
DEFAULT_255_2_778
10
87.4436325
20
35.4381538
11
84.4435325
21
34.3816538
0
LINE
8
DEFAULT_255_2_778
10
84.4435325
20
34.3816538
11
84.4435325
21
45.3193538
0
LINE
8
DEFAULT_255_2_778
10
84.4435325
20
45.3193538
11
81.4434325
21
45.3193538
0
ARC
8
DEFAULT_255_2_778
10
17.9518673
20
20.030664
40
4.7978559
50
322.1126407
51
357.088295
0
ARC
8
DEFAULT_255_2_778
10
18.2238204
20
82.7086673
40
4.5219571
50
1.8068724
51
38.9921839
0
LINE
8
DEFAULT_255_2_778
10
19.2436291
20
1.3190475
11
19.2436291
21
96.8190475
0
LINE
8
DEFAULT_255_2_778
10
19.2436291
20
96.8190475
11
19.7437291
21
96.8190475
0
LINE
8
DEFAULT_255_2_778
10
19.7437291
20
96.8190475
11
24.2437291
21
101.3191475
0
LINE
8
DEFAULT_255_2_778
10
19.2436291
20
14.0190475
11
21.7384291
21
17.0842475
0
LINE
8
DEFAULT_255_2_778
10
22.7435291
20
19.7869475
11
22.7435291
21
82.8512475
0
LINE
8
DEFAULT_255_2_778
10
21.7384291
20
85.5539475
11
19.2436291
21
88.6191475
0
LINE
8
DEFAULT_255_2_778
10
86.3438291
20
101.3191475
11
86.3438291
21
105.8191475
0
LINE
8
DEFAULT_255_2_778
10
86.3438291
20
105.8191475
11
90.2437291
21
105.8191475
0
LINE
8
DEFAULT_255_2_778
10
90.2437291
20
105.8191475
11
90.2437291
21
68.8166475
0
LINE
8
DEFAULT_255_2_778
10
90.2437291
20
68.8166475
11
87.4437291
21
67.2000475
0
LINE
8
DEFAULT_255_2_778
10
87.4437291
20
67.2000475
11
84.4435291
21
68.2565475
0
LINE
8
DEFAULT_255_2_778
10
84.4435291
20
68.2565475
11
84.4435291
21
57.3189475
0
LINE
8
DEFAULT_255_2_778
10
84.4435291
20
57.3189475
11
81.4434291
21
57.3189475
0
LINE
8
DEFAULT_255_2_778
10
90.2435615
20
104.3192338
11
86.3435615
21
104.3192338
0
LINE
8
DEFAULT_255_2_778
10
88.7282615
20
67.9419338
11
86.8436615
21
65.6691338
0
LINE
8
DEFAULT_255_2_778
10
86.8436615
20
65.6691338
11
86.0435615
21
65.6691338
0
LINE
8
DEFAULT_255_2_778
10
86.0435615
20
65.6691338
11
85.6474615
21
67.8326338
0
ARC
8
DEFAULT_255_2_778
10
-1.0407515
20
19.6150524
40
4.284484
50
324.1359017
51
359.9996281
0
ARC
8
DEFAULT_255_2_778
10
-1.413759
20
82.902187
40
4.6590562
50
1.4849647
51
34.379504
0
LINE
8
DEFAULT_255_2_778
10
87.5437325
20
66.5134246
11
87.5437325
21
67.2580246
0
LINE
8
DEFAULT_255_2_778
10
88.1527325
20
35.0285246
11
86.5435325
21
36.9690246
0
LINE
8
DEFAULT_255_2_778
10
86.5435325
20
36.9690246
11
85.7434325
21
36.9690246
0
LINE
8
DEFAULT_255_2_778
10
85.7434325
20
36.9690246
11
85.3267325
21
34.6925246
0
LINE
8
DEFAULT_255_2_778
10
87.2436325
20
35.3677246
11
87.2436325
21
36.1250246
0
LINE
8
DEFAULT_255_2_778
10
5.2437325
20
1.3190246
11
5.2437325
21
101.3191246
0
LINE
8
DEFAULT_255_2_778
10
0.2436325
20
13.9690246
11
2.4314325
21
17.1049246
0
LINE
8
DEFAULT_255_2_778
10
3.2437325
20
19.6150246
11
3.2437325
21
83.0229246
0
LINE
8
DEFAULT_255_2_778
10
2.4314325
20
85.5330246
11
0.2436325
21
88.6691246
0
LINE
8
DEFAULT_255_2_778
10
82.8436325
20
57.3192246
11
82.8436325
21
45.3192246
0
LINE
8
DEFAULT_255_2_778
10
90.2437325
20
75.0193246
11
81.4437325
21
75.0193246
0
LINE
8
DEFAULT_255_2_778
10
81.4437325
20
75.0193246
11
81.4437325
21
27.6191246
0
LINE
8
DEFAULT_255_2_778
10
81.4437325
20
27.6191246
11
90.2437325
21
27.6191246
0
LINE
8
DEFAULT_255_2_778
10
38.7037325
20
1.3190246
11
38.7037325
21
0.9190246
0
LINE
8
DEFAULT_255_2_778
10
38.7037325
20
0.9190246
11
38.1036325
21
0.9190246
0
LINE
8
DEFAULT_255_2_778
10
38.1036325
20
0.9190246
11
38.1036325
21
0.5189246
0
LINE
8
DEFAULT_255_2_778
10
38.1036325
20
0.5189246
11
37.3035325
21
0.5189246
0
LINE
8
DEFAULT_255_2_778
10
37.3035325
20
0.5189246
11
37.3035325
21
0.1189246
0
LINE
8
DEFAULT_255_2_778
10
37.3035325
20
0.1189246
11
36.5034325
21
0.1189246
0
LINE
8
DEFAULT_255_2_778
10
36.5034325
20
0.1189246
11
36.5034325
21
-0.1810754
0
LINE
8
DEFAULT_255_2_778
10
36.5034325
20
-0.1810754
11
33.4435325
21
-0.1810754
0
LINE
8
DEFAULT_255_2_778
10
33.4435325
20
-0.1810754
11
31.9436325
21
1.3188246
0
ENDSEC
0
EOF