0
SECTION
2
HEADER
9
$MEASUREMENT
70
1
0
ENDSEC
0
SECTION
2
TABLES
0
TABLE
2
LTYPE
0
LTYPE
72
65
70
64
2
CONTINUOUS
3
______
73
0
40
0
0
ENDTAB
0
TABLE
2
LAYER
0
LAYER
2
DEFAULT_255_2_778
70
0
62
255
6
CONTINUOUS
0
LAYER
2
DEFAULT_255_1_234
70
0
62
255
6
CONTINUOUS
0
ENDTAB
0
ENDSEC
0
SECTION
2
ENTITIES
0
ARC
8
DEFAULT_255_2_778
10
3.5700693
20
155.1802019
40
0.7914215
50
129.1312896
51
180.1450914
0
ARC
8
DEFAULT_255_2_778
10
3.5703345
20
155.180689
40
0.7912112
50
89.854026
51
129.1684493
0
ARC
8
DEFAULT_255_2_778
10
25.7993937
20
155.1803756
40
0.7915249
50
39.4792447
51
90.147911
0
ARC
8
DEFAULT_255_2_778
10
25.7999935
20
155.1802222
40
0.7911595
50
359.8533901
51
39.5154338
0
ARC
8
DEFAULT_255_2_778
10
25.7996693
20
-1.9863503
40
0.7914836
50
309.4761667
51
0.1482649
0
ARC
8
DEFAULT_255_2_778
10
25.799398
20
-1.9867814
40
0.7913235
50
269.8517415
51
309.511178
0
ARC
8
DEFAULT_255_2_778
10
3.570342
20
-1.9867233
40
0.7913815
50
219.1282118
51
270.1454017
0
ARC
8
DEFAULT_255_2_778
10
3.5700247
20
-1.9863408
40
0.7913769
50
179.8524075
51
219.1641908
0
LINE
8
DEFAULT_255_2_778
10
3.5723503
20
155.9718978
11
25.7973503
21
155.9718978
0
LINE
8
DEFAULT_255_2_778
10
26.5911503
20
155.1781978
11
26.5911503
21
-1.9843022
0
LINE
8
DEFAULT_255_2_778
10
25.7973503
20
-2.7781022
11
3.5723503
21
-2.7781022
0
LINE
8
DEFAULT_255_2_778
10
2.7786503
20
-1.9843022
11
2.7786503
21
155.1781978
0
LINE
8
DEFAULT_255_1_234
10
10.5765879
20
0.5181211
11
10.5765879
21
-0.6513
0
LINE
8
DEFAULT_255_1_234
10
10.5765879
20
-0.6513
11
10.4215753
21
-0.6513
0
LINE
8
DEFAULT_255_1_234
10
10.4215753
20
-0.6513
11
9.8328489
21
0.249861
0
LINE
8
DEFAULT_255_1_234
10
9.8328489
20
0.249861
11
9.8328489
21
-0.6513
0
LINE
8
DEFAULT_255_1_234
10
9.8328489
20
-0.6513
11
9.6778364
21
-0.6513
0
LINE
8
DEFAULT_255_1_234
10
9.6778364
20
-0.6513
11
9.6778364
21
0.5181211
0
LINE
8
DEFAULT_255_1_234
10
9.6778364
20
0.5181211
11
9.8328489
21
0.5181211
0
LINE
8
DEFAULT_255_1_234
10
9.8328489
20
0.5181211
11
10.4231817
21
-0.3870558
0
LINE
8
DEFAULT_255_1_234
10
10.4231817
20
-0.3870558
11
10.4231817
21
0.5181211
0
LINE
8
DEFAULT_255_1_234
10
10.4231817
20
0.5181211
11
10.5765879
21
0.5181211
0
LINE
8
DEFAULT_255_1_234
10
10.9637177
20
0.5181211
11
11.2456317
21
0.0699501
0
LINE
8
DEFAULT_255_1_234
10
11.2456317
20
0.0699501
11
11.5259394
21
0.5181211
0
LINE
8
DEFAULT_255_1_234
10
11.5259394
20
0.5181211
11
11.7074566
21
0.5181211
0
LINE
8
DEFAULT_255_1_234
10
11.7074566
20
0.5181211
11
11.3379967
21
-0.0617704
0
LINE
8
DEFAULT_255_1_234
10
11.3379967
20
-0.0617704
11
11.7162916
21
-0.6513
0
LINE
8
DEFAULT_255_1_234
10
11.7162916
20
-0.6513
11
11.5331679
21
-0.6513
0
LINE
8
DEFAULT_255_1_234
10
11.5331679
20
-0.6513
11
11.2456317
21
-0.1950973
0
LINE
8
DEFAULT_255_1_234
10
11.2456317
20
-0.1950973
11
10.9564891
21
-0.6513
0
LINE
8
DEFAULT_255_1_234
10
10.9564891
20
-0.6513
11
10.7741687
21
-0.6513
0
LINE
8
DEFAULT_255_1_234
10
10.7741687
20
-0.6513
11
11.1532667
21
-0.0617704
0
LINE
8
DEFAULT_255_1_234
10
11.1532667
20
-0.0617704
11
10.7830036
21
0.5181211
0
LINE
8
DEFAULT_255_1_234
10
10.7830036
20
0.5181211
11
10.9637177
21
0.5181211
0
LINE
8
DEFAULT_255_1_234
10
12.1443832
20
-0.0938974
11
12.1443832
21
-0.2151766
0
LINE
8
DEFAULT_255_1_234
10
12.1443832
20
-0.2151766
11
11.7524344
21
-0.2151766
0
LINE
8
DEFAULT_255_1_234
10
11.7524344
20
-0.2151766
11
11.7524344
21
-0.0938974
0
LINE
8
DEFAULT_255_1_234
10
11.7524344
20
-0.0938974
11
12.1443832
21
-0.0938974
0
LINE
8
DEFAULT_255_1_234
10
12.4777003
20
0.5181211
11
12.4777003
21
-0.6513
0
LINE
8
DEFAULT_255_1_234
10
12.4777003
20
-0.6513
11
12.323491
21
-0.6513
0
LINE
8
DEFAULT_255_1_234
10
12.323491
20
-0.6513
11
12.323491
21
0.5181211
0
LINE
8
DEFAULT_255_1_234
10
12.323491
20
0.5181211
11
12.4777003
21
0.5181211
0
LINE
8
DEFAULT_255_1_234
10
13.0832934
20
-0.6513
11
12.7596144
21
-0.6513
0
LINE
8
DEFAULT_255_1_234
10
12.7596144
20
-0.6513
11
12.7596144
21
0.5181211
0
LINE
8
DEFAULT_255_1_234
10
12.7596144
20
0.5181211
11
13.0897188
21
0.5181211
0
LINE
8
DEFAULT_255_1_234
10
13.6053564
20
-0.0272339
11
13.6053564
21
-0.1019291
0
LINE
8
DEFAULT_255_1_234
10
13.0937347
20
0.3912196
11
12.9138237
21
0.3912196
0
LINE
8
DEFAULT_255_1_234
10
12.9138237
20
0.3912196
11
12.9138237
21
-0.5252017
0
LINE
8
DEFAULT_255_1_234
10
12.9138237
20
-0.5252017
11
13.0760648
21
-0.5252017
0
LINE
8
DEFAULT_255_1_234
10
13.4527534
20
-0.0987164
11
13.4527534
21
-0.0304466
0
ARC
8
DEFAULT_255_1_234
10
13.093613
20
-0.0684106
40
0.5865446
50
75.4101064
51
90.3804066
0
ARC
8
DEFAULT_255_1_234
10
13.1165644
20
0.0272492
40
0.4881916
50
60.145586
51
75.1888407
0
ARC
8
DEFAULT_255_1_234
10
13.1324419
20
0.0549199
40
0.4562893
50
26.5253612
51
60.1450928
0
ARC
8
DEFAULT_255_1_234
10
13.0204169
20
-0.0044842
40
0.5830602
50
7.4030428
51
26.8320788
0
ARC
8
DEFAULT_255_1_234
10
12.8609925
20
-0.0293196
40
0.7443669
50
0.1605367
51
7.7176192
0
ARC
8
DEFAULT_255_1_234
10
12.877383
20
-0.1057566
40
0.7279835
50
348.7289388
51
0.3012466
0
ARC
8
DEFAULT_255_1_234
10
13.043026
20
-0.1386614
40
0.559104
50
333.0706509
51
348.7181832
0
ARC
8
DEFAULT_255_1_234
10
13.1397018
20
-0.1911681
40
0.4491417
50
299.2531685
51
333.4571258
0
ARC
8
DEFAULT_255_1_234
10
13.1036158
20
-0.1226172
40
0.5265881
50
278.107187
51
299.0339503
0
ARC
8
DEFAULT_255_1_234
10
13.0780237
20
0.0281216
40
0.679442
50
270.4443897
51
278.4511052
0
ARC
8
DEFAULT_255_1_234
10
13.0801067
20
-0.0647787
40
0.4604407
50
269.4970433
51
284.0205042
0
ARC
8
DEFAULT_255_1_234
10
13.1156368
20
-0.2013022
40
0.3193797
50
283.7700273
51
318.1555492
0
ARC
8
DEFAULT_255_1_234
10
13.0819126
20
-0.1760633
40
0.3613588
50
318.7415601
51
343.6873628
0
ARC
8
DEFAULT_255_1_234
10
12.9015149
20
-0.1197168
40
0.5503313
50
343.3325091
51
355.8548958
0
ARC
8
DEFAULT_255_1_234
10
12.6916833
20
-0.0997681
40
0.7610708
50
355.4988528
51
0.0791727
0
ARC
8
DEFAULT_255_1_234
10
12.7699456
20
-0.026222
40
0.6828208
50
359.6455037
51
9.8607896
0
ARC
8
DEFAULT_255_1_234
10
13.0060154
20
0.0164099
40
0.4429406
50
9.6571907
51
26.1932807
0
ARC
8
DEFAULT_255_1_234
10
13.0988142
20
0.0595118
40
0.3406537
50
26.5777228
51
40.1532208
0
ARC
8
DEFAULT_255_1_234
10
13.1243869
20
0.0794619
40
0.308246
50
40.3840491
51
80.1431104
0
ARC
8
DEFAULT_255_1_234
10
13.0916987
20
-0.0654667
40
0.4566909
50
79.2152159
51
89.7445637
0
LINE
8
DEFAULT_255_1_234
10
13.986864
20
-0.0955037
11
13.8679942
21
-0.0649831
0
LINE
8
DEFAULT_255_1_234
10
13.8679942
20
-0.0649831
11
13.9274291
21
0.5181211
0
LINE
8
DEFAULT_255_1_234
10
13.9274291
20
0.5181211
11
14.5265968
21
0.5181211
0
LINE
8
DEFAULT_255_1_234
10
14.5265968
20
0.5181211
11
14.5265968
21
0.3807784
0
LINE
8
DEFAULT_255_1_234
10
14.5265968
20
0.3807784
11
14.0535274
21
0.3807784
0
LINE
8
DEFAULT_255_1_234
10
14.0535274
20
0.3807784
11
14.0181877
21
0.0619184
0
LINE
8
DEFAULT_255_1_234
10
13.8262292
20
-0.3436844
11
13.9667846
21
-0.3436844
0
LINE
8
DEFAULT_255_1_234
10
14.0262195
20
-0.0633768
11
13.986864
21
-0.0955037
0
ARC
8
DEFAULT_255_1_234
10
14.2036661
20
-0.256077
40
0.3681349
50
93.7182161
51
120.2538958
0
ARC
8
DEFAULT_255_1_234
10
14.2130924
20
-0.3368606
40
0.449379
50
89.9660152
51
94.2496022
0
ARC
8
DEFAULT_255_1_234
10
14.2171658
20
-0.2779451
40
0.390482
50
73.8043271
51
90.5585896
0
ARC
8
DEFAULT_255_1_234
10
14.2406555
20
-0.1921398
40
0.3015334
50
41.3071453
51
73.5430202
0
ARC
8
DEFAULT_255_1_234
10
14.1990383
20
-0.2279676
40
0.3564457
50
13.5075983
51
41.2174222
0
ARC
8
DEFAULT_255_1_234
10
14.0348586
20
-0.2709514
40
0.5261351
50
1.1331335
51
13.8829381
0
ARC
8
DEFAULT_255_1_234
10
13.8936955
20
-0.2785335
40
0.6674378
50
359.9919444
51
1.544251
0
ARC
8
DEFAULT_255_1_234
10
14.0213782
20
-0.282672
40
0.5397702
50
347.8572367
51
0.4293338
0
ARC
8
DEFAULT_255_1_234
10
14.1964099
20
-0.3223264
40
0.3603188
50
323.673004
51
348.1672506
0
ARC
8
DEFAULT_255_1_234
10
14.2258607
20
-0.3402832
40
0.3259678
50
316.8171152
51
323.1492751
0
ARC
8
DEFAULT_255_1_234
10
14.2319796
20
-0.343954
40
0.3189975
50
281.8396411
51
316.5457803
0
ARC
8
DEFAULT_255_1_234
10
14.194406
20
-0.1884238
40
0.4789527
50
269.5770101
51
282.4214771
0
ARC
8
DEFAULT_255_1_234
10
14.1872872
20
-0.2097875
40
0.45759
50
256.2427136
51
270.4486331
0
ARC
8
DEFAULT_255_1_234
10
14.1573774
20
-0.3297771
40
0.3339303
50
228.9023911
51
256.3314342
0
ARC
8
DEFAULT_255_1_234
10
14.1500007
20
-0.3414254
40
0.32031
50
193.753695
51
228.5271154
0
ARC
8
DEFAULT_255_1_234
10
14.273796
20
-0.30512
40
0.4492253
50
184.924711
51
194.497588
0
ARC
8
DEFAULT_255_1_234
10
14.2930527
20
-0.3015409
40
0.3289787
50
187.3600538
51
198.6732863
0
ARC
8
DEFAULT_255_1_234
10
14.1880821
20
-0.3379326
40
0.217884
50
198.4451669
51
217.794479
0
ARC
8
DEFAULT_255_1_234
10
14.1584997
20
-0.3588915
40
0.1816698
50
218.2887171
51
228.5612368
0
ARC
8
DEFAULT_255_1_234
10
14.1682784
20
-0.3457037
40
0.1980329
50
228.9654866
51
258.1234728
0
ARC
8
DEFAULT_255_1_234
10
14.1888493
20
-0.2576167
40
0.2884748
50
257.7258293
51
270.401361
0
ARC
8
DEFAULT_255_1_234
10
14.193338
20
-0.3021179
40
0.2439788
50
269.4204404
51
286.4209037
0
ARC
8
DEFAULT_255_1_234
10
14.2081867
20
-0.3560343
40
0.1880666
50
286.7251356
51
320.600362
0
ARC
8
DEFAULT_255_1_234
10
14.1698692
20
-0.3249405
40
0.2374121
50
320.6712579
51
344.5441685
0
ARC
8
DEFAULT_255_1_234
10
14.0542018
20
-0.2909955
40
0.3579479
50
344.2412205
51
356.7357071
0
ARC
8
DEFAULT_255_1_234
10
13.9293167
20
-0.2806556
40
0.4832297
50
356.3548756
51
0.0500261
0
ARC
8
DEFAULT_255_1_234
10
14.0629676
20
-0.277535
40
0.3495889
50
359.5576869
51
12.953486
0
ARC
8
DEFAULT_255_1_234
10
14.1684574
20
-0.2519566
40
0.2410532
50
12.6490276
51
41.6081334
0
ARC
8
DEFAULT_255_1_234
10
14.1914945
20
-0.2323679
40
0.2108218
50
41.7850273
51
85.9892764
0
ARC
8
DEFAULT_255_1_234
10
14.1791681
20
-0.3136538
40
0.2928454
50
84.6957577
51
90.0676183
0
ARC
8
DEFAULT_255_1_234
10
14.1768165
20
-0.3805284
40
0.3597255
50
89.6804936
51
99.1614436
0
ARC
8
DEFAULT_255_1_234
10
14.1562797
20
-0.2577869
40
0.235281
50
98.9830931
51
113.8908934
0
ARC
8
DEFAULT_255_1_234
10
14.1333207
20
-0.2036413
40
0.176479
50
114.1950727
51
127.3641004
0
LINE
8
DEFAULT_255_1_234
10
15.2117041
20
0.5237433
11
15.2117041
21
-0.6513
0
LINE
8
DEFAULT_255_1_234
10
15.2117041
20
-0.6513
11
15.0623137
21
-0.6513
0
LINE
8
DEFAULT_255_1_234
10
15.0623137
20
-0.6513
11
15.0623137
21
0.3390133
0
LINE
8
DEFAULT_255_1_234
10
15.0623137
20
0.3390133
11
14.7627299
21
0.2289785
0
LINE
8
DEFAULT_255_1_234
10
14.7627299
20
0.2289785
11
14.7627299
21
0.3639117
0
LINE
8
DEFAULT_255_1_234
10
14.7627299
20
0.3639117
11
15.188412
21
0.5237433
0
LINE
8
DEFAULT_255_1_234
10
15.188412
20
0.5237433
11
15.2117041
21
0.5237433
0
LINE
8
DEFAULT_255_1_234
10
16.274303
20
0.5181211
11
16.274303
21
-0.258548
0
LINE
8
DEFAULT_255_1_234
10
16.274303
20
-0.258548
11
16.4365441
21
-0.258548
0
LINE
8
DEFAULT_255_1_234
10
16.4365441
20
-0.258548
11
16.4365441
21
-0.3798272
0
LINE
8
DEFAULT_255_1_234
10
16.4365441
20
-0.3798272
11
16.274303
21
-0.3798272
0
LINE
8
DEFAULT_255_1_234
10
16.274303
20
-0.3798272
11
16.274303
21
-0.6513
0
LINE
8
DEFAULT_255_1_234
10
16.274303
20
-0.6513
11
16.1249127
21
-0.6513
0
LINE
8
DEFAULT_255_1_234
10
16.1249127
20
-0.6513
11
16.1249127
21
-0.3798272
0
LINE
8
DEFAULT_255_1_234
10
16.1249127
20
-0.3798272
11
15.5924084
21
-0.3798272
0
LINE
8
DEFAULT_255_1_234
10
15.5924084
20
-0.3798272
11
15.5924084
21
-0.2922813
0
LINE
8
DEFAULT_255_1_234
10
15.5924084
20
-0.2922813
11
16.1160778
21
0.5181211
0
LINE
8
DEFAULT_255_1_234
10
16.1160778
20
0.5181211
11
16.274303
21
0.5181211
0
LINE
8
DEFAULT_255_1_234
10
16.1072429
20
0.2827912
11
15.761075
21
-0.258548
0
LINE
8
DEFAULT_255_1_234
10
15.761075
20
-0.258548
11
16.1249127
21
-0.258548
0
LINE
8
DEFAULT_255_1_234
10
16.1249127
20
-0.258548
11
16.1249127
21
0.3149181
0
LINE
8
DEFAULT_255_1_234
10
16.1249127
20
0.3149181
11
16.1072429
21
0.2827912
0
LINE
8
DEFAULT_255_1_234
10
17.336902
20
-0.5300208
11
17.336902
21
-0.6513
0
LINE
8
DEFAULT_255_1_234
10
17.336902
20
-0.6513
11
16.5706742
21
-0.6513
0
LINE
8
DEFAULT_255_1_234
10
16.5706742
20
-0.6513
11
16.5706742
21
-0.5444779
0
LINE
8
DEFAULT_255_1_234
10
16.5706742
20
-0.5444779
11
16.9754738
21
-0.0947005
0
LINE
8
DEFAULT_255_1_234
10
16.6967725
20
0.1735595
11
16.5481853
21
0.1735595
0
LINE
8
DEFAULT_255_1_234
10
17.0630197
20
-0.1902782
11
16.7497819
21
-0.5300208
0
LINE
8
DEFAULT_255_1_234
10
16.7497819
20
-0.5300208
11
17.336902
21
-0.5300208
0
ARC
8
DEFAULT_255_1_234
10
15.6264571
20
1.0982527
40
1.8008286
50
318.5132453
51
320.7828378
0
ARC
8
DEFAULT_255_1_234
10
16.1551546
20
0.6679426
40
1.1191493
50
320.7372736
51
323.9737074
0
ARC
8
DEFAULT_255_1_234
10
16.5471402
20
0.3839361
40
0.6350923
50
323.8961724
51
328.6421089
0
ARC
8
DEFAULT_255_1_234
10
16.7517997
20
0.2577031
40
0.3946393
50
328.8299013
51
331.789948
0
ARC
8
DEFAULT_255_1_234
10
16.8515176
20
0.2062509
40
0.2824501
50
331.4255242
51
352.9364833
0
ARC
8
DEFAULT_255_1_234
10
16.8651677
20
0.2031976
40
0.2685315
50
353.2248685
51
0.0169286
0
ARC
8
DEFAULT_255_1_234
10
16.8861553
20
0.205495
40
0.2475536
50
359.4866256
51
15.9339782
0
ARC
8
DEFAULT_255_1_234
10
16.9368539
20
0.2191286
40
0.1950618
50
16.1714718
51
43.5284424
0
ARC
8
DEFAULT_255_1_234
10
16.9445847
20
0.2268573
40
0.184134
50
43.4415429
51
83.1661404
0
ARC
8
DEFAULT_255_1_234
10
16.9311765
20
0.1531771
40
0.258926
50
82.160215
51
90.1505798
0
ARC
8
DEFAULT_255_1_234
10
16.9280193
20
0.0994865
40
0.3126255
50
89.5460705
51
102.5418777
0
ARC
8
DEFAULT_255_1_234
10
16.9037279
20
0.2025665
40
0.2067346
50
102.1739365
51
129.2061916
0
ARC
8
DEFAULT_255_1_234
10
16.8958351
20
0.2150094
40
0.1921118
50
129.7279328
51
135.7542026
0
ARC
8
DEFAULT_255_1_234
10
16.9079878
20
0.2053045
40
0.2075944
50
136.175737
51
166.3674722
0
ARC
8
DEFAULT_255_1_234
10
17.0086797
20
0.1783182
40
0.3118201
50
165.9092917
51
178.8683903
0
ARC
8
DEFAULT_255_1_234
10
17.0951659
20
0.1736179
40
0.3983935
50
178.438168
51
180.0083905
0
ARC
8
DEFAULT_255_1_234
10
16.9550261
20
0.1775231
40
0.4068601
50
163.2878735
51
180.5581814
0
ARC
8
DEFAULT_255_1_234
10
16.8748522
20
0.199584
40
0.3237344
50
133.454115
51
162.9470031
0
ARC
8
DEFAULT_255_1_234
10
16.8927064
20
0.1806
40
0.349795
50
100.7869394
51
133.4384016
0
ARC
8
DEFAULT_255_1_234
10
16.9274835
20
0.0257319
40
0.5084616
50
89.6605301
51
101.3704185
0
ARC
8
DEFAULT_255_1_234
10
16.9341174
20
0.0318496
40
0.502348
50
78.2171172
51
90.4130393
0
ARC
8
DEFAULT_255_1_234
10
16.9696252
20
0.1942637
40
0.3361092
50
55.9268222
51
78.4888551
0
ARC
8
DEFAULT_255_1_234
10
16.9892692
20
0.2281324
40
0.2970617
50
47.9292255
51
55.4054003
0
ARC
8
DEFAULT_255_1_234
10
16.9994253
20
0.2384502
40
0.2825983
50
4.3347696
51
48.0560701
0
ARC
8
DEFAULT_255_1_234
10
16.8898647
20
0.2214601
40
0.393225
50
359.925209
51
5.5967654
0
ARC
8
DEFAULT_255_1_234
10
16.9327538
20
0.2270816
40
0.3503892
50
337.8914096
51
358.9967724
0
ARC
8
DEFAULT_255_1_234
10
16.6613951
20
0.3317706
40
0.6412172
50
326.9135351
51
338.3505194
0
ARC
8
DEFAULT_255_1_234
10
16.2628254
20
0.5872284
40
1.1146189
50
319.6472867
51
327.095818
0
ARC
8
DEFAULT_255_1_234
10
15.8795257
20
0.9034
40
1.6114559
50
317.2586784
51
319.9046139
0
LINE
8
DEFAULT_255_1_234
10
17.8188063
20
-0.0938974
11
17.8188063
21
-0.2151766
0
LINE
8
DEFAULT_255_1_234
10
17.8188063
20
-0.2151766
11
17.4268575
21
-0.2151766
0
LINE
8
DEFAULT_255_1_234
10
17.4268575
20
-0.2151766
11
17.4268575
21
-0.0938974
0
LINE
8
DEFAULT_255_1_234
10
17.4268575
20
-0.0938974
11
17.8188063
21
-0.0938974
0
LINE
8
DEFAULT_255_1_234
10
18.1352568
20
-0.0955037
11
18.0163871
21
-0.0649831
0
LINE
8
DEFAULT_255_1_234
10
18.0163871
20
-0.0649831
11
18.0758219
21
0.5181211
0
LINE
8
DEFAULT_255_1_234
10
18.0758219
20
0.5181211
11
18.6749896
21
0.5181211
0
LINE
8
DEFAULT_255_1_234
10
18.6749896
20
0.5181211
11
18.6749896
21
0.3807784
0
LINE
8
DEFAULT_255_1_234
10
18.6749896
20
0.3807784
11
18.2019202
21
0.3807784
0
LINE
8
DEFAULT_255_1_234
10
18.2019202
20
0.3807784
11
18.1665806
21
0.0619184
0
LINE
8
DEFAULT_255_1_234
10
17.974622
20
-0.3436844
11
18.1151774
21
-0.3436844
0
LINE
8
DEFAULT_255_1_234
10
18.1746123
20
-0.0633768
11
18.1352568
21
-0.0955037
0
ARC
8
DEFAULT_255_1_234
10
18.352059
20
-0.256077
40
0.3681349
50
93.7182161
51
120.2538958
0
ARC
8
DEFAULT_255_1_234
10
18.3614853
20
-0.3368606
40
0.449379
50
89.9660152
51
94.2496022
0
ARC
8
DEFAULT_255_1_234
10
18.3655586
20
-0.2779451
40
0.390482
50
73.8043271
51
90.5585896
0
ARC
8
DEFAULT_255_1_234
10
18.3890483
20
-0.1921398
40
0.3015334
50
41.3071453
51
73.5430202
0
ARC
8
DEFAULT_255_1_234
10
18.3474311
20
-0.2279676
40
0.3564457
50
13.5075983
51
41.2174222
0
ARC
8
DEFAULT_255_1_234
10
18.1832515
20
-0.2709514
40
0.5261351
50
1.1331335
51
13.8829381
0
ARC
8
DEFAULT_255_1_234
10
18.0420884
20
-0.2785335
40
0.6674378
50
359.9919444
51
1.544251
0
ARC
8
DEFAULT_255_1_234
10
18.169771
20
-0.282672
40
0.5397702
50
347.8572367
51
0.4293338
0
ARC
8
DEFAULT_255_1_234
10
18.3448028
20
-0.3223264
40
0.3603188
50
323.673004
51
348.1672506
0
ARC
8
DEFAULT_255_1_234
10
18.3742536
20
-0.3402832
40
0.3259678
50
316.8171152
51
323.1492751
0
ARC
8
DEFAULT_255_1_234
10
18.3803725
20
-0.343954
40
0.3189975
50
281.8396411
51
316.5457803
0
ARC
8
DEFAULT_255_1_234
10
18.3427988
20
-0.1884238
40
0.4789527
50
269.5770101
51
282.4214771
0
ARC
8
DEFAULT_255_1_234
10
18.33568
20
-0.2097875
40
0.45759
50
256.2427136
51
270.4486331
0
ARC
8
DEFAULT_255_1_234
10
18.3057702
20
-0.3297771
40
0.3339303
50
228.9023911
51
256.3314342
0
ARC
8
DEFAULT_255_1_234
10
18.2983935
20
-0.3414254
40
0.32031
50
193.753695
51
228.5271154
0
ARC
8
DEFAULT_255_1_234
10
18.4221889
20
-0.30512
40
0.4492253
50
184.924711
51
194.497588
0
ARC
8
DEFAULT_255_1_234
10
18.4414456
20
-0.3015409
40
0.3289787
50
187.3600538
51
198.6732863
0
ARC
8
DEFAULT_255_1_234
10
18.336475
20
-0.3379326
40
0.217884
50
198.4451669
51
217.794479
0
ARC
8
DEFAULT_255_1_234
10
18.3068925
20
-0.3588915
40
0.1816698
50
218.2887171
51
228.5612368
0
ARC
8
DEFAULT_255_1_234
10
18.3166712
20
-0.3457037
40
0.1980329
50
228.9654866
51
258.1234728
0
ARC
8
DEFAULT_255_1_234
10
18.3372422
20
-0.2576167
40
0.2884748
50
257.7258293
51
270.401361
0
ARC
8
DEFAULT_255_1_234
10
18.3417308
20
-0.3021179
40
0.2439788
50
269.4204404
51
286.4209037
0
ARC
8
DEFAULT_255_1_234
10
18.3565796
20
-0.3560343
40
0.1880666
50
286.7251356
51
320.600362
0
ARC
8
DEFAULT_255_1_234
10
18.3182621
20
-0.3249405
40
0.2374121
50
320.6712579
51
344.5441685
0
ARC
8
DEFAULT_255_1_234
10
18.2025947
20
-0.2909955
40
0.3579479
50
344.2412205
51
356.7357071
0
ARC
8
DEFAULT_255_1_234
10
18.0777095
20
-0.2806556
40
0.4832297
50
356.3548756
51
0.0500261
0
ARC
8
DEFAULT_255_1_234
10
18.2113604
20
-0.277535
40
0.3495889
50
359.5576869
51
12.953486
0
ARC
8
DEFAULT_255_1_234
10
18.3168502
20
-0.2519566
40
0.2410532
50
12.6490276
51
41.6081334
0
ARC
8
DEFAULT_255_1_234
10
18.3398873
20
-0.2323679
40
0.2108218
50
41.7850273
51
85.9892764
0
ARC
8
DEFAULT_255_1_234
10
18.3275609
20
-0.3136538
40
0.2928454
50
84.6957577
51
90.0676183
0
ARC
8
DEFAULT_255_1_234
10
18.3252094
20
-0.3805284
40
0.3597255
50
89.6804936
51
99.1614436
0
ARC
8
DEFAULT_255_1_234
10
18.3046725
20
-0.2577869
40
0.235281
50
98.9830931
51
113.8908934
0
ARC
8
DEFAULT_255_1_234
10
18.2817135
20
-0.2036413
40
0.176479
50
114.1950727
51
127.3641004
0
ARC
8
DEFAULT_255_2_778
10
15.1395323
20
153.736689
40
0.3782009
50
0.4397807
51
91.3045231
0
ARC
8
DEFAULT_255_2_778
10
15.1373879
20
153.7344064
40
0.3803695
50
269.0259909
51
0.7811192
0
ARC
8
DEFAULT_255_2_778
10
15.2965293
20
153.7219643
40
0.7639615
50
290.7362057
51
357.8000295
0
ARC
8
DEFAULT_255_2_778
10
15.2113031
20
153.7395235
40
0.8499188
50
356.8376875
51
0.0046095
0
ARC
8
DEFAULT_255_2_778
10
15.2099443
20
153.7395748
40
0.8512778
50
0.0011515
51
85.3589632
0
ARC
8
DEFAULT_255_2_778
10
15.2099371
20
153.7205092
40
0.8702827
50
85.4600549
51
90.0075769
0
ARC
8
DEFAULT_255_2_778
10
20.041085
20
153.7302426
40
0.3845507
50
1.3931151
51
90.158378
0
ARC
8
DEFAULT_255_2_778
10
20.1006096
20
153.7238635
40
0.8684198
50
359.7643557
51
42.1181505
0
ARC
8
DEFAULT_255_2_778
10
20.1030156
20
153.7242931
40
0.866348
50
42.2037872
51
87.9292218
0
ARC
8
DEFAULT_255_2_778
10
20.0982626
20
153.6830097
40
0.9077821
50
87.7235759
51
90.0025578
0
ARC
8
DEFAULT_255_2_778
10
12.7941947
20
153.7371344
40
0.3777354
50
0.3727528
51
91.1638813
0
ARC
8
DEFAULT_255_2_778
10
12.8482692
20
153.7238595
40
0.8684602
50
359.7646302
51
42.1161032
0
ARC
8
DEFAULT_255_2_778
10
12.8507774
20
153.7244127
40
0.8662296
50
42.2002176
51
87.9268901
0
ARC
8
DEFAULT_255_2_778
10
12.8460626
20
153.6833749
40
0.9074169
50
87.7231194
51
90.002558
0
ARC
8
DEFAULT_255_2_778
10
17.426742
20
153.3320858
40
1.2841942
50
233.3100129
51
270.0348017
0
ARC
8
DEFAULT_255_2_778
10
17.4388133
20
153.3524622
40
1.3077482
50
187.7860459
51
233.4193197
0
ARC
8
DEFAULT_255_2_778
10
17.4570588
20
153.3540185
40
1.3260368
50
179.9838663
51
187.7458681
0
ARC
8
DEFAULT_255_2_778
10
17.4155523
20
153.3546375
40
1.2845303
50
143.7084173
51
180.0109545
0
ARC
8
DEFAULT_255_2_778
10
17.4306238
20
153.3495899
40
1.2996747
50
94.9692901
51
143.9223324
0
ARC
8
DEFAULT_255_2_778
10
17.4274032
20
153.3502347
40
1.2987573
50
89.9947559
51
94.8302073
0
ARC
8
DEFAULT_255_2_778
10
17.4296339
20
153.3444304
40
1.3045632
50
58.1407344
51
90.0927508
0
ARC
8
DEFAULT_255_2_778
10
17.4377831
20
153.3500662
40
1.2954809
50
3.5056409
51
58.315291
0
ARC
8
DEFAULT_255_2_778
10
17.4388163
20
153.3541563
40
1.2942058
50
359.9971467
51
3.3277024
0
ARC
8
DEFAULT_255_2_778
10
17.2503088
20
153.3520483
40
1.4827147
50
0.006083
51
0.0789681
0
ARC
8
DEFAULT_255_2_778
10
17.4281187
20
153.3522022
40
1.3049047
50
315.0308293
51
0.0001529
0
ARC
8
DEFAULT_255_2_778
10
17.4286377
20
153.3519521
40
1.3043608
50
270.000667
51
315.0224921
0
LINE
8
DEFAULT_255_2_778
10
17.4286529
20
152.0475914
11
17.4275221
21
152.0475919
0
ARC
8
DEFAULT_255_2_778
10
17.4317812
20
153.3504112
40
0.7580313
50
269.6780691
51
315.5292436
0
ARC
8
DEFAULT_255_2_778
10
17.4287107
20
153.3496878
40
0.7597205
50
315.7303962
51
0.2857903
0
ARC
8
DEFAULT_255_2_778
10
17.7164376
20
153.3539382
40
0.4719845
50
359.944048
51
0.0186519
0
ARC
8
DEFAULT_255_2_778
10
17.4364772
20
153.3529605
40
0.7519457
50
0.086204
51
85.4319233
0
ARC
8
DEFAULT_255_2_778
10
17.4276609
20
153.3105338
40
0.7949581
50
85.0420495
51
90.0100075
0
ARC
8
DEFAULT_255_2_778
10
17.4256396
20
153.3672519
40
0.7382424
50
89.8538973
51
89.9999976
0
ARC
8
DEFAULT_255_2_778
10
17.425777
20
153.3543044
40
0.7511899
50
90.01048
51
134.9443097
0
ARC
8
DEFAULT_255_2_778
10
17.4259947
20
153.3541222
40
0.7514726
50
134.9462486
51
180.0023145
0
ARC
8
DEFAULT_255_2_778
10
17.4385624
20
153.3501875
40
0.7640503
50
179.7072119
51
222.5790813
0
ARC
8
DEFAULT_255_2_778
10
17.4256296
20
153.3391475
40
0.7470579
50
222.6267201
51
270.1451401
0
ARC
8
DEFAULT_255_2_778
10
9.432142
20
153.3320858
40
1.2841942
50
233.3100129
51
270.0348017
0
ARC
8
DEFAULT_255_2_778
10
9.4442133
20
153.3524622
40
1.3077482
50
187.7860459
51
233.4193197
0
ARC
8
DEFAULT_255_2_778
10
9.4624588
20
153.3540185
40
1.3260368
50
179.9838663
51
187.7458681
0
ARC
8
DEFAULT_255_2_778
10
9.4212129
20
153.3544961
40
1.2847909
50
143.1940819
51
180.0046489
0
ARC
8
DEFAULT_255_2_778
10
9.4360078
20
153.3498006
40
1.2994598
50
94.9233187
51
143.4191345
0
ARC
8
DEFAULT_255_2_778
10
9.4328008
20
153.350512
40
1.2984798
50
89.9946509
51
94.7850278
0
ARC
8
DEFAULT_255_2_778
10
9.4350902
20
153.3443441
40
1.3046496
50
58.1428905
51
90.0952196
0
ARC
8
DEFAULT_255_2_778
10
9.4435177
20
153.3504453
40
1.2950254
50
3.2656058
51
58.3171105
0
ARC
8
DEFAULT_255_2_778
10
9.4440693
20
153.3544485
40
1.2942527
50
359.997494
51
3.0900664
0
ARC
8
DEFAULT_255_2_778
10
9.4613718
20
153.3522448
40
1.276952
50
359.9949307
51
0.0963391
0
ARC
8
DEFAULT_255_2_778
10
9.4340093
20
153.3522585
40
1.3043147
50
315.0200668
51
359.994431
0
ARC
8
DEFAULT_255_2_778
10
9.4340338
20
153.35202
40
1.3041287
50
270.0008363
51
315.026719
0
LINE
8
DEFAULT_255_2_778
10
9.4340529
20
152.0478914
11
9.4329221
21
152.0478919
0
ARC
8
DEFAULT_255_2_778
10
9.4371412
20
153.3504135
40
0.7580334
50
269.6810953
51
315.6152252
0
ARC
8
DEFAULT_255_2_778
10
9.4340839
20
153.3497381
40
0.7597504
50
315.8129036
51
0.3254485
0
ARC
8
DEFAULT_255_2_778
10
9.4415176
20
153.3526565
40
0.7523058
50
0.1093155
51
85.7820321
0
ARC
8
DEFAULT_255_2_778
10
9.4330381
20
153.3111263
40
0.7943655
50
85.3923987
51
90.0083732
0
ARC
8
DEFAULT_255_2_778
10
9.4310385
20
153.3663348
40
0.7391595
50
89.8539942
51
89.9999859
0
ARC
8
DEFAULT_255_2_778
10
9.431105
20
153.3544783
40
0.7510159
50
90.0050654
51
134.9497993
0
ARC
8
DEFAULT_255_2_778
10
9.4309746
20
153.3542963
40
0.7510526
50
134.9329452
51
180.0155944
0
ARC
8
DEFAULT_255_2_778
10
9.4439945
20
153.3501612
40
0.7640826
50
179.7052536
51
222.5741919
0
ARC
8
DEFAULT_255_2_778
10
9.4309805
20
153.3391163
40
0.7470269
50
222.6256588
51
270.1489141
0
LINE
8
DEFAULT_255_2_778
10
13.9445221
20
154.5701919
11
13.9445221
21
152.1073919
0
LINE
8
DEFAULT_255_2_778
10
13.9445221
20
152.1073919
11
14.4880221
21
152.1073919
0
LINE
8
DEFAULT_255_2_778
10
14.4880221
20
152.1073919
11
14.4880221
21
154.1147919
0
LINE
8
DEFAULT_255_2_778
10
14.4880221
20
154.1147919
11
15.1309221
21
154.1147919
0
LINE
8
DEFAULT_255_2_778
10
15.1309221
20
153.3540919
11
14.6663221
21
153.3540919
0
LINE
8
DEFAULT_255_2_778
10
14.6663221
20
153.3540919
11
15.5074221
21
152.1070919
0
LINE
8
DEFAULT_255_2_778
10
15.5074221
20
152.1070919
11
16.1803221
21
152.1070919
0
LINE
8
DEFAULT_255_2_778
10
16.1803221
20
152.1070919
11
15.5670221
21
153.0074919
0
LINE
8
DEFAULT_255_2_778
10
15.2098221
20
154.5907919
11
14.4877221
21
154.5907919
0
LINE
8
DEFAULT_255_2_778
10
14.4877221
20
154.5907919
11
13.9443221
21
154.5701919
0
LINE
8
DEFAULT_255_2_778
10
13.9443221
20
154.5701919
11
13.9445221
21
154.5701919
0
LINE
8
DEFAULT_255_2_778
10
18.8819221
20
154.5701919
11
18.8819221
21
152.1073919
0
LINE
8
DEFAULT_255_2_778
10
18.8819221
20
152.1073919
11
19.4254221
21
152.1073919
0
LINE
8
DEFAULT_255_2_778
10
19.4254221
20
152.1073919
11
19.4254221
21
154.1147919
0
LINE
8
DEFAULT_255_2_778
10
19.4254221
20
154.1147919
11
20.0400221
21
154.1147919
0
LINE
8
DEFAULT_255_2_778
10
20.4255221
20
153.7395919
11
20.4255221
21
152.1073919
0
LINE
8
DEFAULT_255_2_778
10
20.4255221
20
152.1073919
11
20.9690221
21
152.1073919
0
LINE
8
DEFAULT_255_2_778
10
20.9690221
20
152.1073919
11
20.9690221
21
153.7202919
0
LINE
8
DEFAULT_255_2_778
10
20.0982221
20
154.5907919
11
19.4254221
21
154.5907919
0
LINE
8
DEFAULT_255_2_778
10
19.4254221
20
154.5907919
11
18.8819221
21
154.5701919
0
LINE
8
DEFAULT_255_2_778
10
18.8819221
20
154.5701919
11
18.8819221
21
154.5701919
0
LINE
8
DEFAULT_255_2_778
10
10.8873221
20
154.5701919
11
10.8873221
21
152.1073919
0
LINE
8
DEFAULT_255_2_778
10
10.8873221
20
152.1073919
11
11.4305221
21
152.1073919
0
LINE
8
DEFAULT_255_2_778
10
11.4305221
20
152.1073919
11
11.4305221
21
154.1147919
0
LINE
8
DEFAULT_255_2_778
10
11.4305221
20
154.1147919
11
12.0348221
21
154.1147919
0
LINE
8
DEFAULT_255_2_778
10
12.0348221
20
154.1147919
11
12.0348221
21
152.1073919
0
LINE
8
DEFAULT_255_2_778
10
12.0348221
20
152.1073919
11
12.5782221
21
152.1073919
0
LINE
8
DEFAULT_255_2_778
10
12.5782221
20
152.1073919
11
12.5782221
21
154.1147919
0
LINE
8
DEFAULT_255_2_778
10
12.5782221
20
154.1147919
11
12.7865221
21
154.1147919
0
LINE
8
DEFAULT_255_2_778
10
13.1719221
20
153.7395919
11
13.1719221
21
152.1073919
0
LINE
8
DEFAULT_255_2_778
10
13.1719221
20
152.1073919
11
13.7167221
21
152.1073919
0
LINE
8
DEFAULT_255_2_778
10
13.7167221
20
152.1073919
11
13.7167221
21
153.7202919
0
LINE
8
DEFAULT_255_2_778
10
12.8460221
20
154.5907919
11
11.4408221
21
154.5907919
0
LINE
8
DEFAULT_255_2_778
10
11.4408221
20
154.5907919
11
10.8870221
21
154.5701919
0
LINE
8
DEFAULT_255_2_778
10
10.8870221
20
154.5701919
11
10.8873221
21
154.5701919
0
LINE
8
DEFAULT_255_2_778
10
17.4275221
20
152.0475919
11
17.4275221
21
152.0478919
0
LINE
8
DEFAULT_255_2_778
10
9.4329221
20
152.0478919
11
9.4329221
21
152.0478919
0
LINE
8
DEFAULT_255_2_778
10
9.3932417
20
124.2218483
11
10.7161417
21
124.2218483
0
LINE
8
DEFAULT_255_2_778
10
10.7161417
20
124.2218483
11
10.7161417
21
67.3364483
0
LINE
8
DEFAULT_255_2_778
10
10.7161417
20
62.0447483
11
10.7161417
21
5.1593483
0
LINE
8
DEFAULT_255_2_778
10
10.7161417
20
5.1593483
11
9.3932417
21
5.1593483
0
LINE
8
DEFAULT_255_2_778
10
9.3932834
20
67.3364333
11
12.0390834
21
67.3364333
0
LINE
8
DEFAULT_255_2_778
10
12.0390834
20
67.3364333
11
12.0390834
21
62.0447333
0
LINE
8
DEFAULT_255_2_778
10
12.0390834
20
62.0447333
11
9.3932834
21
62.0447333
0
LINE
8
DEFAULT_255_2_778
10
9.3932834
20
62.0447333
11
9.3932834
21
67.3364333
0
LINE
8
DEFAULT_255_2_778
10
10.187
20
62.5739666
11
10.187
21
66.8072666
0
LINE
8
DEFAULT_255_2_778
10
9.9224167
20
66.013575
11
10.1870167
21
66.807275
0
LINE
8
DEFAULT_255_2_778
10
10.1870167
20
66.807275
11
10.4516167
21
66.013575
0
LINE
8
DEFAULT_255_2_778
10
10.4516167
20
66.013575
11
9.9224167
21
66.013575
0
LINE
8
DEFAULT_255_2_778
10
11.2453
20
66.8072666
11
11.2453
21
62.5739666
0
LINE
8
DEFAULT_255_2_778
10
10.9807167
20
63.367675
11
11.2453167
21
62.573975
0
LINE
8
DEFAULT_255_2_778
10
11.2453167
20
62.573975
11
11.5099167
21
63.367675
0
LINE
8
DEFAULT_255_2_778
10
11.5099167
20
63.367675
11
10.9807167
21
63.367675
0
LINE
8
DEFAULT_255_1_234
10
11.6128879
20
150.6691211
11
11.6128879
21
149.4997
0
LINE
8
DEFAULT_255_1_234
10
11.6128879
20
149.4997
11
11.4578753
21
149.4997
0
LINE
8
DEFAULT_255_1_234
10
11.4578753
20
149.4997
11
10.8691489
21
150.400861
0
LINE
8
DEFAULT_255_1_234
10
10.8691489
20
150.400861
11
10.8691489
21
149.4997
0
LINE
8
DEFAULT_255_1_234
10
10.8691489
20
149.4997
11
10.7141364
21
149.4997
0
LINE
8
DEFAULT_255_1_234
10
10.7141364
20
149.4997
11
10.7141364
21
150.6691211
0
LINE
8
DEFAULT_255_1_234
10
10.7141364
20
150.6691211
11
10.8691489
21
150.6691211
0
LINE
8
DEFAULT_255_1_234
10
10.8691489
20
150.6691211
11
11.4594817
21
149.7639442
0
LINE
8
DEFAULT_255_1_234
10
11.4594817
20
149.7639442
11
11.4594817
21
150.6691211
0
LINE
8
DEFAULT_255_1_234
10
11.4594817
20
150.6691211
11
11.6128879
21
150.6691211
0
LINE
8
DEFAULT_255_1_234
10
12.0000177
20
150.6691211
11
12.2819317
21
150.2209501
0
LINE
8
DEFAULT_255_1_234
10
12.2819317
20
150.2209501
11
12.5622394
21
150.6691211
0
LINE
8
DEFAULT_255_1_234
10
12.5622394
20
150.6691211
11
12.7437566
21
150.6691211
0
LINE
8
DEFAULT_255_1_234
10
12.7437566
20
150.6691211
11
12.3742967
21
150.0892296
0
LINE
8
DEFAULT_255_1_234
10
12.3742967
20
150.0892296
11
12.7525916
21
149.4997
0
LINE
8
DEFAULT_255_1_234
10
12.7525916
20
149.4997
11
12.5694679
21
149.4997
0
LINE
8
DEFAULT_255_1_234
10
12.5694679
20
149.4997
11
12.2819317
21
149.9559027
0
LINE
8
DEFAULT_255_1_234
10
12.2819317
20
149.9559027
11
11.9927891
21
149.4997
0
LINE
8
DEFAULT_255_1_234
10
11.9927891
20
149.4997
11
11.8104687
21
149.4997
0
LINE
8
DEFAULT_255_1_234
10
11.8104687
20
149.4997
11
12.1895667
21
150.0892296
0
LINE
8
DEFAULT_255_1_234
10
12.1895667
20
150.0892296
11
11.8193036
21
150.6691211
0
LINE
8
DEFAULT_255_1_234
10
11.8193036
20
150.6691211
11
12.0000177
21
150.6691211
0
LINE
8
DEFAULT_255_1_234
10
13.1806832
20
150.0571026
11
13.1806832
21
149.9358234
0
LINE
8
DEFAULT_255_1_234
10
13.1806832
20
149.9358234
11
12.7887344
21
149.9358234
0
LINE
8
DEFAULT_255_1_234
10
12.7887344
20
149.9358234
11
12.7887344
21
150.0571026
0
LINE
8
DEFAULT_255_1_234
10
12.7887344
20
150.0571026
11
13.1806832
21
150.0571026
0
LINE
8
DEFAULT_255_1_234
10
14.1244125
20
150.3309849
11
13.9693999
21
150.3309849
0
LINE
8
DEFAULT_255_1_234
10
13.2770641
20
149.8386394
11
13.4320766
21
149.8386394
0
ARC
8
DEFAULT_255_1_234
10
14.0352812
20
151.2256768
40
1.252368
50
248.9199003
51
254.1439814
0
ARC
8
DEFAULT_255_1_234
10
13.8672307
20
150.7930234
40
0.788226
50
241.633709
51
249.0064503
0
ARC
8
DEFAULT_255_1_234
10
13.7143701
20
150.5129317
40
0.4691427
50
230.498225
51
241.8087113
0
ARC
8
DEFAULT_255_1_234
10
13.6359275
20
150.4129906
40
0.3421437
50
227.4064532
51
229.9881192
0
ARC
8
DEFAULT_255_1_234
10
13.5871796
20
150.3654088
40
0.2741476
50
200.6781896
51
228.1763934
0
ARC
8
DEFAULT_255_1_234
10
13.5944107
20
150.3639077
40
0.2804109
50
179.5061581
51
199.8694617
0
ARC
8
DEFAULT_255_1_234
10
13.5934858
20
150.371321
40
0.2795204
50
132.4834203
51
181.0242172
0
ARC
8
DEFAULT_255_1_234
10
13.6530441
20
150.3150704
40
0.3612768
50
129.2532479
51
133.4242687
0
ARC
8
DEFAULT_255_1_234
10
13.667689
20
150.2930965
40
0.3875675
50
101.98776
51
128.8742646
0
ARC
8
DEFAULT_255_1_234
10
13.7075501
20
150.1209741
40
0.5642249
50
89.5906553
51
102.3169264
0
ARC
8
DEFAULT_255_1_234
10
13.7145993
20
150.1528148
40
0.5323783
50
77.2360837
51
90.3248275
0
ARC
8
DEFAULT_255_1_234
10
13.7353072
20
150.24954
40
0.4334697
50
63.837784
51
77.0809408
0
ARC
8
DEFAULT_255_1_234
10
13.7630834
20
150.3012911
40
0.3747796
50
45.9864267
51
64.1607727
0
ARC
8
DEFAULT_255_1_234
10
13.7891715
20
150.3310866
40
0.3352302
50
32.2747395
51
45.6547121
0
ARC
8
DEFAULT_255_1_234
10
13.7958156
20
150.332988
40
0.328603
50
359.6507365
51
32.6130309
0
ARC
8
DEFAULT_255_1_234
10
13.7015251
20
150.333466
40
0.2678863
50
359.469343
51
14.9832209
0
ARC
8
DEFAULT_255_1_234
10
13.7720314
20
150.3523539
40
0.1948938
50
14.9781179
51
48.2004265
0
ARC
8
DEFAULT_255_1_234
10
13.7555958
20
150.3316983
40
0.2212521
50
48.5927837
51
74.1241538
0
ARC
8
DEFAULT_255_1_234
10
13.7222447
20
150.2216248
40
0.3362561
50
73.7888341
51
86.6652678
0
ARC
8
DEFAULT_255_1_234
10
13.7120013
20
150.1008881
40
0.4573953
50
86.2640471
51
90.0526343
0
ARC
8
DEFAULT_255_1_234
10
13.7091725
20
150.1404192
40
0.4178709
50
89.6697524
51
99.2309573
0
ARC
8
DEFAULT_255_1_234
10
13.6849176
20
150.2848964
40
0.2713749
50
99.069534
51
113.7658566
0
ARC
8
DEFAULT_255_1_234
10
13.6575367
20
150.3494677
40
0.2012469
50
114.0401004
51
127.9850673
0
ARC
8
DEFAULT_255_1_234
10
13.6334931
20
150.379073
40
0.1631167
50
127.7287463
51
176.7105154
0
ARC
8
DEFAULT_255_1_234
10
13.7013649
20
150.3689693
40
0.2315392
50
175.1779447
51
180.0581938
0
ARC
8
DEFAULT_255_1_234
10
13.6170496
20
150.3677428
40
0.1472271
50
179.6142195
51
228.1246017
0
ARC
8
DEFAULT_255_1_234
10
13.6612164
20
150.4086308
40
0.2072299
50
226.5779593
51
230.8800004
0
ARC
8
DEFAULT_255_1_234
10
13.7083243
20
150.4711636
40
0.2854818
50
231.4635071
51
241.9260842
0
ARC
8
DEFAULT_255_1_234
10
13.8280421
20
150.69148
40
0.53622
50
241.7178533
51
248.3259551
0
ARC
8
DEFAULT_255_1_234
10
13.9665793
20
151.0347064
40
0.9063478
50
248.2007737
51
252.4528373
0
ARC
8
DEFAULT_255_1_234
10
14.0869518
20
151.4068441
40
1.2974635
50
252.3391078
51
254.3469452
0
ARC
8
DEFAULT_255_1_234
10
13.332722
20
148.7091148
40
1.5037162
50
71.0197183
51
74.4087047
0
ARC
8
DEFAULT_255_1_234
10
13.5021906
20
149.1983111
40
0.9859993
50
66.1847285
51
71.086374
0
ARC
8
DEFAULT_255_1_234
10
13.6578218
20
149.54872
40
0.6025855
50
59.3536294
51
66.2691831
0
ARC
8
DEFAULT_255_1_234
10
13.746687
20
149.6990609
40
0.4279449
50
49.1020879
51
59.3293958
0
ARC
8
DEFAULT_255_1_234
10
13.828561
20
149.7923834
40
0.3038015
50
32.7919921
51
49.2505539
0
ARC
8
DEFAULT_255_1_234
10
13.86067
20
149.8152191
40
0.264448
50
31.1181161
51
32.4005348
0
ARC
8
DEFAULT_255_1_234
10
13.8518238
20
149.8116779
40
0.2738556
50
8.1116974
51
30.7958831
0
ARC
8
DEFAULT_255_1_234
10
13.7707906
20
149.7978753
40
0.3560327
50
359.8389159
51
8.4706516
0
ARC
8
DEFAULT_255_1_234
10
13.8333697
20
149.7930137
40
0.2934776
50
337.4731098
51
0.7537279
0
ARC
8
DEFAULT_255_1_234
10
13.8512392
20
149.7910387
40
0.2762607
50
307.5917067
51
336.4315538
0
ARC
8
DEFAULT_255_1_234
10
13.805222
20
149.8423102
40
0.3449979
50
307.6551545
51
308.4529766
0
ARC
8
DEFAULT_255_1_234
10
13.7821939
20
149.877825
40
0.3871988
50
284.3734338
51
307.1424381
0
ARC
8
DEFAULT_255_1_234
10
13.7326769
20
150.0599932
40
0.5759636
50
272.4382747
51
284.646547
0
ARC
8
DEFAULT_255_1_234
10
13.7199978
20
150.2399893
40
0.7563528
50
269.9708387
51
272.8178037
0
ARC
8
DEFAULT_255_1_234
10
13.7157018
20
150.0361716
40
0.5525489
50
248.2707594
51
270.4055579
0
ARC
8
DEFAULT_255_1_234
10
13.7102759
20
150.0171192
40
0.5328452
50
246.1383403
51
248.0542782
0
ARC
8
DEFAULT_255_1_234
10
13.6684138
20
149.9291843
40
0.4355005
50
233.1670131
51
246.4950969
0
ARC
8
DEFAULT_255_1_234
10
13.6130043
20
149.8543812
40
0.3424126
50
215.3403242
51
233.0843104
0
ARC
8
DEFAULT_255_1_234
10
13.5857474
20
149.8345549
40
0.3087104
50
179.2419209
51
215.2648451
0
ARC
8
DEFAULT_255_1_234
10
13.6625068
20
149.8359666
40
0.2304457
50
179.335461
51
199.1045811
0
ARC
8
DEFAULT_255_1_234
10
13.6292744
20
149.8272766
40
0.1962176
50
199.8828939
51
232.7063202
0
ARC
8
DEFAULT_255_1_234
10
13.6765013
20
149.8866788
40
0.2720938
50
232.3738199
51
255.5136649
0
ARC
8
DEFAULT_255_1_234
10
13.7105879
20
150.0110835
40
0.4010747
50
255.2446292
51
267.5320849
0
ARC
8
DEFAULT_255_1_234
10
13.7193503
20
150.1343702
40
0.5246356
50
267.1557994
51
270.0286766
0
ARC
8
DEFAULT_255_1_234
10
13.7221275
20
150.089995
40
0.4802668
50
269.7000017
51
278.1660162
0
ARC
8
DEFAULT_255_1_234
10
13.747728
20
149.9169515
40
0.3053425
50
278.0231263
51
290.625471
0
ARC
8
DEFAULT_255_1_234
10
13.7824967
20
149.8242025
40
0.206291
50
290.6619762
51
307.0370976
0
ARC
8
DEFAULT_255_1_234
10
13.8125356
20
149.7873504
40
0.1587906
50
306.3943566
51
355.3030547
0
ARC
8
DEFAULT_255_1_234
10
13.7613288
20
149.7950113
40
0.2104809
50
354.3660432
51
0.0698737
0
ARC
8
DEFAULT_255_1_234
10
13.7755633
20
149.7972617
40
0.1962563
50
359.417946
51
16.1971788
0
ARC
8
DEFAULT_255_1_234
10
13.8210943
20
149.8097418
40
0.149053
50
16.4723299
51
52.6262157
0
ARC
8
DEFAULT_255_1_234
10
13.7389997
20
149.7013433
40
0.2850296
50
52.7386432
51
62.4979148
0
ARC
8
DEFAULT_255_1_234
10
13.6005074
20
149.4407283
40
0.5801521
50
62.2515216
51
68.1220564
0
ARC
8
DEFAULT_255_1_234
10
13.4284985
20
149.0179872
40
1.0365451
50
68.0062803
51
71.8053402
0
ARC
8
DEFAULT_255_1_234
10
13.2489356
20
148.4794758
40
1.6042013
50
71.7183119
51
73.9258742
0
LINE
8
DEFAULT_255_1_234
10
14.2633615
20
149.9101218
11
14.2633615
21
149.9374297
0
LINE
8
DEFAULT_255_1_234
10
15.0006751
20
149.9534932
11
15.0006751
21
149.8916488
0
LINE
8
DEFAULT_255_1_234
10
15.0006751
20
149.8916488
11
14.4119487
21
149.8916488
0
LINE
8
DEFAULT_255_1_234
10
14.898672
20
149.7221792
11
14.9894307
21
149.6514999
0
LINE
8
DEFAULT_255_1_234
10
14.4167677
20
150.0137313
11
14.8520879
21
150.0137313
0
LINE
8
DEFAULT_255_1_234
10
14.8520879
20
150.0137313
11
14.8520879
21
150.0249757
0
ARC
8
DEFAULT_255_1_234
10
14.657298
20
149.9212332
40
0.4376191
50
252.3266134
51
270.5810217
0
ARC
8
DEFAULT_255_1_234
10
14.6368069
20
149.8471644
40
0.3608374
50
223.3000567
51
251.8561855
0
ARC
8
DEFAULT_255_1_234
10
14.657943
20
149.8676937
40
0.3902993
50
190.9374509
51
223.3654032
0
ARC
8
DEFAULT_255_1_234
10
14.8304402
20
149.9066885
40
0.5670891
50
179.6531105
51
191.4989439
0
ARC
8
DEFAULT_255_1_234
10
14.8426415
20
149.9406417
40
0.5792888
50
167.4007466
51
180.3176909
0
ARC
8
DEFAULT_255_1_234
10
14.7374476
20
149.9628885
40
0.471777
50
154.1835823
51
167.250763
0
ARC
8
DEFAULT_255_1_234
10
14.6742944
20
149.9961417
40
0.4004528
50
134.3149965
51
154.5315275
0
ARC
8
DEFAULT_255_1_234
10
14.6525439
20
150.0152228
40
0.371612
50
122.8616532
51
133.9707695
0
ARC
8
DEFAULT_255_1_234
10
14.6422013
20
150.0374703
40
0.3473289
50
89.8249009
51
123.4199222
0
ARC
8
DEFAULT_255_1_234
10
14.6472054
20
149.9727967
40
0.4120197
50
74.7876118
51
90.5482747
0
ARC
8
DEFAULT_255_1_234
10
14.6765797
20
150.081303
40
0.2996077
50
39.8178249
51
74.7633718
0
ARC
8
DEFAULT_255_1_234
10
14.6253117
20
150.0413351
40
0.3645855
50
16.8990863
51
39.4829761
0
ARC
8
DEFAULT_255_1_234
10
14.4358414
20
149.9806526
40
0.5635218
50
4.9636328
51
17.2026414
0
ARC
8
DEFAULT_255_1_234
10
14.1940484
20
149.955134
40
0.8066286
50
359.8834553
51
5.2834307
0
ARC
8
DEFAULT_255_1_234
10
14.7978008
20
149.8982803
40
0.3859091
50
180.9846213
51
194.9401313
0
ARC
8
DEFAULT_255_1_234
10
14.6928286
20
149.8695849
40
0.2770883
50
194.80314
51
222.0412631
0
ARC
8
DEFAULT_255_1_234
10
14.6624168
20
149.8394116
40
0.2343055
50
221.5417084
51
268.8614402
0
ARC
8
DEFAULT_255_1_234
10
14.6697163
20
149.9070686
40
0.3021528
50
267.732405
51
270.0097136
0
ARC
8
DEFAULT_255_1_234
10
14.6714973
20
149.9272105
40
0.3222994
50
269.6924892
51
280.4117579
0
ARC
8
DEFAULT_255_1_234
10
14.689138
20
149.8353193
40
0.2287344
50
280.2255091
51
298.6338936
0
ARC
8
DEFAULT_255_1_234
10
14.7008171
20
149.8109223
40
0.2017294
50
299.0430333
51
300.4643464
0
ARC
8
DEFAULT_255_1_234
10
14.6328177
20
149.9243038
40
0.3339357
50
300.6577328
51
322.0378878
0
ARC
8
DEFAULT_255_1_234
10
14.5977716
20
149.9547021
40
0.3802736
50
321.6750233
51
322.3046845
0
ARC
8
DEFAULT_255_1_234
10
14.6908677
20
149.838037
40
0.3520454
50
276.9728461
51
328.0035423
0
ARC
8
DEFAULT_255_1_234
10
14.663173
20
149.9860841
40
0.5024498
50
269.8361028
51
278.0581756
0
ARC
8
DEFAULT_255_1_234
10
14.6404468
20
150.0605757
40
0.202159
50
89.2018686
51
117.2851756
0
ARC
8
DEFAULT_255_1_234
10
14.6457637
20
150.0563752
40
0.2083484
50
118.0551165
51
137.4540413
0
ARC
8
DEFAULT_255_1_234
10
14.6832377
20
150.0223304
40
0.2589774
50
137.5109581
51
158.8516286
0
ARC
8
DEFAULT_255_1_234
10
14.7970212
20
149.9764074
40
0.38167
50
158.5845963
51
170.1721436
0
ARC
8
DEFAULT_255_1_234
10
14.9139601
20
149.9531823
40
0.5008657
50
169.8376422
51
173.0566086
0
ARC
8
DEFAULT_255_1_234
10
14.4442675
20
150.0042509
40
0.4083467
50
2.9091802
51
12.8847116
0
ARC
8
DEFAULT_255_1_234
10
14.5813352
20
150.0365101
40
0.2675383
50
12.6957781
51
28.6404489
0
ARC
8
DEFAULT_255_1_234
10
14.6355023
20
150.0645458
40
0.2065654
50
29.0169854
51
41.1487595
0
ARC
8
DEFAULT_255_1_234
10
14.6557808
20
150.0822003
40
0.1796786
50
41.1646065
51
85.0013516
0
ARC
8
DEFAULT_255_1_234
10
14.6436904
20
150.0087431
40
0.2539726
50
83.7280015
51
90.0964893
0
LINE
8
DEFAULT_255_1_234
10
15.5926142
20
150.3735531
11
15.5926142
21
150.2354072
0
LINE
8
DEFAULT_255_1_234
10
15.3211415
20
150.1165375
11
15.3211415
21
149.4997
0
LINE
8
DEFAULT_255_1_234
10
15.3211415
20
149.4997
11
15.1725543
21
149.4997
0
LINE
8
DEFAULT_255_1_234
10
15.1725543
20
149.4997
11
15.1725543
21
150.3687341
0
LINE
8
DEFAULT_255_1_234
10
15.1725543
20
150.3687341
11
15.3171256
21
150.3687341
0
LINE
8
DEFAULT_255_1_234
10
15.3171256
20
150.3687341
11
15.3195351
21
150.2683374
0
ARC
8
DEFAULT_255_1_234
10
15.5259548
20
149.8294342
40
0.4114092
50
80.6754243
51
86.8932892
0
ARC
8
DEFAULT_255_1_234
10
15.5199082
20
149.73267
40
0.5083596
50
86.8038578
51
90.0431435
0
ARC
8
DEFAULT_255_1_234
10
15.5162063
20
149.9783866
40
0.2626638
50
89.2759698
51
106.6213787
0
ARC
8
DEFAULT_255_1_234
10
15.4957627
20
150.052683
40
0.1856317
50
107.1346045
51
157.6458115
0
ARC
8
DEFAULT_255_1_234
10
15.5649228
20
150.0143311
40
0.2643398
50
155.6586782
51
157.2539184
0
ARC
8
DEFAULT_255_1_234
10
15.544443
20
150.1312157
40
0.2634121
50
127.8165941
51
148.6302098
0
ARC
8
DEFAULT_255_1_234
10
15.5190899
20
150.1572218
40
0.2273596
50
91.3329982
51
126.7875809
0
ARC
8
DEFAULT_255_1_234
10
15.526684
20
150.0857195
40
0.299078
50
89.986594
51
92.4688449
0
ARC
8
DEFAULT_255_1_234
10
15.5275235
20
150.1132078
40
0.2715908
50
85.3589899
51
90.1623399
0
ARC
8
DEFAULT_255_1_234
10
15.535975
20
150.2136164
40
0.1708278
50
78.401942
51
85.4594656
0
ARC
8
DEFAULT_255_1_234
10
15.5504634
20
150.2827236
40
0.1002194
50
67.7858312
51
78.5728455
0
ARC
8
DEFAULT_255_1_234
10
15.5612487
20
150.3106887
40
0.0702548
50
63.4835954
51
67.3062642
0
LINE
8
DEFAULT_255_1_234
10
15.8905917
20
150.3687341
11
15.8905917
21
149.4997
0
LINE
8
DEFAULT_255_1_234
10
15.8905917
20
149.4997
11
15.7420045
21
149.4997
0
LINE
8
DEFAULT_255_1_234
10
15.7420045
20
149.4997
11
15.7420045
21
150.3687341
0
LINE
8
DEFAULT_255_1_234
10
15.7420045
20
150.3687341
11
15.8905917
21
150.3687341
0
ARC
8
DEFAULT_255_1_234
10
15.8278194
20
150.6001889
40
0.097867
50
161.415052
51
180.5526306
0
ARC
8
DEFAULT_255_1_234
10
15.8153972
20
150.6036077
40
0.0850062
50
138.1827368
51
160.9307106
0
ARC
8
DEFAULT_255_1_234
10
15.8043918
20
150.6131588
40
0.0704362
50
104.6368899
51
138.0039868
0
ARC
8
DEFAULT_255_1_234
10
15.8151073
20
150.5764963
40
0.1086221
50
92.0600725
51
105.2189128
0
ARC
8
DEFAULT_255_1_234
10
15.8174421
20
150.5422117
40
0.1429728
50
89.9756393
51
92.5012496
0
ARC
8
DEFAULT_255_1_234
10
15.818444
20
150.5647731
40
0.1204151
50
78.0235316
51
90.4478182
0
ARC
8
DEFAULT_255_1_234
10
15.8276532
20
150.6061295
40
0.0780493
50
55.051506
51
78.3369085
0
ARC
8
DEFAULT_255_1_234
10
15.8326807
20
150.6145711
40
0.0682538
50
42.0501187
51
54.4513741
0
ARC
8
DEFAULT_255_1_234
10
15.8191674
20
150.6021798
40
0.0865878
50
1.7497075
51
42.1496013
0
ARC
8
DEFAULT_255_1_234
10
15.7937007
20
150.5992738
40
0.1121515
50
359.9852656
51
2.8364544
0
ARC
8
DEFAULT_255_1_234
10
15.8102999
20
150.5983229
40
0.0955566
50
342.1070653
51
0.552888
0
ARC
8
DEFAULT_255_1_234
10
15.8245696
20
150.5943904
40
0.0807713
50
316.7107116
51
341.6516965
0
ARC
8
DEFAULT_255_1_234
10
15.8312733
20
150.5883823
40
0.0717724
50
285.4397031
51
316.5324284
0
ARC
8
DEFAULT_255_1_234
10
15.820265
20
150.6249554
40
0.1099597
50
272.3547054
51
285.8953117
0
ARC
8
DEFAULT_255_1_234
10
15.8175808
20
150.6615048
40
0.1465932
50
269.9695369
51
272.8160237
0
ARC
8
DEFAULT_255_1_234
10
15.816599
20
150.6395863
40
0.1246779
50
258.8431134
51
270.4153935
0
ARC
8
DEFAULT_255_1_234
10
15.8076032
20
150.5960414
40
0.0802162
50
238.5431189
51
259.1288175
0
ARC
8
DEFAULT_255_1_234
10
15.8007917
20
150.5836856
40
0.0661247
50
222.5062634
51
237.9906969
0
ARC
8
DEFAULT_255_1_234
10
15.8135504
20
150.5952889
40
0.0833707
50
184.1069131
51
222.460413
0
ARC
8
DEFAULT_255_1_234
10
15.8404745
20
150.5991349
40
0.1105176
50
179.9429482
51
185.0960898
0
LINE
8
DEFAULT_255_1_234
10
16.090582
20
149.9101218
11
16.090582
21
149.9374297
0
LINE
8
DEFAULT_255_1_234
10
16.8278956
20
149.9534932
11
16.8278956
21
149.8916488
0
LINE
8
DEFAULT_255_1_234
10
16.8278956
20
149.8916488
11
16.2391691
21
149.8916488
0
LINE
8
DEFAULT_255_1_234
10
16.7258925
20
149.7221792
11
16.8166511
21
149.6514999
0
LINE
8
DEFAULT_255_1_234
10
16.2439882
20
150.0137313
11
16.6793084
21
150.0137313
0
LINE
8
DEFAULT_255_1_234
10
16.6793084
20
150.0137313
11
16.6793084
21
150.0249757
0
ARC
8
DEFAULT_255_1_234
10
16.4845185
20
149.9212332
40
0.4376191
50
252.3266134
51
270.5810217
0
ARC
8
DEFAULT_255_1_234
10
16.4640274
20
149.8471644
40
0.3608374
50
223.3000567
51
251.8561855
0
ARC
8
DEFAULT_255_1_234
10
16.4851635
20
149.8676937
40
0.3902993
50
190.9374509
51
223.3654032
0
ARC
8
DEFAULT_255_1_234
10
16.6576607
20
149.9066885
40
0.5670891
50
179.6531105
51
191.4989439
0
ARC
8
DEFAULT_255_1_234
10
16.6698619
20
149.9406417
40
0.5792888
50
167.4007466
51
180.3176909
0
ARC
8
DEFAULT_255_1_234
10
16.5646681
20
149.9628885
40
0.471777
50
154.1835823
51
167.250763
0
ARC
8
DEFAULT_255_1_234
10
16.5015148
20
149.9961417
40
0.4004528
50
134.3149965
51
154.5315275
0
ARC
8
DEFAULT_255_1_234
10
16.4797643
20
150.0152228
40
0.371612
50
122.8616532
51
133.9707695
0
ARC
8
DEFAULT_255_1_234
10
16.4694217
20
150.0374703
40
0.3473289
50
89.8249009
51
123.4199222
0
ARC
8
DEFAULT_255_1_234
10
16.4744258
20
149.9727967
40
0.4120197
50
74.7876118
51
90.5482747
0
ARC
8
DEFAULT_255_1_234
10
16.5038002
20
150.081303
40
0.2996077
50
39.8178249
51
74.7633718
0
ARC
8
DEFAULT_255_1_234
10
16.4525322
20
150.0413351
40
0.3645855
50
16.8990863
51
39.4829761
0
ARC
8
DEFAULT_255_1_234
10
16.2630618
20
149.9806526
40
0.5635218
50
4.9636328
51
17.2026414
0
ARC
8
DEFAULT_255_1_234
10
16.0212688
20
149.955134
40
0.8066286
50
359.8834553
51
5.2834307
0
ARC
8
DEFAULT_255_1_234
10
16.6250213
20
149.8982803
40
0.3859091
50
180.9846213
51
194.9401313
0
ARC
8
DEFAULT_255_1_234
10
16.5200491
20
149.8695849
40
0.2770883
50
194.80314
51
222.0412631
0
ARC
8
DEFAULT_255_1_234
10
16.4896373
20
149.8394116
40
0.2343055
50
221.5417084
51
268.8614402
0
ARC
8
DEFAULT_255_1_234
10
16.4969367
20
149.9070686
40
0.3021528
50
267.732405
51
270.0097136
0
ARC
8
DEFAULT_255_1_234
10
16.4987177
20
149.9272105
40
0.3222994
50
269.6924892
51
280.4117579
0
ARC
8
DEFAULT_255_1_234
10
16.5163584
20
149.8353193
40
0.2287344
50
280.2255091
51
298.6338936
0
ARC
8
DEFAULT_255_1_234
10
16.5280376
20
149.8109223
40
0.2017294
50
299.0430333
51
300.4643464
0
ARC
8
DEFAULT_255_1_234
10
16.4600382
20
149.9243038
40
0.3339357
50
300.6577328
51
322.0378878
0
ARC
8
DEFAULT_255_1_234
10
16.4249921
20
149.9547021
40
0.3802736
50
321.6750233
51
322.3046845
0
ARC
8
DEFAULT_255_1_234
10
16.5180882
20
149.838037
40
0.3520454
50
276.9728461
51
328.0035423
0
ARC
8
DEFAULT_255_1_234
10
16.4903935
20
149.9860841
40
0.5024498
50
269.8361028
51
278.0581756
0
ARC
8
DEFAULT_255_1_234
10
16.4676672
20
150.0605757
40
0.202159
50
89.2018686
51
117.2851756
0
ARC
8
DEFAULT_255_1_234
10
16.4729841
20
150.0563752
40
0.2083484
50
118.0551165
51
137.4540413
0
ARC
8
DEFAULT_255_1_234
10
16.5104581
20
150.0223304
40
0.2589774
50
137.5109581
51
158.8516286
0
ARC
8
DEFAULT_255_1_234
10
16.6242417
20
149.9764074
40
0.38167
50
158.5845963
51
170.1721436
0
ARC
8
DEFAULT_255_1_234
10
16.7411806
20
149.9531823
40
0.5008657
50
169.8376422
51
173.0566086
0
ARC
8
DEFAULT_255_1_234
10
16.271488
20
150.0042509
40
0.4083467
50
2.9091802
51
12.8847116
0
ARC
8
DEFAULT_255_1_234
10
16.4085556
20
150.0365101
40
0.2675383
50
12.6957781
51
28.6404489
0
ARC
8
DEFAULT_255_1_234
10
16.4627227
20
150.0645458
40
0.2065654
50
29.0169854
51
41.1487595
0
ARC
8
DEFAULT_255_1_234
10
16.4830012
20
150.0822003
40
0.1796786
50
41.1646065
51
85.0013516
0
ARC
8
DEFAULT_255_1_234
10
16.4709109
20
150.0087431
40
0.2539726
50
83.7280015
51
90.0964893
0
LINE
8
DEFAULT_255_1_234
10
17.6463297
20
150.1133248
11
17.4969394
21
150.1133248
0
LINE
8
DEFAULT_255_1_234
10
16.9636319
20
149.7671569
11
17.1122191
21
149.7671569
0
ARC
8
DEFAULT_255_1_234
10
17.3781212
20
149.7316959
40
0.1276617
50
359.3334982
51
18.5871358
0
ARC
8
DEFAULT_255_1_234
10
17.3989849
20
149.7372133
40
0.1061371
50
19.3540742
51
54.6485071
0
ARC
8
DEFAULT_255_1_234
10
17.3485751
20
149.6676919
40
0.1920087
50
54.3827097
51
65.0622807
0
ARC
8
DEFAULT_255_1_234
10
17.2717148
20
149.50599
40
0.3710447
50
64.8282493
51
71.4200025
0
ARC
8
DEFAULT_255_1_234
10
17.1815023
20
149.2413107
40
0.6506741
50
71.3164301
51
75.8006402
0
ARC
8
DEFAULT_255_1_234
10
17.0973843
20
148.9172561
40
0.9854641
50
75.6809531
51
78.0061883
0
ARC
8
DEFAULT_255_1_234
10
17.5422376
20
151.015177
40
1.1591028
50
254.6901892
51
258.0466452
0
ARC
8
DEFAULT_255_1_234
10
17.4384285
20
150.6392781
40
0.7691345
50
249.9010773
51
254.755261
0
ARC
8
DEFAULT_255_1_234
10
17.3380627
20
150.3666982
40
0.478665
50
243.3097214
51
249.9709442
0
ARC
8
DEFAULT_255_1_234
10
17.2751648
20
150.2412778
40
0.3383568
50
234.4047477
51
243.2862168
0
ARC
8
DEFAULT_255_1_234
10
17.2129172
20
150.1553232
40
0.2322322
50
220.8667099
51
234.5493881
0
ARC
8
DEFAULT_255_1_234
10
17.1787112
20
150.1241817
40
0.1859923
50
214.3062465
51
220.5065136
0
ARC
8
DEFAULT_255_1_234
10
17.1761192
20
150.121088
40
0.1821108
50
186.912965
51
213.9618616
0
ARC
8
DEFAULT_255_1_234
10
17.2293286
20
150.1297009
40
0.2359799
50
179.8808832
51
187.4339886
0
ARC
8
DEFAULT_255_1_234
10
17.213842
20
150.1317088
40
0.2204978
50
132.005434
51
180.3942919
0
ARC
8
DEFAULT_255_1_234
10
17.2795033
20
150.0711083
40
0.3095791
50
129.2319861
51
133.5302299
0
ARC
8
DEFAULT_255_1_234
10
17.2848541
20
150.0616928
40
0.3202615
50
100.4410011
51
128.9081242
0
ARC
8
DEFAULT_255_1_234
10
17.3122425
20
149.9331455
40
0.4516583
50
89.6985377
51
100.9026564
0
ARC
8
DEFAULT_255_1_234
10
17.3179467
20
149.9171166
40
0.4676928
50
77.6965325
51
90.4076836
0
ARC
8
DEFAULT_255_1_234
10
17.3510451
20
150.0598413
40
0.3211988
50
50.7276602
51
78.0399361
0
ARC
8
DEFAULT_255_1_234
10
17.395491
20
150.1116296
40
0.2529778
50
25.7545084
51
51.0957453
0
ARC
8
DEFAULT_255_1_234
10
17.3956134
20
150.1166206
40
0.250738
50
359.2468627
51
24.7394243
0
ARC
8
DEFAULT_255_1_234
10
17.3671586
20
150.1137664
40
0.1297815
50
359.8050318
51
45.1544908
0
ARC
8
DEFAULT_255_1_234
10
17.3264728
20
150.0789794
40
0.1831883
50
43.8047702
51
49.6271585
0
ARC
8
DEFAULT_255_1_234
10
17.327263
20
150.0790678
40
0.18261
50
49.7980766
51
82.1218353
0
ARC
8
DEFAULT_255_1_234
10
17.3153601
20
150.0143998
40
0.2483163
50
81.4465357
51
90.1710293
0
ARC
8
DEFAULT_255_1_234
10
17.3129204
20
149.961788
40
0.300932
50
89.6766211
51
99.1264602
0
ARC
8
DEFAULT_255_1_234
10
17.2957666
20
150.0651537
40
0.1961547
50
98.968313
51
113.4570237
0
ARC
8
DEFAULT_255_1_234
10
17.2761751
20
150.1119965
40
0.1453859
50
113.722589
51
127.4763106
0
ARC
8
DEFAULT_255_1_234
10
17.2593397
20
150.1320124
40
0.1192639
50
126.9083309
51
150.3165862
0
ARC
8
DEFAULT_255_1_234
10
17.254573
20
150.1370981
40
0.112623
50
151.3635175
51
180.0701457
0
ARC
8
DEFAULT_255_1_234
10
17.2854515
20
150.134999
40
0.1435149
50
179.2169974
51
179.9954013
0
ARC
8
DEFAULT_255_1_234
10
17.2493572
20
150.1337056
40
0.1074286
50
179.3040112
51
198.4225446
0
ARC
8
DEFAULT_255_1_234
10
17.2301706
20
150.1287127
40
0.0876573
50
199.2895851
51
238.6034594
0
ARC
8
DEFAULT_255_1_234
10
17.2904552
20
150.223345
40
0.1998512
50
237.9846301
51
246.8744712
0
ARC
8
DEFAULT_255_1_234
10
17.3762497
20
150.4196205
40
0.4140547
50
246.6234531
51
251.8168941
0
ARC
8
DEFAULT_255_1_234
10
17.4793041
20
150.7290905
40
0.7402308
50
251.713434
51
255.0778414
0
ARC
8
DEFAULT_255_1_234
10
17.5992303
20
151.1757563
40
1.2027155
50
255.0367487
51
257.4705983
0
ARC
8
DEFAULT_255_1_234
10
17.0884313
20
148.8743863
40
1.1546601
50
73.6837552
51
77.5016755
0
ARC
8
DEFAULT_255_1_234
10
17.1973088
20
149.2443581
40
0.7690009
50
68.7044154
51
73.7249639
0
ARC
8
DEFAULT_255_1_234
10
17.2876109
20
149.4770654
40
0.5193873
50
63.590599
51
68.6626804
0
ARC
8
DEFAULT_255_1_234
10
17.3647128
20
149.6308123
40
0.3473927
50
54.7106439
51
63.7013633
0
ARC
8
DEFAULT_255_1_234
10
17.4271582
20
149.71804
40
0.2401192
50
41.0622434
51
54.8487496
0
ARC
8
DEFAULT_255_1_234
10
17.4612969
20
149.7493592
40
0.1938094
50
34.4950568
51
40.7105546
0
ARC
8
DEFAULT_255_1_234
10
17.4659776
20
149.7542078
40
0.1872106
50
9.3763373
51
34.0833615
0
ARC
8
DEFAULT_255_1_234
10
17.4006646
20
149.7416728
40
0.2536988
50
359.7694872
51
9.7663171
0
ARC
8
DEFAULT_255_1_234
10
17.4204147
20
149.7373764
40
0.2339696
50
335.8654732
51
0.8022045
0
ARC
8
DEFAULT_255_1_234
10
17.4279192
20
149.7387197
40
0.2277108
50
307.7357725
51
334.7849066
0
ARC
8
DEFAULT_255_1_234
10
17.3878367
20
149.7837645
40
0.2878951
50
307.0241536
51
308.5578354
0
ARC
8
DEFAULT_255_1_234
10
17.3620699
20
149.8223801
40
0.3342515
50
282.9362969
51
306.5646424
0
ARC
8
DEFAULT_255_1_234
10
17.3258996
20
149.9691108
40
0.4853615
50
271.1026298
51
283.2200835
0
ARC
8
DEFAULT_255_1_234
10
17.319524
20
150.0932418
40
0.6096052
50
269.9919117
51
271.4772449
0
ARC
8
DEFAULT_255_1_234
10
17.3168995
20
149.9854436
40
0.5018135
50
259.0723564
51
270.289833
0
ARC
8
DEFAULT_255_1_234
10
17.2956727
20
149.8737271
40
0.388099
50
245.4963068
51
259.0227342
0
ARC
8
DEFAULT_255_1_234
10
17.2678684
20
149.8155615
40
0.3236422
50
228.9684658
51
245.7044727
0
ARC
8
DEFAULT_255_1_234
10
17.2413127
20
149.7828575
40
0.2815426
50
214.4011705
51
228.6759915
0
ARC
8
DEFAULT_255_1_234
10
17.2123868
20
149.767029
40
0.2487548
50
179.9705531
51
215.1572795
0
ARC
8
DEFAULT_255_1_234
10
17.2824468
20
149.7743806
40
0.1703809
50
182.4299387
51
203.0329699
0
ARC
8
DEFAULT_255_1_234
10
17.2640125
20
149.7687396
40
0.1512226
50
203.798802
51
232.548466
0
ARC
8
DEFAULT_255_1_234
10
17.2916647
20
149.8038826
40
0.1959374
50
232.3782728
51
256.3934612
0
ARC
8
DEFAULT_255_1_234
10
17.3147008
20
149.8928842
40
0.2878639
50
256.104506
51
268.4626716
0
ARC
8
DEFAULT_255_1_234
10
17.3193493
20
149.9725487
40
0.3676329
50
268.0715632
51
270.0138206
0
ARC
8
DEFAULT_255_1_234
10
17.3212017
20
149.9453083
40
0.3403971
50
269.7031147
51
278.8341955
0
ARC
8
DEFAULT_255_1_234
10
17.3394111
20
149.8322876
40
0.2259217
50
278.6728789
51
292.8232582
0
ARC
8
DEFAULT_255_1_234
10
17.3594649
20
149.7821449
40
0.171929
50
293.1452328
51
303.6655899
0
ARC
8
DEFAULT_255_1_234
10
17.3859528
20
149.7445204
40
0.1259367
50
303.1248165
51
321.742847
0
ARC
8
DEFAULT_255_1_234
10
17.4045408
20
149.7282156
40
0.1012531
50
322.4748573
51
1.1291126
0
LINE
8
DEFAULT_255_1_234
10
4.9274119
20
147.6366792
11
4.9274119
21
147.5154
0
LINE
8
DEFAULT_255_1_234
10
4.9274119
20
147.5154
11
4.161184
21
147.5154
0
LINE
8
DEFAULT_255_1_234
10
4.161184
20
147.5154
11
4.161184
21
147.6222221
0
LINE
8
DEFAULT_255_1_234
10
4.161184
20
147.6222221
11
4.5659836
21
148.0719995
0
LINE
8
DEFAULT_255_1_234
10
4.2872823
20
148.3402595
11
4.1386952
21
148.3402595
0
LINE
8
DEFAULT_255_1_234
10
4.6535296
20
147.9764218
11
4.3402918
21
147.6366792
0
LINE
8
DEFAULT_255_1_234
10
4.3402918
20
147.6366792
11
4.9274119
21
147.6366792
0
ARC
8
DEFAULT_255_1_234
10
3.216967
20
149.2649527
40
1.8008286
50
318.5132453
51
320.7828378
0
ARC
8
DEFAULT_255_1_234
10
3.7456644
20
148.8346426
40
1.1191493
50
320.7372736
51
323.9737074
0
ARC
8
DEFAULT_255_1_234
10
4.1376501
20
148.5506361
40
0.6350923
50
323.8961724
51
328.6421089
0
ARC
8
DEFAULT_255_1_234
10
4.3423096
20
148.4244031
40
0.3946393
50
328.8299013
51
331.789948
0
ARC
8
DEFAULT_255_1_234
10
4.4420274
20
148.3729509
40
0.2824501
50
331.4255242
51
352.9364833
0
ARC
8
DEFAULT_255_1_234
10
4.4556775
20
148.3698976
40
0.2685315
50
353.2248685
51
0.0169286
0
ARC
8
DEFAULT_255_1_234
10
4.4766652
20
148.372195
40
0.2475536
50
359.4866256
51
15.9339782
0
ARC
8
DEFAULT_255_1_234
10
4.5273637
20
148.3858286
40
0.1950618
50
16.1714718
51
43.5284424
0
ARC
8
DEFAULT_255_1_234
10
4.5350946
20
148.3935573
40
0.184134
50
43.4415429
51
83.1661404
0
ARC
8
DEFAULT_255_1_234
10
4.5216864
20
148.3198771
40
0.258926
50
82.160215
51
90.1505798
0
ARC
8
DEFAULT_255_1_234
10
4.5185291
20
148.2661865
40
0.3126255
50
89.5460705
51
102.5418777
0
ARC
8
DEFAULT_255_1_234
10
4.4942377
20
148.3692665
40
0.2067346
50
102.1739365
51
129.2061916
0
ARC
8
DEFAULT_255_1_234
10
4.4863449
20
148.3817094
40
0.1921118
50
129.7279328
51
135.7542026
0
ARC
8
DEFAULT_255_1_234
10
4.4984977
20
148.3720045
40
0.2075944
50
136.175737
51
166.3674722
0
ARC
8
DEFAULT_255_1_234
10
4.5991896
20
148.3450182
40
0.3118201
50
165.9092917
51
178.8683903
0
ARC
8
DEFAULT_255_1_234
10
4.6856757
20
148.3403179
40
0.3983935
50
178.438168
51
180.0083905
0
ARC
8
DEFAULT_255_1_234
10
4.5455359
20
148.3442231
40
0.4068601
50
163.2878735
51
180.5581814
0
ARC
8
DEFAULT_255_1_234
10
4.4653621
20
148.366284
40
0.3237344
50
133.454115
51
162.9470031
0
ARC
8
DEFAULT_255_1_234
10
4.4832162
20
148.3473
40
0.349795
50
100.7869394
51
133.4384016
0
ARC
8
DEFAULT_255_1_234
10
4.5179934
20
148.1924319
40
0.5084616
50
89.6605301
51
101.3704185
0
ARC
8
DEFAULT_255_1_234
10
4.5246273
20
148.1985496
40
0.502348
50
78.2171172
51
90.4130393
0
ARC
8
DEFAULT_255_1_234
10
4.5601351
20
148.3609637
40
0.3361092
50
55.9268222
51
78.4888551
0
ARC
8
DEFAULT_255_1_234
10
4.5797791
20
148.3948324
40
0.2970617
50
47.9292255
51
55.4054003
0
ARC
8
DEFAULT_255_1_234
10
4.5899352
20
148.4051502
40
0.2825983
50
4.3347696
51
48.0560701
0
ARC
8
DEFAULT_255_1_234
10
4.4803745
20
148.3881601
40
0.393225
50
359.925209
51
5.5967654
0
ARC
8
DEFAULT_255_1_234
10
4.5232637
20
148.3937816
40
0.3503892
50
337.8914096
51
358.9967724
0
ARC
8
DEFAULT_255_1_234
10
4.2519049
20
148.4984706
40
0.6412172
50
326.9135351
51
338.3505194
0
ARC
8
DEFAULT_255_1_234
10
3.8533353
20
148.7539284
40
1.1146189
50
319.6472867
51
327.095818
0
ARC
8
DEFAULT_255_1_234
10
3.4700356
20
149.0701
40
1.6114559
50
317.2586784
51
319.9046139
0
LINE
8
DEFAULT_255_1_234
10
5.7121127
20
148.6848211
11
5.7121127
21
147.908152
0
LINE
8
DEFAULT_255_1_234
10
5.7121127
20
147.908152
11
5.8743538
21
147.908152
0
LINE
8
DEFAULT_255_1_234
10
5.8743538
20
147.908152
11
5.8743538
21
147.7868728
0
LINE
8
DEFAULT_255_1_234
10
5.8743538
20
147.7868728
11
5.7121127
21
147.7868728
0
LINE
8
DEFAULT_255_1_234
10
5.7121127
20
147.7868728
11
5.7121127
21
147.5154
0
LINE
8
DEFAULT_255_1_234
10
5.7121127
20
147.5154
11
5.5627224
21
147.5154
0
LINE
8
DEFAULT_255_1_234
10
5.5627224
20
147.5154
11
5.5627224
21
147.7868728
0
LINE
8
DEFAULT_255_1_234
10
5.5627224
20
147.7868728
11
5.0302181
21
147.7868728
0
LINE
8
DEFAULT_255_1_234
10
5.0302181
20
147.7868728
11
5.0302181
21
147.8744187
0
LINE
8
DEFAULT_255_1_234
10
5.0302181
20
147.8744187
11
5.5538875
21
148.6848211
0
LINE
8
DEFAULT_255_1_234
10
5.5538875
20
148.6848211
11
5.7121127
21
148.6848211
0
LINE
8
DEFAULT_255_1_234
10
5.5450525
20
148.4494912
11
5.1988846
21
147.908152
0
LINE
8
DEFAULT_255_1_234
10
5.1988846
20
147.908152
11
5.5627224
21
147.908152
0
LINE
8
DEFAULT_255_1_234
10
5.5627224
20
147.908152
11
5.5627224
21
148.4816181
0
LINE
8
DEFAULT_255_1_234
10
5.5627224
20
148.4816181
11
5.5450525
21
148.4494912
0
LINE
8
DEFAULT_255_1_234
10
6.101652
20
148.6848211
11
6.434166
21
147.7202093
0
LINE
8
DEFAULT_255_1_234
10
6.434166
20
147.7202093
11
6.7682863
21
148.6848211
0
LINE
8
DEFAULT_255_1_234
10
6.7682863
20
148.6848211
11
6.9369528
21
148.6848211
0
LINE
8
DEFAULT_255_1_234
10
6.9369528
20
148.6848211
11
6.5032389
21
147.5154
0
LINE
8
DEFAULT_255_1_234
10
6.5032389
20
147.5154
11
6.3666994
21
147.5154
0
LINE
8
DEFAULT_255_1_234
10
6.3666994
20
147.5154
11
5.9337887
21
148.6848211
0
LINE
8
DEFAULT_255_1_234
10
5.9337887
20
148.6848211
11
6.101652
21
148.6848211
0
LINE
8
DEFAULT_255_1_234
10
4.3647902
20
5.8098211
11
4.3647902
21
4.6404
0
LINE
8
DEFAULT_255_1_234
10
4.3647902
20
4.6404
11
4.2105808
21
4.6404
0
LINE
8
DEFAULT_255_1_234
10
4.2105808
20
4.6404
11
4.2105808
21
5.8098211
0
LINE
8
DEFAULT_255_1_234
10
4.2105808
20
5.8098211
11
4.3647902
21
5.8098211
0
LINE
8
DEFAULT_255_1_234
10
5.5454557
20
5.8098211
11
5.5454557
21
4.6404
0
LINE
8
DEFAULT_255_1_234
10
5.5454557
20
4.6404
11
5.3904432
21
4.6404
0
LINE
8
DEFAULT_255_1_234
10
5.3904432
20
4.6404
11
4.8017167
21
5.541561
0
LINE
8
DEFAULT_255_1_234
10
4.8017167
20
5.541561
11
4.8017167
21
4.6404
0
LINE
8
DEFAULT_255_1_234
10
4.8017167
20
4.6404
11
4.6467042
21
4.6404
0
LINE
8
DEFAULT_255_1_234
10
4.6467042
20
4.6404
11
4.6467042
21
5.8098211
0
LINE
8
DEFAULT_255_1_234
10
4.6467042
20
5.8098211
11
4.8017167
21
5.8098211
0
LINE
8
DEFAULT_255_1_234
10
4.8017167
20
5.8098211
11
5.3920495
21
4.9046442
0
LINE
8
DEFAULT_255_1_234
10
5.3920495
20
4.9046442
11
5.3920495
21
5.8098211
0
LINE
8
DEFAULT_255_1_234
10
5.3920495
20
5.8098211
11
5.5454557
21
5.8098211
0
LINE
8
DEFAULT_255_1_234
10
6.2691153
20
5.8154433
11
6.2691153
21
4.6404
0
LINE
8
DEFAULT_255_1_234
10
6.2691153
20
4.6404
11
6.119725
21
4.6404
0
LINE
8
DEFAULT_255_1_234
10
6.119725
20
4.6404
11
6.119725
21
5.6307133
0
LINE
8
DEFAULT_255_1_234
10
6.119725
20
5.6307133
11
5.8201412
21
5.5206785
0
LINE
8
DEFAULT_255_1_234
10
5.8201412
20
5.5206785
11
5.8201412
21
5.6556117
0
LINE
8
DEFAULT_255_1_234
10
5.8201412
20
5.6556117
11
6.2458233
21
5.8154433
0
LINE
8
DEFAULT_255_1_234
10
6.2458233
20
5.8154433
11
6.2691153
21
5.8154433
0
LINE
8
DEFAULT_255_1_234
10
6.891575
20
5.1961963
11
6.7727053
21
5.2267169
0
LINE
8
DEFAULT_255_1_234
10
6.7727053
20
5.2267169
11
6.8321402
21
5.8098211
0
LINE
8
DEFAULT_255_1_234
10
6.8321402
20
5.8098211
11
7.4313079
21
5.8098211
0
LINE
8
DEFAULT_255_1_234
10
7.4313079
20
5.8098211
11
7.4313079
21
5.6724784
0
LINE
8
DEFAULT_255_1_234
10
7.4313079
20
5.6724784
11
6.9582385
21
5.6724784
0
LINE
8
DEFAULT_255_1_234
10
6.9582385
20
5.6724784
11
6.9228988
21
5.3536184
0
LINE
8
DEFAULT_255_1_234
10
6.7309403
20
4.9480156
11
6.8714957
21
4.9480156
0
LINE
8
DEFAULT_255_1_234
10
6.9309306
20
5.2283232
11
6.891575
21
5.1961963
0
ARC
8
DEFAULT_255_1_234
10
7.1083772
20
5.035623
40
0.3681349
50
93.7182161
51
120.2538958
0
ARC
8
DEFAULT_255_1_234
10
7.1178035
20
4.9548394
40
0.449379
50
89.9660152
51
94.2496022
0
ARC
8
DEFAULT_255_1_234
10
7.1218769
20
5.0137549
40
0.390482
50
73.8043271
51
90.5585896
0
ARC
8
DEFAULT_255_1_234
10
7.1453666
20
5.0995602
40
0.3015334
50
41.3071453
51
73.5430202
0
ARC
8
DEFAULT_255_1_234
10
7.1037493
20
5.0637324
40
0.3564457
50
13.5075983
51
41.2174222
0
ARC
8
DEFAULT_255_1_234
10
6.9395697
20
5.0207486
40
0.5261351
50
1.1331335
51
13.8829381
0
ARC
8
DEFAULT_255_1_234
10
6.7984066
20
5.0131665
40
0.6674378
50
359.9919444
51
1.544251
0
ARC
8
DEFAULT_255_1_234
10
6.9260892
20
5.009028
40
0.5397702
50
347.8572367
51
0.4293338
0
ARC
8
DEFAULT_255_1_234
10
7.101121
20
4.9693736
40
0.3603188
50
323.673004
51
348.1672506
0
ARC
8
DEFAULT_255_1_234
10
7.1305718
20
4.9514168
40
0.3259678
50
316.8171152
51
323.1492751
0
ARC
8
DEFAULT_255_1_234
10
7.1366907
20
4.947746
40
0.3189975
50
281.8396411
51
316.5457803
0
ARC
8
DEFAULT_255_1_234
10
7.0991171
20
5.1032762
40
0.4789527
50
269.5770101
51
282.4214771
0
ARC
8
DEFAULT_255_1_234
10
7.0919983
20
5.0819125
40
0.45759
50
256.2427136
51
270.4486331
0
ARC
8
DEFAULT_255_1_234
10
7.0620885
20
4.9619229
40
0.3339303
50
228.9023911
51
256.3314342
0
ARC
8
DEFAULT_255_1_234
10
7.0547117
20
4.9502746
40
0.32031
50
193.753695
51
228.5271154
0
ARC
8
DEFAULT_255_1_234
10
7.1785071
20
4.98658
40
0.4492253
50
184.924711
51
194.497588
0
ARC
8
DEFAULT_255_1_234
10
7.1977638
20
4.9901591
40
0.3289787
50
187.3600538
51
198.6732863
0
ARC
8
DEFAULT_255_1_234
10
7.0927932
20
4.9537674
40
0.217884
50
198.4451669
51
217.794479
0
ARC
8
DEFAULT_255_1_234
10
7.0632107
20
4.9328085
40
0.1816698
50
218.2887171
51
228.5612368
0
ARC
8
DEFAULT_255_1_234
10
7.0729894
20
4.9459963
40
0.1980329
50
228.9654866
51
258.1234728
0
ARC
8
DEFAULT_255_1_234
10
7.0935604
20
5.0340833
40
0.2884748
50
257.7258293
51
270.401361
0
ARC
8
DEFAULT_255_1_234
10
7.0980491
20
4.9895821
40
0.2439788
50
269.4204404
51
286.4209037
0
ARC
8
DEFAULT_255_1_234
10
7.1128978
20
4.9356657
40
0.1880666
50
286.7251356
51
320.600362
0
ARC
8
DEFAULT_255_1_234
10
7.0745803
20
4.9667595
40
0.2374121
50
320.6712579
51
344.5441685
0
ARC
8
DEFAULT_255_1_234
10
6.9589129
20
5.0007045
40
0.3579479
50
344.2412205
51
356.7357071
0
ARC
8
DEFAULT_255_1_234
10
6.8340278
20
5.0110444
40
0.4832297
50
356.3548756
51
0.0500261
0
ARC
8
DEFAULT_255_1_234
10
6.9676787
20
5.014165
40
0.3495889
50
359.5576869
51
12.953486
0
ARC
8
DEFAULT_255_1_234
10
7.0731684
20
5.0397434
40
0.2410532
50
12.6490276
51
41.6081334
0
ARC
8
DEFAULT_255_1_234
10
7.0962055
20
5.0593321
40
0.2108218
50
41.7850273
51
85.9892764
0
ARC
8
DEFAULT_255_1_234
10
7.0838792
20
4.9780462
40
0.2928454
50
84.6957577
51
90.0676183
0
ARC
8
DEFAULT_255_1_234
10
7.0815276
20
4.9111716
40
0.3597255
50
89.6804936
51
99.1614436
0
ARC
8
DEFAULT_255_1_234
10
7.0609907
20
5.0339131
40
0.235281
50
98.9830931
51
113.8908934
0
ARC
8
DEFAULT_255_1_234
10
7.0380317
20
5.0880587
40
0.176479
50
114.1950727
51
127.3641004
0
LINE
8
DEFAULT_255_1_234
10
4.5275902
20
13.7473211
11
4.5275902
21
12.5779
0
LINE
8
DEFAULT_255_1_234
10
4.5275902
20
12.5779
11
4.3733808
21
12.5779
0
LINE
8
DEFAULT_255_1_234
10
4.3733808
20
12.5779
11
4.3733808
21
13.7473211
0
LINE
8
DEFAULT_255_1_234
10
4.3733808
20
13.7473211
11
4.5275902
21
13.7473211
0
LINE
8
DEFAULT_255_1_234
10
5.7082557
20
13.7473211
11
5.7082557
21
12.5779
0
LINE
8
DEFAULT_255_1_234
10
5.7082557
20
12.5779
11
5.5532432
21
12.5779
0
LINE
8
DEFAULT_255_1_234
10
5.5532432
20
12.5779
11
4.9645167
21
13.479061
0
LINE
8
DEFAULT_255_1_234
10
4.9645167
20
13.479061
11
4.9645167
21
12.5779
0
LINE
8
DEFAULT_255_1_234
10
4.9645167
20
12.5779
11
4.8095042
21
12.5779
0
LINE
8
DEFAULT_255_1_234
10
4.8095042
20
12.5779
11
4.8095042
21
13.7473211
0
LINE
8
DEFAULT_255_1_234
10
4.8095042
20
13.7473211
11
4.9645167
21
13.7473211
0
LINE
8
DEFAULT_255_1_234
10
4.9645167
20
13.7473211
11
5.5548495
21
12.8421442
0
LINE
8
DEFAULT_255_1_234
10
5.5548495
20
12.8421442
11
5.5548495
21
13.7473211
0
LINE
8
DEFAULT_255_1_234
10
5.5548495
20
13.7473211
11
5.7082557
21
13.7473211
0
LINE
8
DEFAULT_255_1_234
10
6.6768833
20
13.2694327
11
6.6768833
21
13.0766709
0
LINE
8
DEFAULT_255_1_234
10
5.9387666
20
13.0565916
11
5.9387666
21
13.2549755
0
LINE
8
DEFAULT_255_1_234
10
6.5282962
20
13.0365123
11
6.5282962
21
13.2798739
0
LINE
8
DEFAULT_255_1_234
10
6.0873538
20
13.2911184
11
6.0873538
21
13.0533789
0
ARC
8
DEFAULT_255_1_234
10
5.4521723
20
13.0717805
40
1.2247208
50
353.8441951
51
0.2287902
0
ARC
8
DEFAULT_255_1_234
10
5.9161227
20
13.0199806
40
0.7578929
50
344.4934747
51
353.9765454
0
ARC
8
DEFAULT_255_1_234
10
6.2153817
20
12.9348981
40
0.4467846
50
329.2803592
51
344.7472793
0
ARC
8
DEFAULT_255_1_234
10
6.3146642
20
12.8804018
40
0.3336173
50
324.9352394
51
328.6160465
0
ARC
8
DEFAULT_255_1_234
10
6.3523751
20
12.8540427
40
0.2876076
50
280.580143
51
324.9173126
0
ARC
8
DEFAULT_255_1_234
10
6.3122543
20
13.0211099
40
0.4592847
50
269.5977311
51
281.6734359
0
ARC
8
DEFAULT_255_1_234
10
6.3050449
20
13.0091173
40
0.4472986
50
256.6228859
51
270.51044
0
ARC
8
DEFAULT_255_1_234
10
6.2648427
20
12.8542877
40
0.2873874
50
215.8618325
51
257.2788573
0
ARC
8
DEFAULT_255_1_234
10
6.3669458
20
12.9227977
40
0.4102928
50
197.9693508
51
215.2623606
0
ARC
8
DEFAULT_255_1_234
10
6.6154574
20
13.0066709
40
0.6725652
50
187.8816417
51
198.2346507
0
ARC
8
DEFAULT_255_1_234
10
7.0112782
20
13.0638079
40
1.0724845
50
180.8976217
51
188.0055519
0
ARC
8
DEFAULT_255_1_234
10
7.291297
20
13.0741777
40
1.3526448
50
180.7449369
51
181.1510016
0
ARC
8
DEFAULT_255_1_234
10
7.1335699
20
13.2598042
40
1.1948131
50
173.7675579
51
180.231553
0
ARC
8
DEFAULT_255_1_234
10
6.6817846
20
13.3108666
40
0.7401564
50
164.3058563
51
173.9002247
0
ARC
8
DEFAULT_255_1_234
10
6.3905915
20
13.3947656
40
0.4371288
50
148.7922025
51
164.568378
0
ARC
8
DEFAULT_255_1_234
10
6.2954367
20
13.4478929
40
0.3282386
50
144.5883898
51
148.1176286
0
ARC
8
DEFAULT_255_1_234
10
6.2611265
20
13.4718315
40
0.2864044
50
101.6440918
51
144.514236
0
ARC
8
DEFAULT_255_1_234
10
6.3036332
20
13.3029069
40
0.4604934
50
89.5284041
51
102.5819763
0
ARC
8
DEFAULT_255_1_234
10
6.3115419
20
13.2990018
40
0.464401
50
77.0437873
51
90.5081339
0
ARC
8
DEFAULT_255_1_234
10
6.3517421
20
13.4632615
40
0.2953195
50
48.2778575
51
77.4994676
0
ARC
8
DEFAULT_255_1_234
10
6.3590052
20
13.4761746
40
0.2808655
50
36.3142134
51
47.6305865
0
ARC
8
DEFAULT_255_1_234
10
6.2721359
20
13.4176515
40
0.3855453
50
18.2931786
51
35.6769206
0
ARC
8
DEFAULT_255_1_234
10
6.0178118
20
13.3303593
40
0.654423
50
8.024666
51
18.5605216
0
ARC
8
DEFAULT_255_1_234
10
5.6015038
20
13.2688792
40
1.0752407
50
1.1274072
51
8.1718305
0
ARC
8
DEFAULT_255_1_234
10
5.2779229
20
13.2561885
40
1.3990231
50
0.5424119
51
1.3863029
0
ARC
8
DEFAULT_255_1_234
10
5.4600607
20
13.2834342
40
1.0682415
50
359.8090433
51
4.9407866
0
ARC
8
DEFAULT_255_1_234
10
5.8810621
20
13.3210113
40
0.6455691
50
4.8362157
51
12.2904523
0
ARC
8
DEFAULT_255_1_234
10
6.1565735
20
13.3823965
40
0.3633074
50
12.0805627
51
23.8173984
0
ARC
8
DEFAULT_255_1_234
10
6.2739441
20
13.4320919
40
0.2358723
50
24.2871213
51
31.3935614
0
ARC
8
DEFAULT_255_1_234
10
6.3264138
20
13.4664233
40
0.1732111
50
30.7407893
51
82.4657128
0
ARC
8
DEFAULT_255_1_234
10
6.3084272
20
13.3780691
40
0.263235
50
81.1060089
51
90.2184952
0
ARC
8
DEFAULT_255_1_234
10
6.3048571
20
13.4038924
40
0.2374236
50
89.3806855
51
105.6762551
0
ARC
8
DEFAULT_255_1_234
10
6.2865202
20
13.4705567
40
0.1682847
50
105.7981136
51
149.7388061
0
ARC
8
DEFAULT_255_1_234
10
6.392928
20
13.406595
40
0.2924306
50
149.4208916
51
163.6286378
0
ARC
8
DEFAULT_255_1_234
10
6.6020168
20
13.342825
40
0.5110213
50
163.3763315
51
172.1410975
0
ARC
8
DEFAULT_255_1_234
10
6.9320887
20
13.2955518
40
0.8444586
50
172.0259487
51
178.0703232
0
ARC
8
DEFAULT_255_1_234
10
7.2350977
20
13.2811906
40
1.1477868
50
177.8631668
51
179.5044149
0
ARC
8
DEFAULT_255_1_234
10
7.1278381
20
13.0497389
40
1.0404907
50
179.7995573
51
185.2460446
0
ARC
8
DEFAULT_255_1_234
10
6.723542
20
13.0114513
40
0.6343885
50
185.1411642
51
193.0079639
0
ARC
8
DEFAULT_255_1_234
10
6.4591893
20
12.9489641
40
0.3627568
50
192.7897626
51
205.2507664
0
ARC
8
DEFAULT_255_1_234
10
6.354544
20
12.9022415
40
0.2481908
50
205.8005384
51
211.2537509
0
ARC
8
DEFAULT_255_1_234
10
6.302188
20
12.867158
40
0.1852521
50
210.3789793
51
238.4008143
0
ARC
8
DEFAULT_255_1_234
10
6.3002402
20
12.8718376
40
0.1882621
50
239.6520629
51
265.9793761
0
ARC
8
DEFAULT_255_1_234
10
6.3087602
20
12.9390427
40
0.2559272
50
265.1315437
51
270.060332
0
ARC
8
DEFAULT_255_1_234
10
6.3116381
20
12.9066534
40
0.2235528
50
269.3314664
51
287.2178029
0
ARC
8
DEFAULT_255_1_234
10
6.3254233
20
12.8563279
40
0.1714108
50
287.7958004
51
329.080874
0
ARC
8
DEFAULT_255_1_234
10
6.229669
20
12.916093
40
0.2842745
50
328.6634704
51
343.3325132
0
ARC
8
DEFAULT_255_1_234
10
6.012371
20
12.9837863
40
0.5118644
50
343.0499468
51
351.9393422
0
ARC
8
DEFAULT_255_1_234
10
5.665701
20
13.0348949
40
0.8622784
50
351.8069023
51
357.7959224
0
ARC
8
DEFAULT_255_1_234
10
5.3421566
20
13.0516721
40
1.1862365
50
357.5871873
51
359.2677531
0
LINE
8
DEFAULT_255_1_234
10
7.3555652
20
13.7529433
11
7.3555652
21
12.5779
0
LINE
8
DEFAULT_255_1_234
10
7.3555652
20
12.5779
11
7.2061749
21
12.5779
0
LINE
8
DEFAULT_255_1_234
10
7.2061749
20
12.5779
11
7.2061749
21
13.5682133
0
LINE
8
DEFAULT_255_1_234
10
7.2061749
20
13.5682133
11
6.9065911
21
13.4581785
0
LINE
8
DEFAULT_255_1_234
10
6.9065911
20
13.4581785
11
6.9065911
21
13.5931117
0
LINE
8
DEFAULT_255_1_234
10
6.9065911
20
13.5931117
11
7.3322732
21
13.7529433
0
LINE
8
DEFAULT_255_1_234
10
7.3322732
20
13.7529433
11
7.3555652
21
13.7529433
0
LINE
8
DEFAULT_255_1_234
10
8.4181642
20
13.7473211
11
8.4181642
21
12.970652
0
LINE
8
DEFAULT_255_1_234
10
8.4181642
20
12.970652
11
8.5804053
21
12.970652
0
LINE
8
DEFAULT_255_1_234
10
8.5804053
20
12.970652
11
8.5804053
21
12.8493728
0
LINE
8
DEFAULT_255_1_234
10
8.5804053
20
12.8493728
11
8.4181642
21
12.8493728
0
LINE
8
DEFAULT_255_1_234
10
8.4181642
20
12.8493728
11
8.4181642
21
12.5779
0
LINE
8
DEFAULT_255_1_234
10
8.4181642
20
12.5779
11
8.2687739
21
12.5779
0
LINE
8
DEFAULT_255_1_234
10
8.2687739
20
12.5779
11
8.2687739
21
12.8493728
0
LINE
8
DEFAULT_255_1_234
10
8.2687739
20
12.8493728
11
7.7362696
21
12.8493728
0
LINE
8
DEFAULT_255_1_234
10
7.7362696
20
12.8493728
11
7.7362696
21
12.9369187
0
LINE
8
DEFAULT_255_1_234
10
7.7362696
20
12.9369187
11
8.259939
21
13.7473211
0
LINE
8
DEFAULT_255_1_234
10
8.259939
20
13.7473211
11
8.4181642
21
13.7473211
0
LINE
8
DEFAULT_255_1_234
10
8.2511041
20
13.5119912
11
7.9049361
21
12.970652
0
LINE
8
DEFAULT_255_1_234
10
7.9049361
20
12.970652
11
8.2687739
21
12.970652
0
LINE
8
DEFAULT_255_1_234
10
8.2687739
20
12.970652
11
8.2687739
21
13.5441181
0
LINE
8
DEFAULT_255_1_234
10
8.2687739
20
13.5441181
11
8.2511041
21
13.5119912
0
LINE
8
DEFAULT_255_1_234
10
4.3647902
20
21.6848211
11
4.3647902
21
20.5154
0
LINE
8
DEFAULT_255_1_234
10
4.3647902
20
20.5154
11
4.2105808
21
20.5154
0
LINE
8
DEFAULT_255_1_234
10
4.2105808
20
20.5154
11
4.2105808
21
21.6848211
0
LINE
8
DEFAULT_255_1_234
10
4.2105808
20
21.6848211
11
4.3647902
21
21.6848211
0
LINE
8
DEFAULT_255_1_234
10
5.5454557
20
21.6848211
11
5.5454557
21
20.5154
0
LINE
8
DEFAULT_255_1_234
10
5.5454557
20
20.5154
11
5.3904432
21
20.5154
0
LINE
8
DEFAULT_255_1_234
10
5.3904432
20
20.5154
11
4.8017167
21
21.416561
0
LINE
8
DEFAULT_255_1_234
10
4.8017167
20
21.416561
11
4.8017167
21
20.5154
0
LINE
8
DEFAULT_255_1_234
10
4.8017167
20
20.5154
11
4.6467042
21
20.5154
0
LINE
8
DEFAULT_255_1_234
10
4.6467042
20
20.5154
11
4.6467042
21
21.6848211
0
LINE
8
DEFAULT_255_1_234
10
4.6467042
20
21.6848211
11
4.8017167
21
21.6848211
0
LINE
8
DEFAULT_255_1_234
10
4.8017167
20
21.6848211
11
5.3920495
21
20.7796442
0
LINE
8
DEFAULT_255_1_234
10
5.3920495
20
20.7796442
11
5.3920495
21
21.6848211
0
LINE
8
DEFAULT_255_1_234
10
5.3920495
20
21.6848211
11
5.5454557
21
21.6848211
0
LINE
8
DEFAULT_255_1_234
10
6.2691153
20
21.6904433
11
6.2691153
21
20.5154
0
LINE
8
DEFAULT_255_1_234
10
6.2691153
20
20.5154
11
6.119725
21
20.5154
0
LINE
8
DEFAULT_255_1_234
10
6.119725
20
20.5154
11
6.119725
21
21.5057133
0
LINE
8
DEFAULT_255_1_234
10
6.119725
20
21.5057133
11
5.8201412
21
21.3956785
0
LINE
8
DEFAULT_255_1_234
10
5.8201412
20
21.3956785
11
5.8201412
21
21.5306117
0
LINE
8
DEFAULT_255_1_234
10
5.8201412
20
21.5306117
11
6.2458233
21
21.6904433
0
LINE
8
DEFAULT_255_1_234
10
6.2458233
20
21.6904433
11
6.2691153
21
21.6904433
0
LINE
8
DEFAULT_255_1_234
10
6.9204893
20
21.0511169
11
6.9204893
21
21.1723962
0
LINE
8
DEFAULT_255_1_234
10
6.9204893
20
21.1723962
11
7.0321305
21
21.1723962
0
LINE
8
DEFAULT_255_1_234
10
6.8417783
20
21.3780087
11
6.6931911
21
21.3780087
0
LINE
8
DEFAULT_255_1_234
10
6.6827499
20
20.8238188
11
6.8321402
21
20.8238188
0
LINE
8
DEFAULT_255_1_234
10
7.0321305
20
21.0511169
11
6.9204893
21
21.0511169
0
ARC
8
DEFAULT_255_1_234
10
7.0292171
20
21.5116713
40
0.3392876
50
270.4919872
51
281.8951556
0
ARC
8
DEFAULT_255_1_234
10
7.0533433
20
21.4014702
40
0.2264817
50
281.6691735
51
301.2943132
0
ARC
8
DEFAULT_255_1_234
10
7.0703643
20
21.3703304
40
0.1910381
50
301.7833094
51
311.7545298
0
ARC
8
DEFAULT_255_1_234
10
7.0795219
20
21.3601748
40
0.1773635
50
311.7323931
51
354.2802411
0
ARC
8
DEFAULT_255_1_234
10
7.0068844
20
21.3726722
40
0.2509385
50
353.0937916
51
0.1181479
0
ARC
8
DEFAULT_255_1_234
10
6.9607629
20
21.3774386
40
0.2970898
50
359.1805295
51
15.0453146
0
ARC
8
DEFAULT_255_1_234
10
7.0953466
20
21.4166992
40
0.1569564
50
13.9577229
51
77.6713066
0
ARC
8
DEFAULT_255_1_234
10
7.0566995
20
21.2781949
40
0.3006298
50
76.1116566
51
90.7026153
0
ARC
8
DEFAULT_255_1_234
10
7.0507833
20
21.3055545
40
0.2732568
50
89.5324876
51
103.531937
0
ARC
8
DEFAULT_255_1_234
10
7.0307278
20
21.3854884
40
0.1908508
50
103.2931773
51
133.5619022
0
ARC
8
DEFAULT_255_1_234
10
7.0262766
20
21.3914375
40
0.1834746
50
133.8349307
51
173.5344437
0
ARC
8
DEFAULT_255_1_234
10
7.0985809
20
21.3786213
40
0.2568033
50
172.5096846
51
180.1366907
0
ARC
8
DEFAULT_255_1_234
10
7.0034703
20
21.3820622
40
0.3103056
50
155.3484492
51
180.7484736
0
ARC
8
DEFAULT_255_1_234
10
6.9985792
20
21.3791846
40
0.3070957
50
131.5744599
51
154.4798489
0
ARC
8
DEFAULT_255_1_234
10
7.0298939
20
21.347531
40
0.3515643
50
96.9875458
51
131.9690667
0
ARC
8
DEFAULT_255_1_234
10
7.0518419
20
21.2229636
40
0.4779224
50
89.8596053
51
97.7825159
0
ARC
8
DEFAULT_255_1_234
10
7.0566482
20
21.1967616
40
0.5041361
50
78.3655447
51
90.4131539
0
ARC
8
DEFAULT_255_1_234
10
7.09244
20
21.3626887
40
0.3344039
50
56.6229102
51
78.638727
0
ARC
8
DEFAULT_255_1_234
10
7.1139344
20
21.4002805
40
0.2912001
50
47.0253525
51
56.0854072
0
ARC
8
DEFAULT_255_1_234
10
7.1159124
20
21.4042223
40
0.2869704
50
10.9208013
51
46.7778124
0
ARC
8
DEFAULT_255_1_234
10
6.979519
20
21.3726857
40
0.426899
50
359.6364486
51
11.6087304
0
ARC
8
DEFAULT_255_1_234
10
7.1630035
20
21.3711752
40
0.243409
50
332.3549906
51
359.7179418
0
ARC
8
DEFAULT_255_1_234
10
7.0979636
20
21.4020142
40
0.3153459
50
325.2333722
51
332.8745602
0
ARC
8
DEFAULT_255_1_234
10
7.113226
20
21.3913828
40
0.2967456
50
292.9802137
51
325.2392345
0
ARC
8
DEFAULT_255_1_234
10
7.0857634
20
21.4447863
40
0.3566604
50
292.5402179
51
293.6924929
0
ARC
8
DEFAULT_255_1_234
10
7.1250229
20
20.7993091
40
0.3307468
50
57.6435486
51
72.8625112
0
ARC
8
DEFAULT_255_1_234
10
7.1604729
20
20.8567549
40
0.2632492
50
36.7248896
51
57.4697979
0
ARC
8
DEFAULT_255_1_234
10
7.1593362
20
20.858022
40
0.2634081
50
8.0545065
51
36.356114
0
ARC
8
DEFAULT_255_1_234
10
7.0730547
20
20.8425174
40
0.3510261
50
359.8320645
51
8.5869982
0
ARC
8
DEFAULT_255_1_234
10
7.0355323
20
20.8377101
40
0.3885653
50
343.9829931
51
0.5571613
0
ARC
8
DEFAULT_255_1_234
10
7.1241521
20
20.8134438
40
0.2966924
50
311.6359546
51
343.7651759
0
ARC
8
DEFAULT_255_1_234
10
7.086309
20
20.8561102
40
0.3537231
50
279.7829875
51
311.6255694
0
ARC
8
DEFAULT_255_1_234
10
7.0561866
20
20.999828
40
0.5004971
50
269.7286406
51
280.3856417
0
ARC
8
DEFAULT_255_1_234
10
7.0499939
20
20.9956996
40
0.4963778
50
256.6828919
51
270.4412052
0
ARC
8
DEFAULT_255_1_234
10
7.0161234
20
20.8572394
40
0.3538406
50
229.4223008
51
256.8556159
0
ARC
8
DEFAULT_255_1_234
10
6.9746627
20
20.8105736
40
0.2914296
50
181.818294
51
229.6455059
0
ARC
8
DEFAULT_255_1_234
10
7.0786583
20
20.8236496
40
0.3959084
50
179.9755256
51
183.2323064
0
ARC
8
DEFAULT_255_1_234
10
7.0614329
20
20.8216037
40
0.2293034
50
179.4465117
51
196.2869258
0
ARC
8
DEFAULT_255_1_234
10
7.0126737
20
20.8082651
40
0.1787621
50
196.5661473
51
227.705904
0
ARC
8
DEFAULT_255_1_234
10
7.0290832
20
20.8266155
40
0.2033784
50
227.7652068
51
257.8762805
0
ARC
8
DEFAULT_255_1_234
10
7.0515802
20
20.9209156
40
0.3003081
50
257.4584385
51
270.426602
0
ARC
8
DEFAULT_255_1_234
10
7.0561368
20
20.9498996
40
0.329292
50
269.5962073
51
280.8789248
0
ARC
8
DEFAULT_255_1_234
10
7.0790897
20
20.8352685
40
0.2123908
50
280.6346389
51
299.8595945
0
ARC
8
DEFAULT_255_1_234
10
7.0981804
20
20.7990212
40
0.171457
50
300.3576302
51
314.5517981
0
ARC
8
DEFAULT_255_1_234
10
7.0898864
20
20.8050919
40
0.1816095
50
315.0728369
51
345.0431014
0
ARC
8
DEFAULT_255_1_234
10
6.9975678
20
20.8319841
40
0.2777492
50
344.5986631
51
357.9269593
0
ARC
8
DEFAULT_255_1_234
10
6.9080005
20
20.8381276
40
0.3674917
50
357.4748886
51
0.0231117
0
ARC
8
DEFAULT_255_1_234
10
7.0103114
20
20.8405679
40
0.2651907
50
359.5047933
51
13.4239635
0
ARC
8
DEFAULT_255_1_234
10
7.0969758
20
20.8627478
40
0.1757509
50
12.9498199
51
48.7551375
0
ARC
8
DEFAULT_255_1_234
10
7.0787492
20
20.83784
40
0.2065134
50
49.5088623
51
72.1836453
0
ARC
8
DEFAULT_255_1_234
10
7.0429644
20
20.7316291
40
0.3185836
50
71.9010081
51
84.3554254
0
ARC
8
DEFAULT_255_1_234
10
7.0268276
20
20.5955326
40
0.4556151
50
84.0193428
51
89.333121
0
LINE
8
DEFAULT_255_1_234
10
4.3647902
20
29.6223211
11
4.3647902
21
28.4529
0
LINE
8
DEFAULT_255_1_234
10
4.3647902
20
28.4529
11
4.2105808
21
28.4529
0
LINE
8
DEFAULT_255_1_234
10
4.2105808
20
28.4529
11
4.2105808
21
29.6223211
0
LINE
8
DEFAULT_255_1_234
10
4.2105808
20
29.6223211
11
4.3647902
21
29.6223211
0
LINE
8
DEFAULT_255_1_234
10
5.5454557
20
29.6223211
11
5.5454557
21
28.4529
0
LINE
8
DEFAULT_255_1_234
10
5.5454557
20
28.4529
11
5.3904432
21
28.4529
0
LINE
8
DEFAULT_255_1_234
10
5.3904432
20
28.4529
11
4.8017167
21
29.354061
0
LINE
8
DEFAULT_255_1_234
10
4.8017167
20
29.354061
11
4.8017167
21
28.4529
0
LINE
8
DEFAULT_255_1_234
10
4.8017167
20
28.4529
11
4.6467042
21
28.4529
0
LINE
8
DEFAULT_255_1_234
10
4.6467042
20
28.4529
11
4.6467042
21
29.6223211
0
LINE
8
DEFAULT_255_1_234
10
4.6467042
20
29.6223211
11
4.8017167
21
29.6223211
0
LINE
8
DEFAULT_255_1_234
10
4.8017167
20
29.6223211
11
5.3920495
21
28.7171442
0
LINE
8
DEFAULT_255_1_234
10
5.3920495
20
28.7171442
11
5.3920495
21
29.6223211
0
LINE
8
DEFAULT_255_1_234
10
5.3920495
20
29.6223211
11
5.5454557
21
29.6223211
0
LINE
8
DEFAULT_255_1_234
10
6.2691153
20
29.6279433
11
6.2691153
21
28.4529
0
LINE
8
DEFAULT_255_1_234
10
6.2691153
20
28.4529
11
6.119725
21
28.4529
0
LINE
8
DEFAULT_255_1_234
10
6.119725
20
28.4529
11
6.119725
21
29.4432133
0
LINE
8
DEFAULT_255_1_234
10
6.119725
20
29.4432133
11
5.8201412
21
29.3331785
0
LINE
8
DEFAULT_255_1_234
10
5.8201412
20
29.3331785
11
5.8201412
21
29.4681117
0
LINE
8
DEFAULT_255_1_234
10
5.8201412
20
29.4681117
11
6.2458233
21
29.6279433
0
LINE
8
DEFAULT_255_1_234
10
6.2458233
20
29.6279433
11
6.2691153
21
29.6279433
0
LINE
8
DEFAULT_255_1_234
10
7.4706634
20
28.5741792
11
7.4706634
21
28.4529
0
LINE
8
DEFAULT_255_1_234
10
7.4706634
20
28.4529
11
6.7044355
21
28.4529
0
LINE
8
DEFAULT_255_1_234
10
6.7044355
20
28.4529
11
6.7044355
21
28.5597221
0
LINE
8
DEFAULT_255_1_234
10
6.7044355
20
28.5597221
11
7.1092352
21
29.0094995
0
LINE
8
DEFAULT_255_1_234
10
6.8305338
20
29.2777595
11
6.6819467
21
29.2777595
0
LINE
8
DEFAULT_255_1_234
10
7.1967811
20
28.9139218
11
6.8835433
21
28.5741792
0
LINE
8
DEFAULT_255_1_234
10
6.8835433
20
28.5741792
11
7.4706634
21
28.5741792
0
ARC
8
DEFAULT_255_1_234
10
5.7602185
20
30.2024527
40
1.8008286
50
318.5132453
51
320.7828378
0
ARC
8
DEFAULT_255_1_234
10
6.2889159
20
29.7721426
40
1.1191493
50
320.7372736
51
323.9737074
0
ARC
8
DEFAULT_255_1_234
10
6.6809016
20
29.4881361
40
0.6350923
50
323.8961724
51
328.6421089
0
ARC
8
DEFAULT_255_1_234
10
6.8855611
20
29.3619031
40
0.3946393
50
328.8299013
51
331.789948
0
ARC
8
DEFAULT_255_1_234
10
6.985279
20
29.3104509
40
0.2824501
50
331.4255242
51
352.9364833
0
ARC
8
DEFAULT_255_1_234
10
6.998929
20
29.3073976
40
0.2685315
50
353.2248685
51
0.0169286
0
ARC
8
DEFAULT_255_1_234
10
7.0199167
20
29.309695
40
0.2475536
50
359.4866256
51
15.9339782
0
ARC
8
DEFAULT_255_1_234
10
7.0706152
20
29.3233286
40
0.1950618
50
16.1714718
51
43.5284424
0
ARC
8
DEFAULT_255_1_234
10
7.0783461
20
29.3310573
40
0.184134
50
43.4415429
51
83.1661404
0
ARC
8
DEFAULT_255_1_234
10
7.0649379
20
29.2573771
40
0.258926
50
82.160215
51
90.1505798
0
ARC
8
DEFAULT_255_1_234
10
7.0617807
20
29.2036865
40
0.3126255
50
89.5460705
51
102.5418777
0
ARC
8
DEFAULT_255_1_234
10
7.0374893
20
29.3067665
40
0.2067346
50
102.1739365
51
129.2061916
0
ARC
8
DEFAULT_255_1_234
10
7.0295964
20
29.3192094
40
0.1921118
50
129.7279328
51
135.7542026
0
ARC
8
DEFAULT_255_1_234
10
7.0417492
20
29.3095045
40
0.2075944
50
136.175737
51
166.3674722
0
ARC
8
DEFAULT_255_1_234
10
7.1424411
20
29.2825182
40
0.3118201
50
165.9092917
51
178.8683903
0
ARC
8
DEFAULT_255_1_234
10
7.2289273
20
29.2778179
40
0.3983935
50
178.438168
51
180.0083905
0
ARC
8
DEFAULT_255_1_234
10
7.0887875
20
29.2817231
40
0.4068601
50
163.2878735
51
180.5581814
0
ARC
8
DEFAULT_255_1_234
10
7.0086136
20
29.303784
40
0.3237344
50
133.454115
51
162.9470031
0
ARC
8
DEFAULT_255_1_234
10
7.0264677
20
29.2848
40
0.349795
50
100.7869394
51
133.4384016
0
ARC
8
DEFAULT_255_1_234
10
7.0612449
20
29.1299319
40
0.5084616
50
89.6605301
51
101.3704185
0
ARC
8
DEFAULT_255_1_234
10
7.0678788
20
29.1360496
40
0.502348
50
78.2171172
51
90.4130393
0
ARC
8
DEFAULT_255_1_234
10
7.1033866
20
29.2984637
40
0.3361092
50
55.9268222
51
78.4888551
0
ARC
8
DEFAULT_255_1_234
10
7.1230306
20
29.3323324
40
0.2970617
50
47.9292255
51
55.4054003
0
ARC
8
DEFAULT_255_1_234
10
7.1331867
20
29.3426502
40
0.2825983
50
4.3347696
51
48.0560701
0
ARC
8
DEFAULT_255_1_234
10
7.023626
20
29.3256601
40
0.393225
50
359.925209
51
5.5967654
0
ARC
8
DEFAULT_255_1_234
10
7.0665152
20
29.3312816
40
0.3503892
50
337.8914096
51
358.9967724
0
ARC
8
DEFAULT_255_1_234
10
6.7951564
20
29.4359706
40
0.6412172
50
326.9135351
51
338.3505194
0
ARC
8
DEFAULT_255_1_234
10
6.3965868
20
29.6914284
40
1.1146189
50
319.6472867
51
327.095818
0
ARC
8
DEFAULT_255_1_234
10
6.0132871
20
30.0076
40
1.6114559
50
317.2586784
51
319.9046139
0
LINE
8
DEFAULT_255_1_234
10
4.3564902
20
37.5598211
11
4.3564902
21
36.3904
0
LINE
8
DEFAULT_255_1_234
10
4.3564902
20
36.3904
11
4.2022808
21
36.3904
0
LINE
8
DEFAULT_255_1_234
10
4.2022808
20
36.3904
11
4.2022808
21
37.5598211
0
LINE
8
DEFAULT_255_1_234
10
4.2022808
20
37.5598211
11
4.3564902
21
37.5598211
0
LINE
8
DEFAULT_255_1_234
10
5.5371557
20
37.5598211
11
5.5371557
21
36.3904
0
LINE
8
DEFAULT_255_1_234
10
5.5371557
20
36.3904
11
5.3821432
21
36.3904
0
LINE
8
DEFAULT_255_1_234
10
5.3821432
20
36.3904
11
4.7934167
21
37.291561
0
LINE
8
DEFAULT_255_1_234
10
4.7934167
20
37.291561
11
4.7934167
21
36.3904
0
LINE
8
DEFAULT_255_1_234
10
4.7934167
20
36.3904
11
4.6384042
21
36.3904
0
LINE
8
DEFAULT_255_1_234
10
4.6384042
20
36.3904
11
4.6384042
21
37.5598211
0
LINE
8
DEFAULT_255_1_234
10
4.6384042
20
37.5598211
11
4.7934167
21
37.5598211
0
LINE
8
DEFAULT_255_1_234
10
4.7934167
20
37.5598211
11
5.3837495
21
36.6546442
0
LINE
8
DEFAULT_255_1_234
10
5.3837495
20
36.6546442
11
5.3837495
21
37.5598211
0
LINE
8
DEFAULT_255_1_234
10
5.3837495
20
37.5598211
11
5.5371557
21
37.5598211
0
LINE
8
DEFAULT_255_1_234
10
6.2608153
20
37.5654433
11
6.2608153
21
36.3904
0
LINE
8
DEFAULT_255_1_234
10
6.2608153
20
36.3904
11
6.111425
21
36.3904
0
LINE
8
DEFAULT_255_1_234
10
6.111425
20
36.3904
11
6.111425
21
37.3807133
0
LINE
8
DEFAULT_255_1_234
10
6.111425
20
37.3807133
11
5.8118412
21
37.2706785
0
LINE
8
DEFAULT_255_1_234
10
5.8118412
20
37.2706785
11
5.8118412
21
37.4056117
0
LINE
8
DEFAULT_255_1_234
10
5.8118412
20
37.4056117
11
6.2375233
21
37.5654433
0
LINE
8
DEFAULT_255_1_234
10
6.2375233
20
37.5654433
11
6.2608153
21
37.5654433
0
LINE
8
DEFAULT_255_1_234
10
7.1844652
20
37.5654433
11
7.1844652
21
36.3904
0
LINE
8
DEFAULT_255_1_234
10
7.1844652
20
36.3904
11
7.0350749
21
36.3904
0
LINE
8
DEFAULT_255_1_234
10
7.0350749
20
36.3904
11
7.0350749
21
37.3807133
0
LINE
8
DEFAULT_255_1_234
10
7.0350749
20
37.3807133
11
6.7354911
21
37.2706785
0
LINE
8
DEFAULT_255_1_234
10
6.7354911
20
37.2706785
11
6.7354911
21
37.4056117
0
LINE
8
DEFAULT_255_1_234
10
6.7354911
20
37.4056117
11
7.1611732
21
37.5654433
0
LINE
8
DEFAULT_255_1_234
10
7.1611732
20
37.5654433
11
7.1844652
21
37.5654433
0
LINE
8
DEFAULT_255_1_234
10
4.3647902
20
45.4973211
11
4.3647902
21
44.3279
0
LINE
8
DEFAULT_255_1_234
10
4.3647902
20
44.3279
11
4.2105808
21
44.3279
0
LINE
8
DEFAULT_255_1_234
10
4.2105808
20
44.3279
11
4.2105808
21
45.4973211
0
LINE
8
DEFAULT_255_1_234
10
4.2105808
20
45.4973211
11
4.3647902
21
45.4973211
0
LINE
8
DEFAULT_255_1_234
10
5.5454557
20
45.4973211
11
5.5454557
21
44.3279
0
LINE
8
DEFAULT_255_1_234
10
5.5454557
20
44.3279
11
5.3904432
21
44.3279
0
LINE
8
DEFAULT_255_1_234
10
5.3904432
20
44.3279
11
4.8017167
21
45.229061
0
LINE
8
DEFAULT_255_1_234
10
4.8017167
20
45.229061
11
4.8017167
21
44.3279
0
LINE
8
DEFAULT_255_1_234
10
4.8017167
20
44.3279
11
4.6467042
21
44.3279
0
LINE
8
DEFAULT_255_1_234
10
4.6467042
20
44.3279
11
4.6467042
21
45.4973211
0
LINE
8
DEFAULT_255_1_234
10
4.6467042
20
45.4973211
11
4.8017167
21
45.4973211
0
LINE
8
DEFAULT_255_1_234
10
4.8017167
20
45.4973211
11
5.3920495
21
44.5921442
0
LINE
8
DEFAULT_255_1_234
10
5.3920495
20
44.5921442
11
5.3920495
21
45.4973211
0
LINE
8
DEFAULT_255_1_234
10
5.3920495
20
45.4973211
11
5.5454557
21
45.4973211
0
LINE
8
DEFAULT_255_1_234
10
6.2691153
20
45.5029433
11
6.2691153
21
44.3279
0
LINE
8
DEFAULT_255_1_234
10
6.2691153
20
44.3279
11
6.119725
21
44.3279
0
LINE
8
DEFAULT_255_1_234
10
6.119725
20
44.3279
11
6.119725
21
45.3182133
0
LINE
8
DEFAULT_255_1_234
10
6.119725
20
45.3182133
11
5.8201412
21
45.2081785
0
LINE
8
DEFAULT_255_1_234
10
5.8201412
20
45.2081785
11
5.8201412
21
45.3431117
0
LINE
8
DEFAULT_255_1_234
10
5.8201412
20
45.3431117
11
6.2458233
21
45.5029433
0
LINE
8
DEFAULT_255_1_234
10
6.2458233
20
45.5029433
11
6.2691153
21
45.5029433
0
LINE
8
DEFAULT_255_1_234
10
7.4377333
20
45.0194327
11
7.4377333
21
44.8266709
0
LINE
8
DEFAULT_255_1_234
10
6.6996165
20
44.8065916
11
6.6996165
21
45.0049755
0
LINE
8
DEFAULT_255_1_234
10
7.2891461
20
44.7865123
11
7.2891461
21
45.0298739
0
LINE
8
DEFAULT_255_1_234
10
6.8482037
20
45.0411184
11
6.8482037
21
44.8033789
0
ARC
8
DEFAULT_255_1_234
10
6.2130222
20
44.8217805
40
1.2247208
50
353.8441951
51
0.2287902
0
ARC
8
DEFAULT_255_1_234
10
6.6769726
20
44.7699806
40
0.7578929
50
344.4934747
51
353.9765454
0
ARC
8
DEFAULT_255_1_234
10
6.9762316
20
44.6848981
40
0.4467846
50
329.2803592
51
344.7472793
0
ARC
8
DEFAULT_255_1_234
10
7.0755141
20
44.6304018
40
0.3336173
50
324.9352394
51
328.6160465
0
ARC
8
DEFAULT_255_1_234
10
7.113225
20
44.6040427
40
0.2876076
50
280.580143
51
324.9173126
0
ARC
8
DEFAULT_255_1_234
10
7.0731042
20
44.7711099
40
0.4592847
50
269.5977311
51
281.6734359
0
ARC
8
DEFAULT_255_1_234
10
7.0658948
20
44.7591173
40
0.4472986
50
256.6228859
51
270.51044
0
ARC
8
DEFAULT_255_1_234
10
7.0256926
20
44.6042877
40
0.2873874
50
215.8618325
51
257.2788573
0
ARC
8
DEFAULT_255_1_234
10
7.1277957
20
44.6727977
40
0.4102928
50
197.9693508
51
215.2623606
0
ARC
8
DEFAULT_255_1_234
10
7.3763073
20
44.7566709
40
0.6725652
50
187.8816417
51
198.2346507
0
ARC
8
DEFAULT_255_1_234
10
7.7721281
20
44.8138079
40
1.0724845
50
180.8976217
51
188.0055519
0
ARC
8
DEFAULT_255_1_234
10
8.0521469
20
44.8241777
40
1.3526448
50
180.7449369
51
181.1510016
0
ARC
8
DEFAULT_255_1_234
10
7.8944198
20
45.0098042
40
1.1948131
50
173.7675579
51
180.231553
0
ARC
8
DEFAULT_255_1_234
10
7.4426345
20
45.0608666
40
0.7401564
50
164.3058563
51
173.9002247
0
ARC
8
DEFAULT_255_1_234
10
7.1514414
20
45.1447656
40
0.4371288
50
148.7922025
51
164.568378
0
ARC
8
DEFAULT_255_1_234
10
7.0562866
20
45.1978929
40
0.3282386
50
144.5883898
51
148.1176286
0
ARC
8
DEFAULT_255_1_234
10
7.0219764
20
45.2218315
40
0.2864044
50
101.6440918
51
144.514236
0
ARC
8
DEFAULT_255_1_234
10
7.0644831
20
45.0529069
40
0.4604934
50
89.5284041
51
102.5819763
0
ARC
8
DEFAULT_255_1_234
10
7.0723918
20
45.0490018
40
0.464401
50
77.0437873
51
90.5081339
0
ARC
8
DEFAULT_255_1_234
10
7.112592
20
45.2132615
40
0.2953195
50
48.2778575
51
77.4994676
0
ARC
8
DEFAULT_255_1_234
10
7.1198551
20
45.2261746
40
0.2808655
50
36.3142134
51
47.6305865
0
ARC
8
DEFAULT_255_1_234
10
7.0329858
20
45.1676515
40
0.3855453
50
18.2931786
51
35.6769206
0
ARC
8
DEFAULT_255_1_234
10
6.7786617
20
45.0803593
40
0.654423
50
8.024666
51
18.5605216
0
ARC
8
DEFAULT_255_1_234
10
6.3623537
20
45.0188792
40
1.0752407
50
1.1274072
51
8.1718305
0
ARC
8
DEFAULT_255_1_234
10
6.0387728
20
45.0061885
40
1.3990231
50
0.5424119
51
1.3863029
0
ARC
8
DEFAULT_255_1_234
10
6.2209106
20
45.0334342
40
1.0682415
50
359.8090433
51
4.9407866
0
ARC
8
DEFAULT_255_1_234
10
6.641912
20
45.0710113
40
0.6455691
50
4.8362157
51
12.2904523
0
ARC
8
DEFAULT_255_1_234
10
6.9174234
20
45.1323965
40
0.3633074
50
12.0805627
51
23.8173984
0
ARC
8
DEFAULT_255_1_234
10
7.034794
20
45.1820919
40
0.2358723
50
24.2871213
51
31.3935614
0
ARC
8
DEFAULT_255_1_234
10
7.0872637
20
45.2164233
40
0.1732111
50
30.7407893
51
82.4657128
0
ARC
8
DEFAULT_255_1_234
10
7.0692771
20
45.1280691
40
0.263235
50
81.1060089
51
90.2184952
0
ARC
8
DEFAULT_255_1_234
10
7.065707
20
45.1538924
40
0.2374236
50
89.3806855
51
105.6762551
0
ARC
8
DEFAULT_255_1_234
10
7.0473701
20
45.2205567
40
0.1682847
50
105.7981136
51
149.7388061
0
ARC
8
DEFAULT_255_1_234
10
7.1537779
20
45.156595
40
0.2924306
50
149.4208916
51
163.6286378
0
ARC
8
DEFAULT_255_1_234
10
7.3628667
20
45.092825
40
0.5110213
50
163.3763315
51
172.1410975
0
ARC
8
DEFAULT_255_1_234
10
7.6929386
20
45.0455518
40
0.8444586
50
172.0259487
51
178.0703232
0
ARC
8
DEFAULT_255_1_234
10
7.9959476
20
45.0311906
40
1.1477868
50
177.8631668
51
179.5044149
0
ARC
8
DEFAULT_255_1_234
10
7.888688
20
44.7997389
40
1.0404907
50
179.7995573
51
185.2460446
0
ARC
8
DEFAULT_255_1_234
10
7.4843919
20
44.7614513
40
0.6343885
50
185.1411642
51
193.0079639
0
ARC
8
DEFAULT_255_1_234
10
7.2200392
20
44.6989641
40
0.3627568
50
192.7897626
51
205.2507664
0
ARC
8
DEFAULT_255_1_234
10
7.1153939
20
44.6522415
40
0.2481908
50
205.8005384
51
211.2537509
0
ARC
8
DEFAULT_255_1_234
10
7.0630379
20
44.617158
40
0.1852521
50
210.3789793
51
238.4008143
0
ARC
8
DEFAULT_255_1_234
10
7.0610901
20
44.6218376
40
0.1882621
50
239.6520629
51
265.9793761
0
ARC
8
DEFAULT_255_1_234
10
7.0696101
20
44.6890427
40
0.2559272
50
265.1315437
51
270.060332
0
ARC
8
DEFAULT_255_1_234
10
7.072488
20
44.6566534
40
0.2235528
50
269.3314664
51
287.2178029
0
ARC
8
DEFAULT_255_1_234
10
7.0862732
20
44.6063279
40
0.1714108
50
287.7958004
51
329.080874
0
ARC
8
DEFAULT_255_1_234
10
6.9905189
20
44.666093
40
0.2842745
50
328.6634704
51
343.3325132
0
ARC
8
DEFAULT_255_1_234
10
6.7732209
20
44.7337863
40
0.5118644
50
343.0499468
51
351.9393422
0
ARC
8
DEFAULT_255_1_234
10
6.4265509
20
44.7848949
40
0.8622784
50
351.8069023
51
357.7959224
0
ARC
8
DEFAULT_255_1_234
10
6.1030065
20
44.8016721
40
1.1862365
50
357.5871873
51
359.2677531
0
LINE
8
DEFAULT_255_1_234
10
4.3049902
20
53.4348211
11
4.3049902
21
52.2654
0
LINE
8
DEFAULT_255_1_234
10
4.3049902
20
52.2654
11
4.1507808
21
52.2654
0
LINE
8
DEFAULT_255_1_234
10
4.1507808
20
52.2654
11
4.1507808
21
53.4348211
0
LINE
8
DEFAULT_255_1_234
10
4.1507808
20
53.4348211
11
4.3049902
21
53.4348211
0
LINE
8
DEFAULT_255_1_234
10
5.4856557
20
53.4348211
11
5.4856557
21
52.2654
0
LINE
8
DEFAULT_255_1_234
10
5.4856557
20
52.2654
11
5.3306432
21
52.2654
0
LINE
8
DEFAULT_255_1_234
10
5.3306432
20
52.2654
11
4.7419167
21
53.166561
0
LINE
8
DEFAULT_255_1_234
10
4.7419167
20
53.166561
11
4.7419167
21
52.2654
0
LINE
8
DEFAULT_255_1_234
10
4.7419167
20
52.2654
11
4.5869042
21
52.2654
0
LINE
8
DEFAULT_255_1_234
10
4.5869042
20
52.2654
11
4.5869042
21
53.4348211
0
LINE
8
DEFAULT_255_1_234
10
4.5869042
20
53.4348211
11
4.7419167
21
53.4348211
0
LINE
8
DEFAULT_255_1_234
10
4.7419167
20
53.4348211
11
5.3322495
21
52.5296442
0
LINE
8
DEFAULT_255_1_234
10
5.3322495
20
52.5296442
11
5.3322495
21
53.4348211
0
LINE
8
DEFAULT_255_1_234
10
5.3322495
20
53.4348211
11
5.4856557
21
53.4348211
0
LINE
8
DEFAULT_255_1_234
10
6.4398262
20
52.9673739
11
6.4398262
21
52.9240025
0
LINE
8
DEFAULT_255_1_234
10
5.8976839
20
52.2645968
11
5.8687696
21
52.2645968
0
LINE
8
DEFAULT_255_1_234
10
5.8687696
20
52.2645968
11
5.8687696
21
52.3898919
0
LINE
8
DEFAULT_255_1_234
10
5.8687696
20
52.3898919
11
5.9000934
21
52.3898919
0
LINE
8
DEFAULT_255_1_234
10
6.2912391
20
52.9384597
11
6.2912391
21
52.9978945
0
ARC
8
DEFAULT_255_1_234
10
6.011866
20
53.0130403
40
0.3635579
50
297.4037347
51
320.016758
0
ARC
8
DEFAULT_255_1_234
10
6.0408609
20
52.957324
40
0.3007486
50
270.2633101
51
297.3851877
0
ARC
8
DEFAULT_255_1_234
10
6.0374565
20
53.0036904
40
0.3471448
50
269.9966443
51
270.7900392
0
ARC
8
DEFAULT_255_1_234
10
6.0349046
20
53.0035143
40
0.3469779
50
254.5999133
51
270.4180344
0
ARC
8
DEFAULT_255_1_234
10
6.0206406
20
52.9470647
40
0.2887697
50
236.4717942
51
254.3541279
0
ARC
8
DEFAULT_255_1_234
10
6.0362623
20
52.9680711
40
0.3149125
50
208.4727207
51
236.2134933
0
ARC
8
DEFAULT_255_1_234
10
6.1001398
20
53.0071455
40
0.3897115
50
204.3447514
51
209.0453999
0
ARC
8
DEFAULT_255_1_234
10
6.1680974
20
53.0359656
40
0.4635101
50
183.9375985
51
204.1276318
0
ARC
8
DEFAULT_255_1_234
10
6.2589225
20
53.0457482
40
0.5548037
50
179.9652252
51
184.3013875
0
ARC
8
DEFAULT_255_1_234
10
6.2349272
20
53.0490507
40
0.5308164
50
166.7585989
51
180.3201225
0
ARC
8
DEFAULT_255_1_234
10
6.1502885
20
53.0674488
40
0.4442163
50
154.6955053
51
166.5679793
0
ARC
8
DEFAULT_255_1_234
10
6.0649755
20
53.110421
40
0.3487299
50
136.3324195
51
155.0871442
0
ARC
8
DEFAULT_255_1_234
10
6.0368828
20
53.1344954
40
0.3117924
50
121.236733
51
135.9680508
0
ARC
8
DEFAULT_255_1_234
10
6.0509326
20
53.1084743
40
0.3413302
50
96.845628
51
120.9881519
0
ARC
8
DEFAULT_255_1_234
10
6.0654908
20
53.0149515
40
0.4359341
50
89.8870174
51
97.2802754
0
ARC
8
DEFAULT_255_1_234
10
6.0707346
20
53.0787095
40
0.3722009
50
70.6505584
51
90.6749113
0
ARC
8
DEFAULT_255_1_234
10
6.0838625
20
53.1300361
40
0.3194571
50
36.7492984
51
69.8219918
0
ARC
8
DEFAULT_255_1_234
10
5.983979
20
53.0521993
40
0.4460685
50
15.39587
51
37.0840084
0
ARC
8
DEFAULT_255_1_234
10
5.7710223
20
52.9901242
40
0.6678714
50
3.9488873
51
15.6798563
0
ARC
8
DEFAULT_255_1_234
10
5.5308851
20
52.9684964
40
0.9089418
50
359.929245
51
4.2665314
0
ARC
8
DEFAULT_255_1_234
10
5.0703288
20
52.9173513
40
1.3695135
50
352.8366322
51
0.2782669
0
ARC
8
DEFAULT_255_1_234
10
5.5990967
20
52.8486629
40
0.8363105
50
341.8359505
51
352.9884176
0
ARC
8
DEFAULT_255_1_234
10
5.9209686
20
52.74017
40
0.4966642
50
322.8578092
51
342.1527901
0
ARC
8
DEFAULT_255_1_234
10
6.0073642
20
52.6812384
40
0.3922466
50
319.334325
51
322.0998941
0
ARC
8
DEFAULT_255_1_234
10
5.9763979
20
52.7123209
40
0.4360033
50
285.9541367
51
318.8878087
0
ARC
8
DEFAULT_255_1_234
10
5.903724
20
52.94336
40
0.678149
50
272.9281676
51
286.4922826
0
ARC
8
DEFAULT_255_1_234
10
5.8847358
20
53.1684587
40
0.9039547
50
270.8207226
51
273.4012994
0
ARC
8
DEFAULT_255_1_234
10
5.8936209
20
52.9865666
40
0.5967098
50
270.6214993
51
281.4062806
0
ARC
8
DEFAULT_255_1_234
10
5.936619
20
52.7809833
40
0.3866861
50
281.1852553
51
299.0621114
0
ARC
8
DEFAULT_255_1_234
10
5.9739761
20
52.7088798
40
0.3055236
50
299.5067782
51
313.1200873
0
ARC
8
DEFAULT_255_1_234
10
5.9761728
20
52.7009554
40
0.2982623
50
313.8526205
51
338.5989322
0
ARC
8
DEFAULT_255_1_234
10
5.8137802
20
52.7676781
40
0.4738131
50
338.2523585
51
351.2430902
0
ARC
8
DEFAULT_255_1_234
10
5.5727098
20
52.8086447
40
0.7183203
50
350.9409515
51
357.6691871
0
ARC
8
DEFAULT_255_1_234
10
6.0617528
20
53.0088764
40
0.2294452
50
269.9447023
51
306.8248917
0
ARC
8
DEFAULT_255_1_234
10
6.0380443
20
53.0511898
40
0.2775994
50
305.5072438
51
327.0773448
0
ARC
8
DEFAULT_255_1_234
10
6.0498884
20
53.0417025
40
0.2625056
50
327.4104943
51
336.840169
0
ARC
8
DEFAULT_255_1_234
10
5.7404949
20
53.0011302
40
0.5507537
50
359.6633817
51
10.117533
0
ARC
8
DEFAULT_255_1_234
10
5.9158747
20
53.0335777
40
0.372403
50
9.9430141
51
26.7700076
0
ARC
8
DEFAULT_255_1_234
10
5.9755959
20
53.0611187
40
0.3066865
50
27.2015464
51
34.6829435
0
ARC
8
DEFAULT_255_1_234
10
6.024544
20
53.0978977
40
0.245519
50
34.1250343
51
50.3070065
0
ARC
8
DEFAULT_255_1_234
10
6.0692119
20
53.1513385
40
0.1758693
50
50.3851167
51
90.6705993
0
ARC
8
DEFAULT_255_1_234
10
6.0645352
20
53.1208799
40
0.2063326
50
89.272901
51
111.9140407
0
ARC
8
DEFAULT_255_1_234
10
6.062588
20
53.134944
40
0.1925887
50
112.9382311
51
142.5320782
0
ARC
8
DEFAULT_255_1_234
10
6.117206
20
53.0905969
40
0.2629232
50
142.1021256
51
166.3835592
0
ARC
8
DEFAULT_255_1_234
10
6.2353365
20
53.0600915
40
0.3849193
50
166.1100289
51
178.665427
0
ARC
8
DEFAULT_255_1_234
10
6.3400955
20
53.0542117
40
0.4897989
50
178.2632126
51
180.0111093
0
ARC
8
DEFAULT_255_1_234
10
6.2599075
20
53.0513728
40
0.40962
50
179.6161962
51
191.8787166
0
ARC
8
DEFAULT_255_1_234
10
6.1378914
20
53.0243896
40
0.2846655
50
191.6191692
51
215.2972286
0
ARC
8
DEFAULT_255_1_234
10
6.1182105
20
53.0128918
40
0.2619665
50
215.7320102
51
216.5355409
0
ARC
8
DEFAULT_255_1_234
10
6.0643191
20
52.9696647
40
0.1929497
50
215.7486685
51
239.9727502
0
ARC
8
DEFAULT_255_1_234
10
6.0573107
20
52.9645894
40
0.1850822
50
241.0650169
51
269.2810483
0
ARC
8
DEFAULT_255_1_234
10
6.0615022
20
53.0136371
40
0.2342059
50
268.4062526
51
270.0071348
0
LINE
8
DEFAULT_255_1_234
10
4.3049902
20
61.3723211
11
4.3049902
21
60.2029
0
LINE
8
DEFAULT_255_1_234
10
4.3049902
20
60.2029
11
4.1507808
21
60.2029
0
LINE
8
DEFAULT_255_1_234
10
4.1507808
20
60.2029
11
4.1507808
21
61.3723211
0
LINE
8
DEFAULT_255_1_234
10
4.1507808
20
61.3723211
11
4.3049902
21
61.3723211
0
LINE
8
DEFAULT_255_1_234
10
5.4856557
20
61.3723211
11
5.4856557
21
60.2029
0
LINE
8
DEFAULT_255_1_234
10
5.4856557
20
60.2029
11
5.3306432
21
60.2029
0
LINE
8
DEFAULT_255_1_234
10
5.3306432
20
60.2029
11
4.7419167
21
61.104061
0
LINE
8
DEFAULT_255_1_234
10
4.7419167
20
61.104061
11
4.7419167
21
60.2029
0
LINE
8
DEFAULT_255_1_234
10
4.7419167
20
60.2029
11
4.5869042
21
60.2029
0
LINE
8
DEFAULT_255_1_234
10
4.5869042
20
60.2029
11
4.5869042
21
61.3723211
0
LINE
8
DEFAULT_255_1_234
10
4.5869042
20
61.3723211
11
4.7419167
21
61.3723211
0
LINE
8
DEFAULT_255_1_234
10
4.7419167
20
61.3723211
11
5.3322495
21
60.4671442
0
LINE
8
DEFAULT_255_1_234
10
5.3322495
20
60.4671442
11
5.3322495
21
61.3723211
0
LINE
8
DEFAULT_255_1_234
10
5.3322495
20
61.3723211
11
5.4856557
21
61.3723211
0
ARC
8
DEFAULT_255_1_234
10
6.147964
20
61.0645703
40
0.2822356
50
338.8763615
51
0.5166041
0
ARC
8
DEFAULT_255_1_234
10
6.1648294
20
61.0600208
40
0.2648703
50
325.8412414
51
338.4795939
0
ARC
8
DEFAULT_255_1_234
10
6.1257662
20
61.0871042
40
0.3124019
50
296.7586019
51
325.753654
0
ARC
8
DEFAULT_255_1_234
10
6.096977
20
61.1355789
40
0.368668
50
296.0902311
51
297.3618122
0
ARC
8
DEFAULT_255_1_234
10
6.1227228
20
60.4801041
40
0.3518806
50
47.9009248
51
67.1946869
0
ARC
8
DEFAULT_255_1_234
10
6.142347
20
60.5047395
40
0.320451
50
35.236241
51
47.551371
0
ARC
8
DEFAULT_255_1_234
10
6.1685088
20
60.5221993
40
0.2890103
50
359.2759738
51
35.4014081
0
ARC
8
DEFAULT_255_1_234
10
6.0940119
20
60.5148826
40
0.3635026
50
343.1294516
51
0.5776525
0
ARC
8
DEFAULT_255_1_234
10
6.1664664
20
60.494933
40
0.2883832
50
310.8497458
51
342.744803
0
ARC
8
DEFAULT_255_1_234
10
6.1246777
20
60.5426294
40
0.3517954
50
281.5473923
51
310.9169905
0
ARC
8
DEFAULT_255_1_234
10
6.0890227
20
60.6979084
40
0.5110832
50
269.6192722
51
281.9789957
0
ARC
8
DEFAULT_255_1_234
10
6.0818016
20
60.6979828
40
0.5111606
50
257.4584469
51
270.4287458
0
ARC
8
DEFAULT_255_1_234
10
6.0437159
20
60.5376344
40
0.3463762
50
228.7553743
51
257.8484423
0
ARC
8
DEFAULT_255_1_234
10
6.0127357
20
60.5003442
40
0.297916
50
184.0104442
51
228.5071787
0
ARC
8
DEFAULT_255_1_234
10
6.1290301
20
60.5180512
40
0.4152734
50
179.9315461
51
185.3254504
0
ARC
8
DEFAULT_255_1_234
10
6.0113947
20
60.5217992
40
0.2976554
50
145.6795913
51
180.6259649
0
ARC
8
DEFAULT_255_1_234
10
6.0277296
20
60.5103929
40
0.3175776
50
115.5537925
51
145.6416199
0
ARC
8
DEFAULT_255_1_234
10
6.0618227
20
60.4493028
40
0.3874232
50
113.2437915
51
116.2054627
0
ARC
8
DEFAULT_255_1_234
10
6.0465439
20
61.089158
40
0.3154751
50
222.9548379
51
244.1372485
0
ARC
8
DEFAULT_255_1_234
10
6.0343514
20
61.0754834
40
0.2972382
50
213.3439227
51
222.6271327
0
ARC
8
DEFAULT_255_1_234
10
6.0151449
20
61.0624308
40
0.274019
50
180.4316517
51
213.2713999
0
ARC
8
DEFAULT_255_1_234
10
6.072645
20
61.067111
40
0.33158
50
179.9992944
51
181.1655061
0
ARC
8
DEFAULT_255_1_234
10
6.1135867
20
61.0705561
40
0.3725376
50
164.6186108
51
180.5292368
0
ARC
8
DEFAULT_255_1_234
10
6.023773
20
61.0947101
40
0.2795349
50
132.2454369
51
164.5092287
0
ARC
8
DEFAULT_255_1_234
10
6.0524834
20
61.0622028
40
0.3229019
50
100.7052766
51
132.1387266
0
ARC
8
DEFAULT_255_1_234
10
6.0829806
20
60.9244086
40
0.4639835
50
89.6732617
51
101.2449487
0
ARC
8
DEFAULT_255_1_234
10
6.0892004
20
60.941899
40
0.4464999
50
76.2876631
51
90.4586123
0
ARC
8
DEFAULT_255_1_234
10
6.1198236
20
61.064122
40
0.3205023
50
47.8240157
51
76.4266918
0
ARC
8
DEFAULT_255_1_234
10
6.1420786
20
61.090159
40
0.2862661
50
6.9168658
51
47.6261438
0
ARC
8
DEFAULT_255_1_234
10
6.0234189
20
61.068237
40
0.4067708
50
359.8419705
51
7.9694496
0
ARC
8
DEFAULT_255_1_234
10
6.0576086
20
60.5241925
40
0.2513121
50
359.4454068
51
16.9256425
0
ARC
8
DEFAULT_255_1_234
10
6.1044897
20
60.5371033
40
0.2027071
50
17.292259
51
45.462717
0
ARC
8
DEFAULT_255_1_234
10
6.0990833
20
60.5324434
40
0.2098212
50
45.3028762
51
83.1921472
0
ARC
8
DEFAULT_255_1_234
10
6.0847517
20
60.4522895
40
0.2911472
50
82.2614531
51
90.143954
0
ARC
8
DEFAULT_255_1_234
10
6.0816637
20
60.475595
40
0.2678513
50
89.4959189
51
104.8579811
0
ARC
8
DEFAULT_255_1_234
10
6.0639896
20
60.542589
40
0.1985654
50
104.8855873
51
135.2448349
0
ARC
8
DEFAULT_255_1_234
10
6.0689669
20
60.5381336
40
0.2052373
50
135.3398955
51
172.104394
0
ARC
8
DEFAULT_255_1_234
10
6.1496727
20
60.5226925
40
0.2873299
50
171.2651929
51
180.1859362
0
ARC
8
DEFAULT_255_1_234
10
6.1327428
20
60.5194733
40
0.2704083
50
179.515471
51
193.6466734
0
ARC
8
DEFAULT_255_1_234
10
6.0511197
20
60.4986777
40
0.1861855
50
193.3540587
51
225.8256931
0
ARC
8
DEFAULT_255_1_234
10
6.0551955
20
60.5057524
40
0.1941102
50
226.418029
51
255.8553723
0
ARC
8
DEFAULT_255_1_234
10
6.0808387
20
60.5993998
40
0.2911917
50
255.4655572
51
268.7985967
0
ARC
8
DEFAULT_255_1_234
10
6.0855579
20
60.6832491
40
0.3751331
50
268.3464808
51
270.0104874
0
ARC
8
DEFAULT_255_1_234
10
6.0878967
20
60.6148138
40
0.3067064
50
269.575914
51
282.0823146
0
ARC
8
DEFAULT_255_1_234
10
6.1103876
20
60.5153803
40
0.2047712
50
281.7522535
51
306.6056425
0
ARC
8
DEFAULT_255_1_234
10
6.1202302
20
60.4992487
40
0.1859604
50
307.1350025
51
314.0277951
0
ARC
8
DEFAULT_255_1_234
10
6.1166386
20
60.5018766
40
0.1903475
50
314.2553419
51
350.169324
0
ARC
8
DEFAULT_255_1_234
10
6.0314855
20
60.5203409
40
0.2774269
50
349.4145679
51
0.2930737
0
ARC
8
DEFAULT_255_1_234
10
6.0835288
20
61.0362353
40
0.2300764
50
89.477591
51
105.729794
0
ARC
8
DEFAULT_255_1_234
10
6.0699202
20
61.0867637
40
0.1777519
50
105.922966
51
135.1662921
0
ARC
8
DEFAULT_255_1_234
10
6.0719704
20
61.0853419
40
0.1802087
50
135.3053131
51
168.9882338
0
ARC
8
DEFAULT_255_1_234
10
6.1547277
20
61.0663721
40
0.2650806
50
168.3802067
51
180.3602358
0
ARC
8
DEFAULT_255_1_234
10
6.1318856
20
61.0626041
40
0.2422425
50
179.5029707
51
194.9126783
0
ARC
8
DEFAULT_255_1_234
10
6.0733517
20
61.047211
40
0.1817188
50
194.9722181
51
224.1943972
0
ARC
8
DEFAULT_255_1_234
10
6.0705384
20
61.0449169
40
0.1781027
50
224.2961434
51
262.0157375
0
ARC
8
DEFAULT_255_1_234
10
6.0847627
20
61.1180661
40
0.2525492
50
261.1250369
51
270.1959853
0
ARC
8
DEFAULT_255_1_234
10
6.0877382
20
61.0993339
40
0.233825
50
269.4825617
51
285.0988277
0
ARC
8
DEFAULT_255_1_234
10
6.1031541
20
61.041499
40
0.1739712
50
285.1585659
51
315.9484648
0
ARC
8
DEFAULT_255_1_234
10
6.0942553
20
61.0496886
40
0.1860616
50
316.0412958
51
351.9162715
0
ARC
8
DEFAULT_255_1_234
10
6.0209508
20
61.0638245
40
0.2606517
50
351.1056823
51
0.1936567
0
ARC
8
DEFAULT_255_1_234
10
6.0472337
20
61.0668369
40
0.234377
50
359.4789506
51
16.0679113
0
ARC
8
DEFAULT_255_1_234
10
6.0948296
20
61.079681
40
0.1850875
50
16.3251951
51
44.791304
0
ARC
8
DEFAULT_255_1_234
10
6.0930577
20
61.0797339
40
0.186312
50
44.3958661
51
88.2498933
0
ARC
8
DEFAULT_255_1_234
10
6.0857131
20
61.0186154
40
0.2476868
50
86.9833827
51
90.0200148
0
LINE
8
DEFAULT_255_1_234
10
4.3049902
20
69.3098211
11
4.3049902
21
68.1404
0
LINE
8
DEFAULT_255_1_234
10
4.3049902
20
68.1404
11
4.1507808
21
68.1404
0
LINE
8
DEFAULT_255_1_234
10
4.1507808
20
68.1404
11
4.1507808
21
69.3098211
0
LINE
8
DEFAULT_255_1_234
10
4.1507808
20
69.3098211
11
4.3049902
21
69.3098211
0
LINE
8
DEFAULT_255_1_234
10
5.4856557
20
69.3098211
11
5.4856557
21
68.1404
0
LINE
8
DEFAULT_255_1_234
10
5.4856557
20
68.1404
11
5.3306432
21
68.1404
0
LINE
8
DEFAULT_255_1_234
10
5.3306432
20
68.1404
11
4.7419167
21
69.041561
0
LINE
8
DEFAULT_255_1_234
10
4.7419167
20
69.041561
11
4.7419167
21
68.1404
0
LINE
8
DEFAULT_255_1_234
10
4.7419167
20
68.1404
11
4.5869042
21
68.1404
0
LINE
8
DEFAULT_255_1_234
10
4.5869042
20
68.1404
11
4.5869042
21
69.3098211
0
LINE
8
DEFAULT_255_1_234
10
4.5869042
20
69.3098211
11
4.7419167
21
69.3098211
0
LINE
8
DEFAULT_255_1_234
10
4.7419167
20
69.3098211
11
5.3322495
21
68.4046442
0
LINE
8
DEFAULT_255_1_234
10
5.3322495
20
68.4046442
11
5.3322495
21
69.3098211
0
LINE
8
DEFAULT_255_1_234
10
5.3322495
20
69.3098211
11
5.4856557
21
69.3098211
0
LINE
8
DEFAULT_255_1_234
10
6.475969
20
69.3098211
11
6.475969
21
69.226291
0
LINE
8
DEFAULT_255_1_234
10
6.475969
20
69.226291
11
5.9916552
21
68.1404
0
LINE
8
DEFAULT_255_1_234
10
5.9916552
20
68.1404
11
5.8358395
21
68.1404
0
LINE
8
DEFAULT_255_1_234
10
5.8358395
20
68.1404
11
6.318547
21
69.1877387
0
LINE
8
DEFAULT_255_1_234
10
6.318547
20
69.1877387
11
5.685646
21
69.1877387
0
LINE
8
DEFAULT_255_1_234
10
5.685646
20
69.1877387
11
5.685646
21
69.3098211
0
LINE
8
DEFAULT_255_1_234
10
5.685646
20
69.3098211
11
6.475969
21
69.3098211
0
LINE
8
DEFAULT_255_1_234
10
4.3049902
20
77.2473211
11
4.3049902
21
76.0779
0
LINE
8
DEFAULT_255_1_234
10
4.3049902
20
76.0779
11
4.1507808
21
76.0779
0
LINE
8
DEFAULT_255_1_234
10
4.1507808
20
76.0779
11
4.1507808
21
77.2473211
0
LINE
8
DEFAULT_255_1_234
10
4.1507808
20
77.2473211
11
4.3049902
21
77.2473211
0
LINE
8
DEFAULT_255_1_234
10
5.4856557
20
77.2473211
11
5.4856557
21
76.0779
0
LINE
8
DEFAULT_255_1_234
10
5.4856557
20
76.0779
11
5.3306432
21
76.0779
0
LINE
8
DEFAULT_255_1_234
10
5.3306432
20
76.0779
11
4.7419167
21
76.979061
0
LINE
8
DEFAULT_255_1_234
10
4.7419167
20
76.979061
11
4.7419167
21
76.0779
0
LINE
8
DEFAULT_255_1_234
10
4.7419167
20
76.0779
11
4.5869042
21
76.0779
0
LINE
8
DEFAULT_255_1_234
10
4.5869042
20
76.0779
11
4.5869042
21
77.2473211
0
LINE
8
DEFAULT_255_1_234
10
4.5869042
20
77.2473211
11
4.7419167
21
77.2473211
0
LINE
8
DEFAULT_255_1_234
10
4.7419167
20
77.2473211
11
5.3322495
21
76.3421442
0
LINE
8
DEFAULT_255_1_234
10
5.3322495
20
76.3421442
11
5.3322495
21
77.2473211
0
LINE
8
DEFAULT_255_1_234
10
5.3322495
20
77.2473211
11
5.4856557
21
77.2473211
0
LINE
8
DEFAULT_255_1_234
10
6.2775851
20
77.2481243
11
6.3040898
21
77.2481243
0
LINE
8
DEFAULT_255_1_234
10
6.3040898
20
77.2481243
11
6.3040898
21
77.122026
0
LINE
8
DEFAULT_255_1_234
10
6.3040898
20
77.122026
11
6.2767819
21
77.122026
0
LINE
8
DEFAULT_255_1_234
10
5.7298206
20
76.5228583
11
5.7298206
21
76.5798836
0
LINE
8
DEFAULT_255_1_234
10
5.8792109
20
76.5606075
11
5.8792109
21
76.5059917
0
ARC
8
DEFAULT_255_1_234
10
6.2820167
20
76.6222455
40
0.4998079
50
90.6001036
51
104.514704
0
ARC
8
DEFAULT_255_1_234
10
6.2431683
20
76.7667131
40
0.3502176
50
104.2855254
51
133.862935
0
ARC
8
DEFAULT_255_1_234
10
6.259544
20
76.755883
40
0.3693984
50
134.5302688
51
161.6210873
0
ARC
8
DEFAULT_255_1_234
10
6.4248629
20
76.6975895
40
0.5446739
50
161.2849839
51
174.2076652
0
ARC
8
DEFAULT_255_1_234
10
6.5655566
20
76.6781787
40
0.6866274
50
173.7810589
51
174.9254635
0
ARC
8
DEFAULT_255_1_234
10
6.1105398
20
76.5398839
40
0.3033419
50
95.8330959
51
138.9954921
0
ARC
8
DEFAULT_255_1_234
10
6.1328754
20
76.4120375
40
0.4328947
50
89.8753725
51
97.0544009
0
ARC
8
DEFAULT_255_1_234
10
6.137622
20
76.4955748
40
0.3493769
50
71.6407809
51
90.6240094
0
ARC
8
DEFAULT_255_1_234
10
6.1526793
20
76.5510082
40
0.2920396
50
39.6367836
51
71.019018
0
ARC
8
DEFAULT_255_1_234
10
6.0890266
20
76.4959998
40
0.3761538
50
10.658731
51
39.9043955
0
ARC
8
DEFAULT_255_1_234
10
5.9342349
20
76.4623686
40
0.5345136
50
359.682601
51
11.132623
0
ARC
8
DEFAULT_255_1_234
10
5.930248
20
76.455301
40
0.5385081
50
347.2486944
51
0.4369317
0
ARC
8
DEFAULT_255_1_234
10
6.0969957
20
76.4151807
40
0.3670249
50
318.1409698
51
347.6118597
0
ARC
8
DEFAULT_255_1_234
10
6.129495
20
76.3884702
40
0.3250007
50
275.6342139
51
317.8248465
0
ARC
8
DEFAULT_255_1_234
10
6.1074062
20
76.5184219
40
0.4565864
50
269.8874292
51
276.7917694
0
ARC
8
DEFAULT_255_1_234
10
6.1019132
20
76.4158743
40
0.3540676
50
246.9140195
51
270.7437342
0
ARC
8
DEFAULT_255_1_234
10
6.1025522
20
76.4016384
40
0.3412781
50
218.1665114
51
245.878116
0
ARC
8
DEFAULT_255_1_234
10
6.1904983
20
76.4752279
40
0.455911
50
191.4115814
51
218.6077802
0
ARC
8
DEFAULT_255_1_234
10
6.3843072
20
76.5186833
40
0.6545001
50
179.6345085
51
191.7836486
0
ARC
8
DEFAULT_255_1_234
10
6.9425409
20
76.5865697
40
1.2127388
50
171.4525249
51
180.3158839
0
ARC
8
DEFAULT_255_1_234
10
6.5030285
20
76.6549608
40
0.7679464
50
157.9802646
51
171.6246686
0
ARC
8
DEFAULT_255_1_234
10
6.2816306
20
76.7432421
40
0.5296008
50
141.4298019
51
157.854097
0
ARC
8
DEFAULT_255_1_234
10
6.2174627
20
76.7886381
40
0.4511509
50
102.8715806
51
140.8564722
0
ARC
8
DEFAULT_255_1_234
10
6.2822242
20
76.5446552
40
0.7034845
50
90.3778349
51
103.5869322
0
ARC
8
DEFAULT_255_1_234
10
6.1084018
20
76.484173
40
0.2370698
50
89.8751008
51
126.2071704
0
ARC
8
DEFAULT_255_1_234
10
6.1129808
20
76.4687303
40
0.2522934
50
124.9745049
51
144.895901
0
ARC
8
DEFAULT_255_1_234
10
6.0953999
20
76.483056
40
0.2296779
50
145.2974905
51
160.2660252
0
ARC
8
DEFAULT_255_1_234
10
6.4026537
20
76.5028071
40
0.5234525
50
179.6514266
51
190.2855912
0
ARC
8
DEFAULT_255_1_234
10
6.2332675
20
76.4708786
40
0.3510893
50
190.0945431
51
207.5098196
0
ARC
8
DEFAULT_255_1_234
10
6.1766944
20
76.4439623
40
0.288489
50
207.9583163
51
216.3251085
0
ARC
8
DEFAULT_255_1_234
10
6.1427052
20
76.4160105
40
0.2445587
50
215.7661442
51
232.5456785
0
ARC
8
DEFAULT_255_1_234
10
6.1044035
20
76.3673482
40
0.1826382
50
232.8005391
51
270.6605633
0
ARC
8
DEFAULT_255_1_234
10
6.1089736
20
76.4037612
40
0.2190529
50
269.35537
51
288.4744281
0
ARC
8
DEFAULT_255_1_234
10
6.1182633
20
76.3688118
40
0.1829749
50
289.1833337
51
322.9683818
0
ARC
8
DEFAULT_255_1_234
10
6.0571155
20
76.4170391
40
0.2608399
50
322.6007884
51
346.5182367
0
ARC
8
DEFAULT_255_1_234
10
5.9413751
20
76.4465616
40
0.3802777
50
346.2582162
51
358.7741648
0
ARC
8
DEFAULT_255_1_234
10
5.839542
20
76.4520965
40
0.4822176
50
358.3755224
51
0.0098023
0
ARC
8
DEFAULT_255_1_234
10
5.9151607
20
76.4548657
40
0.4066078
50
359.6214041
51
11.2839074
0
ARC
8
DEFAULT_255_1_234
10
6.0428754
20
76.4815066
40
0.2761514
50
11.0482309
51
31.8146458
0
ARC
8
DEFAULT_255_1_234
10
6.0737797
20
76.4982584
40
0.2410679
50
32.3035391
51
38.082671
0
ARC
8
DEFAULT_255_1_234
10
6.1158457
20
76.5363662
40
0.1844966
50
36.825067
51
85.7415724
0
ARC
8
DEFAULT_255_1_234
10
6.109129
20
76.4863301
40
0.2349122
50
85.0140713
51
90.0513278
0
LINE
8
DEFAULT_255_1_234
10
4.3049902
20
85.1848211
11
4.3049902
21
84.0154
0
LINE
8
DEFAULT_255_1_234
10
4.3049902
20
84.0154
11
4.1507808
21
84.0154
0
LINE
8
DEFAULT_255_1_234
10
4.1507808
20
84.0154
11
4.1507808
21
85.1848211
0
LINE
8
DEFAULT_255_1_234
10
4.1507808
20
85.1848211
11
4.3049902
21
85.1848211
0
LINE
8
DEFAULT_255_1_234
10
5.4856557
20
85.1848211
11
5.4856557
21
84.0154
0
LINE
8
DEFAULT_255_1_234
10
5.4856557
20
84.0154
11
5.3306432
21
84.0154
0
LINE
8
DEFAULT_255_1_234
10
5.3306432
20
84.0154
11
4.7419167
21
84.916561
0
LINE
8
DEFAULT_255_1_234
10
4.7419167
20
84.916561
11
4.7419167
21
84.0154
0
LINE
8
DEFAULT_255_1_234
10
4.7419167
20
84.0154
11
4.5869042
21
84.0154
0
LINE
8
DEFAULT_255_1_234
10
4.5869042
20
84.0154
11
4.5869042
21
85.1848211
0
LINE
8
DEFAULT_255_1_234
10
4.5869042
20
85.1848211
11
4.7419167
21
85.1848211
0
LINE
8
DEFAULT_255_1_234
10
4.7419167
20
85.1848211
11
5.3322495
21
84.2796442
0
LINE
8
DEFAULT_255_1_234
10
5.3322495
20
84.2796442
11
5.3322495
21
85.1848211
0
LINE
8
DEFAULT_255_1_234
10
5.3322495
20
85.1848211
11
5.4856557
21
85.1848211
0
LINE
8
DEFAULT_255_1_234
10
5.9081251
20
84.5711963
11
5.7892554
21
84.6017169
0
LINE
8
DEFAULT_255_1_234
10
5.7892554
20
84.6017169
11
5.8486903
21
85.1848211
0
LINE
8
DEFAULT_255_1_234
10
5.8486903
20
85.1848211
11
6.447858
21
85.1848211
0
LINE
8
DEFAULT_255_1_234
10
6.447858
20
85.1848211
11
6.447858
21
85.0474784
0
LINE
8
DEFAULT_255_1_234
10
6.447858
20
85.0474784
11
5.9747886
21
85.0474784
0
LINE
8
DEFAULT_255_1_234
10
5.9747886
20
85.0474784
11
5.9394489
21
84.7286184
0
LINE
8
DEFAULT_255_1_234
10
5.7474904
20
84.3230156
11
5.8880458
21
84.3230156
0
LINE
8
DEFAULT_255_1_234
10
5.9474807
20
84.6033232
11
5.9081251
21
84.5711963
0
ARC
8
DEFAULT_255_1_234
10
6.1249273
20
84.410623
40
0.3681349
50
93.7182161
51
120.2538958
0
ARC
8
DEFAULT_255_1_234
10
6.1343536
20
84.3298394
40
0.449379
50
89.9660152
51
94.2496022
0
ARC
8
DEFAULT_255_1_234
10
6.138427
20
84.3887549
40
0.390482
50
73.8043271
51
90.5585896
0
ARC
8
DEFAULT_255_1_234
10
6.1619167
20
84.4745602
40
0.3015334
50
41.3071453
51
73.5430202
0
ARC
8
DEFAULT_255_1_234
10
6.1202994
20
84.4387324
40
0.3564457
50
13.5075983
51
41.2174222
0
ARC
8
DEFAULT_255_1_234
10
5.9561198
20
84.3957486
40
0.5261351
50
1.1331335
51
13.8829381
0
ARC
8
DEFAULT_255_1_234
10
5.8149567
20
84.3881665
40
0.6674378
50
359.9919444
51
1.544251
0
ARC
8
DEFAULT_255_1_234
10
5.9426393
20
84.384028
40
0.5397702
50
347.8572367
51
0.4293338
0
ARC
8
DEFAULT_255_1_234
10
6.1176711
20
84.3443736
40
0.3603188
50
323.673004
51
348.1672506
0
ARC
8
DEFAULT_255_1_234
10
6.1471219
20
84.3264168
40
0.3259678
50
316.8171152
51
323.1492751
0
ARC
8
DEFAULT_255_1_234
10
6.1532408
20
84.322746
40
0.3189975
50
281.8396411
51
316.5457803
0
ARC
8
DEFAULT_255_1_234
10
6.1156672
20
84.4782762
40
0.4789527
50
269.5770101
51
282.4214771
0
ARC
8
DEFAULT_255_1_234
10
6.1085483
20
84.4569125
40
0.45759
50
256.2427136
51
270.4486331
0
ARC
8
DEFAULT_255_1_234
10
6.0786386
20
84.3369229
40
0.3339303
50
228.9023911
51
256.3314342
0
ARC
8
DEFAULT_255_1_234
10
6.0712618
20
84.3252746
40
0.32031
50
193.753695
51
228.5271154
0
ARC
8
DEFAULT_255_1_234
10
6.1950572
20
84.36158
40
0.4492253
50
184.924711
51
194.497588
0
ARC
8
DEFAULT_255_1_234
10
6.2143139
20
84.3651591
40
0.3289787
50
187.3600538
51
198.6732863
0
ARC
8
DEFAULT_255_1_234
10
6.1093433
20
84.3287674
40
0.217884
50
198.4451669
51
217.794479
0
ARC
8
DEFAULT_255_1_234
10
6.0797608
20
84.3078085
40
0.1816698
50
218.2887171
51
228.5612368
0
ARC
8
DEFAULT_255_1_234
10
6.0895395
20
84.3209963
40
0.1980329
50
228.9654866
51
258.1234728
0
ARC
8
DEFAULT_255_1_234
10
6.1101105
20
84.4090833
40
0.2884748
50
257.7258293
51
270.401361
0
ARC
8
DEFAULT_255_1_234
10
6.1145992
20
84.3645821
40
0.2439788
50
269.4204404
51
286.4209037
0
ARC
8
DEFAULT_255_1_234
10
6.1294479
20
84.3106657
40
0.1880666
50
286.7251356
51
320.600362
0
ARC
8
DEFAULT_255_1_234
10
6.0911304
20
84.3417595
40
0.2374121
50
320.6712579
51
344.5441685
0
ARC
8
DEFAULT_255_1_234
10
5.975463
20
84.3757045
40
0.3579479
50
344.2412205
51
356.7357071
0
ARC
8
DEFAULT_255_1_234
10
5.8505779
20
84.3860444
40
0.4832297
50
356.3548756
51
0.0500261
0
ARC
8
DEFAULT_255_1_234
10
5.9842288
20
84.389165
40
0.3495889
50
359.5576869
51
12.953486
0
ARC
8
DEFAULT_255_1_234
10
6.0897185
20
84.4147434
40
0.2410532
50
12.6490276
51
41.6081334
0
ARC
8
DEFAULT_255_1_234
10
6.1127556
20
84.4343321
40
0.2108218
50
41.7850273
51
85.9892764
0
ARC
8
DEFAULT_255_1_234
10
6.1004293
20
84.3530462
40
0.2928454
50
84.6957577
51
90.0676183
0
ARC
8
DEFAULT_255_1_234
10
6.0980777
20
84.2861716
40
0.3597255
50
89.6804936
51
99.1614436
0
ARC
8
DEFAULT_255_1_234
10
6.0775408
20
84.4089131
40
0.235281
50
98.9830931
51
113.8908934
0
ARC
8
DEFAULT_255_1_234
10
6.0545818
20
84.4630587
40
0.176479
50
114.1950727
51
127.3641004
0
LINE
8
DEFAULT_255_1_234
10
4.4107902
20
93.1223211
11
4.4107902
21
91.9529
0
LINE
8
DEFAULT_255_1_234
10
4.4107902
20
91.9529
11
4.2565808
21
91.9529
0
LINE
8
DEFAULT_255_1_234
10
4.2565808
20
91.9529
11
4.2565808
21
93.1223211
0
LINE
8
DEFAULT_255_1_234
10
4.2565808
20
93.1223211
11
4.4107902
21
93.1223211
0
LINE
8
DEFAULT_255_1_234
10
5.5914557
20
93.1223211
11
5.5914557
21
91.9529
0
LINE
8
DEFAULT_255_1_234
10
5.5914557
20
91.9529
11
5.4364432
21
91.9529
0
LINE
8
DEFAULT_255_1_234
10
5.4364432
20
91.9529
11
4.8477167
21
92.854061
0
LINE
8
DEFAULT_255_1_234
10
4.8477167
20
92.854061
11
4.8477167
21
91.9529
0
LINE
8
DEFAULT_255_1_234
10
4.8477167
20
91.9529
11
4.6927042
21
91.9529
0
LINE
8
DEFAULT_255_1_234
10
4.6927042
20
91.9529
11
4.6927042
21
93.1223211
0
LINE
8
DEFAULT_255_1_234
10
4.6927042
20
93.1223211
11
4.8477167
21
93.1223211
0
LINE
8
DEFAULT_255_1_234
10
4.8477167
20
93.1223211
11
5.4380495
21
92.2171442
0
LINE
8
DEFAULT_255_1_234
10
5.4380495
20
92.2171442
11
5.4380495
21
93.1223211
0
LINE
8
DEFAULT_255_1_234
10
5.4380495
20
93.1223211
11
5.5914557
21
93.1223211
0
LINE
8
DEFAULT_255_1_234
10
6.4540644
20
93.1223211
11
6.4540644
21
92.345652
0
LINE
8
DEFAULT_255_1_234
10
6.4540644
20
92.345652
11
6.6163055
21
92.345652
0
LINE
8
DEFAULT_255_1_234
10
6.6163055
20
92.345652
11
6.6163055
21
92.2243728
0
LINE
8
DEFAULT_255_1_234
10
6.6163055
20
92.2243728
11
6.4540644
21
92.2243728
0
LINE
8
DEFAULT_255_1_234
10
6.4540644
20
92.2243728
11
6.4540644
21
91.9529
0
LINE
8
DEFAULT_255_1_234
10
6.4540644
20
91.9529
11
6.3046741
21
91.9529
0
LINE
8
DEFAULT_255_1_234
10
6.3046741
20
91.9529
11
6.3046741
21
92.2243728
0
LINE
8
DEFAULT_255_1_234
10
6.3046741
20
92.2243728
11
5.7721698
21
92.2243728
0
LINE
8
DEFAULT_255_1_234
10
5.7721698
20
92.2243728
11
5.7721698
21
92.3119187
0
LINE
8
DEFAULT_255_1_234
10
5.7721698
20
92.3119187
11
6.2958392
21
93.1223211
0
LINE
8
DEFAULT_255_1_234
10
6.2958392
20
93.1223211
11
6.4540644
21
93.1223211
0
LINE
8
DEFAULT_255_1_234
10
6.2870042
20
92.8869912
11
5.9408363
21
92.345652
0
LINE
8
DEFAULT_255_1_234
10
5.9408363
20
92.345652
11
6.3046741
21
92.345652
0
LINE
8
DEFAULT_255_1_234
10
6.3046741
20
92.345652
11
6.3046741
21
92.9191181
0
LINE
8
DEFAULT_255_1_234
10
6.3046741
20
92.9191181
11
6.2870042
21
92.8869912
0
LINE
8
DEFAULT_255_1_234
10
4.3049902
20
101.0598211
11
4.3049902
21
99.8904
0
LINE
8
DEFAULT_255_1_234
10
4.3049902
20
99.8904
11
4.1507808
21
99.8904
0
LINE
8
DEFAULT_255_1_234
10
4.1507808
20
99.8904
11
4.1507808
21
101.0598211
0
LINE
8
DEFAULT_255_1_234
10
4.1507808
20
101.0598211
11
4.3049902
21
101.0598211
0
LINE
8
DEFAULT_255_1_234
10
5.4856557
20
101.0598211
11
5.4856557
21
99.8904
0
LINE
8
DEFAULT_255_1_234
10
5.4856557
20
99.8904
11
5.3306432
21
99.8904
0
LINE
8
DEFAULT_255_1_234
10
5.3306432
20
99.8904
11
4.7419167
21
100.791561
0
LINE
8
DEFAULT_255_1_234
10
4.7419167
20
100.791561
11
4.7419167
21
99.8904
0
LINE
8
DEFAULT_255_1_234
10
4.7419167
20
99.8904
11
4.5869042
21
99.8904
0
LINE
8
DEFAULT_255_1_234
10
4.5869042
20
99.8904
11
4.5869042
21
101.0598211
0
LINE
8
DEFAULT_255_1_234
10
4.5869042
20
101.0598211
11
4.7419167
21
101.0598211
0
LINE
8
DEFAULT_255_1_234
10
4.7419167
20
101.0598211
11
5.3322495
21
100.1546442
0
LINE
8
DEFAULT_255_1_234
10
5.3322495
20
100.1546442
11
5.3322495
21
101.0598211
0
LINE
8
DEFAULT_255_1_234
10
5.3322495
20
101.0598211
11
5.4856557
21
101.0598211
0
LINE
8
DEFAULT_255_1_234
10
5.9370394
20
100.4261169
11
5.9370394
21
100.5473962
0
LINE
8
DEFAULT_255_1_234
10
5.9370394
20
100.5473962
11
6.0486806
21
100.5473962
0
LINE
8
DEFAULT_255_1_234
10
5.8583284
20
100.7530087
11
5.7097412
21
100.7530087
0
LINE
8
DEFAULT_255_1_234
10
5.6993
20
100.1988188
11
5.8486903
21
100.1988188
0
LINE
8
DEFAULT_255_1_234
10
6.0486806
20
100.4261169
11
5.9370394
21
100.4261169
0
ARC
8
DEFAULT_255_1_234
10
6.0457672
20
100.8866713
40
0.3392876
50
270.4919872
51
281.8951556
0
ARC
8
DEFAULT_255_1_234
10
6.0698934
20
100.7764702
40
0.2264817
50
281.6691735
51
301.2943132
0
ARC
8
DEFAULT_255_1_234
10
6.0869144
20
100.7453304
40
0.1910381
50
301.7833094
51
311.7545298
0
ARC
8
DEFAULT_255_1_234
10
6.096072
20
100.7351748
40
0.1773635
50
311.7323931
51
354.2802411
0
ARC
8
DEFAULT_255_1_234
10
6.0234345
20
100.7476722
40
0.2509385
50
353.0937916
51
0.1181479
0
ARC
8
DEFAULT_255_1_234
10
5.977313
20
100.7524386
40
0.2970898
50
359.1805295
51
15.0453146
0
ARC
8
DEFAULT_255_1_234
10
6.1118967
20
100.7916992
40
0.1569564
50
13.9577229
51
77.6713066
0
ARC
8
DEFAULT_255_1_234
10
6.0732496
20
100.6531949
40
0.3006298
50
76.1116566
51
90.7026153
0
ARC
8
DEFAULT_255_1_234
10
6.0673334
20
100.6805545
40
0.2732568
50
89.5324876
51
103.531937
0
ARC
8
DEFAULT_255_1_234
10
6.0472779
20
100.7604884
40
0.1908508
50
103.2931773
51
133.5619022
0
ARC
8
DEFAULT_255_1_234
10
6.0428267
20
100.7664375
40
0.1834746
50
133.8349307
51
173.5344437
0
ARC
8
DEFAULT_255_1_234
10
6.115131
20
100.7536213
40
0.2568033
50
172.5096846
51
180.1366907
0
ARC
8
DEFAULT_255_1_234
10
6.0200204
20
100.7570622
40
0.3103056
50
155.3484492
51
180.7484736
0
ARC
8
DEFAULT_255_1_234
10
6.0151293
20
100.7541846
40
0.3070957
50
131.5744599
51
154.4798489
0
ARC
8
DEFAULT_255_1_234
10
6.046444
20
100.722531
40
0.3515643
50
96.9875458
51
131.9690667
0
ARC
8
DEFAULT_255_1_234
10
6.068392
20
100.5979636
40
0.4779224
50
89.8596053
51
97.7825159
0
ARC
8
DEFAULT_255_1_234
10
6.0731983
20
100.5717616
40
0.5041361
50
78.3655447
51
90.4131539
0
ARC
8
DEFAULT_255_1_234
10
6.1089901
20
100.7376887
40
0.3344039
50
56.6229102
51
78.638727
0
ARC
8
DEFAULT_255_1_234
10
6.1304845
20
100.7752805
40
0.2912001
50
47.0253525
51
56.0854072
0
ARC
8
DEFAULT_255_1_234
10
6.1324625
20
100.7792223
40
0.2869704
50
10.9208013
51
46.7778124
0
ARC
8
DEFAULT_255_1_234
10
5.9960691
20
100.7476857
40
0.426899
50
359.6364486
51
11.6087304
0
ARC
8
DEFAULT_255_1_234
10
6.1795536
20
100.7461752
40
0.243409
50
332.3549906
51
359.7179418
0
ARC
8
DEFAULT_255_1_234
10
6.1145137
20
100.7770142
40
0.3153459
50
325.2333722
51
332.8745602
0
ARC
8
DEFAULT_255_1_234
10
6.1297761
20
100.7663828
40
0.2967456
50
292.9802137
51
325.2392345
0
ARC
8
DEFAULT_255_1_234
10
6.1023135
20
100.8197863
40
0.3566604
50
292.5402179
51
293.6924929
0
ARC
8
DEFAULT_255_1_234
10
6.141573
20
100.1743091
40
0.3307468
50
57.6435486
51
72.8625112
0
ARC
8
DEFAULT_255_1_234
10
6.177023
20
100.2317549
40
0.2632492
50
36.7248896
51
57.4697979
0
ARC
8
DEFAULT_255_1_234
10
6.1758863
20
100.233022
40
0.2634081
50
8.0545065
51
36.356114
0
ARC
8
DEFAULT_255_1_234
10
6.0896048
20
100.2175174
40
0.3510261
50
359.8320645
51
8.5869982
0
ARC
8
DEFAULT_255_1_234
10
6.0520824
20
100.2127101
40
0.3885653
50
343.9829931
51
0.5571613
0
ARC
8
DEFAULT_255_1_234
10
6.1407022
20
100.1884438
40
0.2966924
50
311.6359546
51
343.7651759
0
ARC
8
DEFAULT_255_1_234
10
6.1028591
20
100.2311102
40
0.3537231
50
279.7829875
51
311.6255694
0
ARC
8
DEFAULT_255_1_234
10
6.0727367
20
100.374828
40
0.5004971
50
269.7286406
51
280.3856417
0
ARC
8
DEFAULT_255_1_234
10
6.0665439
20
100.3706996
40
0.4963778
50
256.6828919
51
270.4412052
0
ARC
8
DEFAULT_255_1_234
10
6.0326735
20
100.2322394
40
0.3538406
50
229.4223008
51
256.8556159
0
ARC
8
DEFAULT_255_1_234
10
5.9912128
20
100.1855736
40
0.2914296
50
181.818294
51
229.6455059
0
ARC
8
DEFAULT_255_1_234
10
6.0952084
20
100.1986496
40
0.3959084
50
179.9755256
51
183.2323064
0
ARC
8
DEFAULT_255_1_234
10
6.077983
20
100.1966037
40
0.2293034
50
179.4465117
51
196.2869258
0
ARC
8
DEFAULT_255_1_234
10
6.0292238
20
100.1832651
40
0.1787621
50
196.5661473
51
227.705904
0
ARC
8
DEFAULT_255_1_234
10
6.0456333
20
100.2016155
40
0.2033784
50
227.7652068
51
257.8762805
0
ARC
8
DEFAULT_255_1_234
10
6.0681303
20
100.2959156
40
0.3003081
50
257.4584385
51
270.426602
0
ARC
8
DEFAULT_255_1_234
10
6.0726869
20
100.3248996
40
0.329292
50
269.5962073
51
280.8789248
0
ARC
8
DEFAULT_255_1_234
10
6.0956398
20
100.2102685
40
0.2123908
50
280.6346389
51
299.8595945
0
ARC
8
DEFAULT_255_1_234
10
6.1147305
20
100.1740212
40
0.171457
50
300.3576302
51
314.5517981
0
ARC
8
DEFAULT_255_1_234
10
6.1064365
20
100.1800919
40
0.1816095
50
315.0728369
51
345.0431014
0
ARC
8
DEFAULT_255_1_234
10
6.0141179
20
100.2069841
40
0.2777492
50
344.5986631
51
357.9269593
0
ARC
8
DEFAULT_255_1_234
10
5.9245506
20
100.2131276
40
0.3674917
50
357.4748886
51
0.0231117
0
ARC
8
DEFAULT_255_1_234
10
6.0268615
20
100.2155679
40
0.2651907
50
359.5047933
51
13.4239635
0
ARC
8
DEFAULT_255_1_234
10
6.1135259
20
100.2377478
40
0.1757509
50
12.9498199
51
48.7551375
0
ARC
8
DEFAULT_255_1_234
10
6.0952993
20
100.21284
40
0.2065134
50
49.5088623
51
72.1836453
0
ARC
8
DEFAULT_255_1_234
10
6.0595145
20
100.1066291
40
0.3185836
50
71.9010081
51
84.3554254
0
ARC
8
DEFAULT_255_1_234
10
6.0433777
20
99.9705326
40
0.4556151
50
84.0193428
51
89.333121
0
LINE
8
DEFAULT_255_1_234
10
4.3049902
20
108.9973211
11
4.3049902
21
107.8279
0
LINE
8
DEFAULT_255_1_234
10
4.3049902
20
107.8279
11
4.1507808
21
107.8279
0
LINE
8
DEFAULT_255_1_234
10
4.1507808
20
107.8279
11
4.1507808
21
108.9973211
0
LINE
8
DEFAULT_255_1_234
10
4.1507808
20
108.9973211
11
4.3049902
21
108.9973211
0
LINE
8
DEFAULT_255_1_234
10
5.4856557
20
108.9973211
11
5.4856557
21
107.8279
0
LINE
8
DEFAULT_255_1_234
10
5.4856557
20
107.8279
11
5.3306432
21
107.8279
0
LINE
8
DEFAULT_255_1_234
10
5.3306432
20
107.8279
11
4.7419167
21
108.729061
0
LINE
8
DEFAULT_255_1_234
10
4.7419167
20
108.729061
11
4.7419167
21
107.8279
0
LINE
8
DEFAULT_255_1_234
10
4.7419167
20
107.8279
11
4.5869042
21
107.8279
0
LINE
8
DEFAULT_255_1_234
10
4.5869042
20
107.8279
11
4.5869042
21
108.9973211
0
LINE
8
DEFAULT_255_1_234
10
4.5869042
20
108.9973211
11
4.7419167
21
108.9973211
0
LINE
8
DEFAULT_255_1_234
10
4.7419167
20
108.9973211
11
5.3322495
21
108.0921442
0
LINE
8
DEFAULT_255_1_234
10
5.3322495
20
108.0921442
11
5.3322495
21
108.9973211
0
LINE
8
DEFAULT_255_1_234
10
5.3322495
20
108.9973211
11
5.4856557
21
108.9973211
0
LINE
8
DEFAULT_255_1_234
10
6.4872135
20
107.9491792
11
6.4872135
21
107.8279
0
LINE
8
DEFAULT_255_1_234
10
6.4872135
20
107.8279
11
5.7209856
21
107.8279
0
LINE
8
DEFAULT_255_1_234
10
5.7209856
20
107.8279
11
5.7209856
21
107.9347221
0
LINE
8
DEFAULT_255_1_234
10
5.7209856
20
107.9347221
11
6.1257853
21
108.3844995
0
LINE
8
DEFAULT_255_1_234
10
5.8470839
20
108.6527595
11
5.6984968
21
108.6527595
0
LINE
8
DEFAULT_255_1_234
10
6.2133312
20
108.2889218
11
5.9000934
21
107.9491792
0
LINE
8
DEFAULT_255_1_234
10
5.9000934
20
107.9491792
11
6.4872135
21
107.9491792
0
ARC
8
DEFAULT_255_1_234
10
4.7767686
20
109.5774527
40
1.8008286
50
318.5132453
51
320.7828378
0
ARC
8
DEFAULT_255_1_234
10
5.305466
20
109.1471426
40
1.1191493
50
320.7372736
51
323.9737074
0
ARC
8
DEFAULT_255_1_234
10
5.6974517
20
108.8631361
40
0.6350923
50
323.8961724
51
328.6421089
0
ARC
8
DEFAULT_255_1_234
10
5.9021112
20
108.7369031
40
0.3946393
50
328.8299013
51
331.789948
0
ARC
8
DEFAULT_255_1_234
10
6.0018291
20
108.6854509
40
0.2824501
50
331.4255242
51
352.9364833
0
ARC
8
DEFAULT_255_1_234
10
6.0154791
20
108.6823976
40
0.2685315
50
353.2248685
51
0.0169286
0
ARC
8
DEFAULT_255_1_234
10
6.0364668
20
108.684695
40
0.2475536
50
359.4866256
51
15.9339782
0
ARC
8
DEFAULT_255_1_234
10
6.0871653
20
108.6983286
40
0.1950618
50
16.1714718
51
43.5284424
0
ARC
8
DEFAULT_255_1_234
10
6.0948962
20
108.7060573
40
0.184134
50
43.4415429
51
83.1661404
0
ARC
8
DEFAULT_255_1_234
10
6.081488
20
108.6323771
40
0.258926
50
82.160215
51
90.1505798
0
ARC
8
DEFAULT_255_1_234
10
6.0783308
20
108.5786865
40
0.3126255
50
89.5460705
51
102.5418777
0
ARC
8
DEFAULT_255_1_234
10
6.0540394
20
108.6817665
40
0.2067346
50
102.1739365
51
129.2061916
0
ARC
8
DEFAULT_255_1_234
10
6.0461465
20
108.6942094
40
0.1921118
50
129.7279328
51
135.7542026
0
ARC
8
DEFAULT_255_1_234
10
6.0582993
20
108.6845045
40
0.2075944
50
136.175737
51
166.3674722
0
ARC
8
DEFAULT_255_1_234
10
6.1589912
20
108.6575182
40
0.3118201
50
165.9092917
51
178.8683903
0
ARC
8
DEFAULT_255_1_234
10
6.2454774
20
108.6528179
40
0.3983935
50
178.438168
51
180.0083905
0
ARC
8
DEFAULT_255_1_234
10
6.1053376
20
108.6567231
40
0.4068601
50
163.2878735
51
180.5581814
0
ARC
8
DEFAULT_255_1_234
10
6.0251637
20
108.678784
40
0.3237344
50
133.454115
51
162.9470031
0
ARC
8
DEFAULT_255_1_234
10
6.0430178
20
108.6598
40
0.349795
50
100.7869394
51
133.4384016
0
ARC
8
DEFAULT_255_1_234
10
6.077795
20
108.5049319
40
0.5084616
50
89.6605301
51
101.3704185
0
ARC
8
DEFAULT_255_1_234
10
6.0844289
20
108.5110496
40
0.502348
50
78.2171172
51
90.4130393
0
ARC
8
DEFAULT_255_1_234
10
6.1199367
20
108.6734637
40
0.3361092
50
55.9268222
51
78.4888551
0
ARC
8
DEFAULT_255_1_234
10
6.1395807
20
108.7073324
40
0.2970617
50
47.9292255
51
55.4054003
0
ARC
8
DEFAULT_255_1_234
10
6.1497368
20
108.7176502
40
0.2825983
50
4.3347696
51
48.0560701
0
ARC
8
DEFAULT_255_1_234
10
6.0401761
20
108.7006601
40
0.393225
50
359.925209
51
5.5967654
0
ARC
8
DEFAULT_255_1_234
10
6.0830653
20
108.7062816
40
0.3503892
50
337.8914096
51
358.9967724
0
ARC
8
DEFAULT_255_1_234
10
5.8117065
20
108.8109706
40
0.6412172
50
326.9135351
51
338.3505194
0
ARC
8
DEFAULT_255_1_234
10
5.4131369
20
109.0664284
40
1.1146189
50
319.6472867
51
327.095818
0
ARC
8
DEFAULT_255_1_234
10
5.0298372
20
109.3826
40
1.6114559
50
317.2586784
51
319.9046139
0
LINE
8
DEFAULT_255_1_234
10
4.2958902
20
116.9348211
11
4.2958902
21
115.7654
0
LINE
8
DEFAULT_255_1_234
10
4.2958902
20
115.7654
11
4.1416808
21
115.7654
0
LINE
8
DEFAULT_255_1_234
10
4.1416808
20
115.7654
11
4.1416808
21
116.9348211
0
LINE
8
DEFAULT_255_1_234
10
4.1416808
20
116.9348211
11
4.2958902
21
116.9348211
0
LINE
8
DEFAULT_255_1_234
10
5.4765557
20
116.9348211
11
5.4765557
21
115.7654
0
LINE
8
DEFAULT_255_1_234
10
5.4765557
20
115.7654
11
5.3215432
21
115.7654
0
LINE
8
DEFAULT_255_1_234
10
5.3215432
20
115.7654
11
4.7328167
21
116.666561
0
LINE
8
DEFAULT_255_1_234
10
4.7328167
20
116.666561
11
4.7328167
21
115.7654
0
LINE
8
DEFAULT_255_1_234
10
4.7328167
20
115.7654
11
4.5778042
21
115.7654
0
LINE
8
DEFAULT_255_1_234
10
4.5778042
20
115.7654
11
4.5778042
21
116.9348211
0
LINE
8
DEFAULT_255_1_234
10
4.5778042
20
116.9348211
11
4.7328167
21
116.9348211
0
LINE
8
DEFAULT_255_1_234
10
4.7328167
20
116.9348211
11
5.3231495
21
116.0296442
0
LINE
8
DEFAULT_255_1_234
10
5.3231495
20
116.0296442
11
5.3231495
21
116.9348211
0
LINE
8
DEFAULT_255_1_234
10
5.3231495
20
116.9348211
11
5.4765557
21
116.9348211
0
LINE
8
DEFAULT_255_1_234
10
6.2002153
20
116.9404433
11
6.2002153
21
115.7654
0
LINE
8
DEFAULT_255_1_234
10
6.2002153
20
115.7654
11
6.050825
21
115.7654
0
LINE
8
DEFAULT_255_1_234
10
6.050825
20
115.7654
11
6.050825
21
116.7557133
0
LINE
8
DEFAULT_255_1_234
10
6.050825
20
116.7557133
11
5.7512412
21
116.6456785
0
LINE
8
DEFAULT_255_1_234
10
5.7512412
20
116.6456785
11
5.7512412
21
116.7806117
0
LINE
8
DEFAULT_255_1_234
10
5.7512412
20
116.7806117
11
6.1769233
21
116.9404433
0
LINE
8
DEFAULT_255_1_234
10
6.1769233
20
116.9404433
11
6.2002153
21
116.9404433
0
LINE
8
DEFAULT_255_1_234
10
4.3049902
20
124.8723211
11
4.3049902
21
123.7029
0
LINE
8
DEFAULT_255_1_234
10
4.3049902
20
123.7029
11
4.1507808
21
123.7029
0
LINE
8
DEFAULT_255_1_234
10
4.1507808
20
123.7029
11
4.1507808
21
124.8723211
0
LINE
8
DEFAULT_255_1_234
10
4.1507808
20
124.8723211
11
4.3049902
21
124.8723211
0
LINE
8
DEFAULT_255_1_234
10
5.4856557
20
124.8723211
11
5.4856557
21
123.7029
0
LINE
8
DEFAULT_255_1_234
10
5.4856557
20
123.7029
11
5.3306432
21
123.7029
0
LINE
8
DEFAULT_255_1_234
10
5.3306432
20
123.7029
11
4.7419167
21
124.604061
0
LINE
8
DEFAULT_255_1_234
10
4.7419167
20
124.604061
11
4.7419167
21
123.7029
0
LINE
8
DEFAULT_255_1_234
10
4.7419167
20
123.7029
11
4.5869042
21
123.7029
0
LINE
8
DEFAULT_255_1_234
10
4.5869042
20
123.7029
11
4.5869042
21
124.8723211
0
LINE
8
DEFAULT_255_1_234
10
4.5869042
20
124.8723211
11
4.7419167
21
124.8723211
0
LINE
8
DEFAULT_255_1_234
10
4.7419167
20
124.8723211
11
5.3322495
21
123.9671442
0
LINE
8
DEFAULT_255_1_234
10
5.3322495
20
123.9671442
11
5.3322495
21
124.8723211
0
LINE
8
DEFAULT_255_1_234
10
5.3322495
20
124.8723211
11
5.4856557
21
124.8723211
0
LINE
8
DEFAULT_255_1_234
10
6.4542833
20
124.3944327
11
6.4542833
21
124.2016709
0
LINE
8
DEFAULT_255_1_234
10
5.7161666
20
124.1815916
11
5.7161666
21
124.3799755
0
LINE
8
DEFAULT_255_1_234
10
6.3056962
20
124.1615123
11
6.3056962
21
124.4048739
0
LINE
8
DEFAULT_255_1_234
10
5.8647538
20
124.4161184
11
5.8647538
21
124.1783789
0
ARC
8
DEFAULT_255_1_234
10
5.2295723
20
124.1967805
40
1.2247208
50
353.8441951
51
0.2287902
0
ARC
8
DEFAULT_255_1_234
10
5.6935227
20
124.1449806
40
0.7578929
50
344.4934747
51
353.9765454
0
ARC
8
DEFAULT_255_1_234
10
5.9927817
20
124.0598981
40
0.4467846
50
329.2803592
51
344.7472793
0
ARC
8
DEFAULT_255_1_234
10
6.0920642
20
124.0054018
40
0.3336173
50
324.9352394
51
328.6160465
0
ARC
8
DEFAULT_255_1_234
10
6.1297751
20
123.9790427
40
0.2876076
50
280.580143
51
324.9173126
0
ARC
8
DEFAULT_255_1_234
10
6.0896543
20
124.1461099
40
0.4592847
50
269.5977311
51
281.6734359
0
ARC
8
DEFAULT_255_1_234
10
6.0824449
20
124.1341173
40
0.4472986
50
256.6228859
51
270.51044
0
ARC
8
DEFAULT_255_1_234
10
6.0422427
20
123.9792877
40
0.2873874
50
215.8618325
51
257.2788573
0
ARC
8
DEFAULT_255_1_234
10
6.1443458
20
124.0477977
40
0.4102928
50
197.9693508
51
215.2623606
0
ARC
8
DEFAULT_255_1_234
10
6.3928574
20
124.1316709
40
0.6725652
50
187.8816417
51
198.2346507
0
ARC
8
DEFAULT_255_1_234
10
6.7886782
20
124.1888079
40
1.0724845
50
180.8976217
51
188.0055519
0
ARC
8
DEFAULT_255_1_234
10
7.068697
20
124.1991777
40
1.3526448
50
180.7449369
51
181.1510016
0
ARC
8
DEFAULT_255_1_234
10
6.9109699
20
124.3848042
40
1.1948131
50
173.7675579
51
180.231553
0
ARC
8
DEFAULT_255_1_234
10
6.4591846
20
124.4358666
40
0.7401564
50
164.3058563
51
173.9002247
0
ARC
8
DEFAULT_255_1_234
10
6.1679915
20
124.5197656
40
0.4371288
50
148.7922025
51
164.568378
0
ARC
8
DEFAULT_255_1_234
10
6.0728367
20
124.5728929
40
0.3282386
50
144.5883898
51
148.1176286
0
ARC
8
DEFAULT_255_1_234
10
6.0385265
20
124.5968315
40
0.2864044
50
101.6440918
51
144.514236
0
ARC
8
DEFAULT_255_1_234
10
6.0810332
20
124.4279069
40
0.4604934
50
89.5284041
51
102.5819763
0
ARC
8
DEFAULT_255_1_234
10
6.0889419
20
124.4240018
40
0.464401
50
77.0437873
51
90.5081339
0
ARC
8
DEFAULT_255_1_234
10
6.1291421
20
124.5882615
40
0.2953195
50
48.2778575
51
77.4994676
0
ARC
8
DEFAULT_255_1_234
10
6.1364052
20
124.6011746
40
0.2808655
50
36.3142134
51
47.6305865
0
ARC
8
DEFAULT_255_1_234
10
6.0495359
20
124.5426515
40
0.3855453
50
18.2931786
51
35.6769206
0
ARC
8
DEFAULT_255_1_234
10
5.7952118
20
124.4553593
40
0.654423
50
8.024666
51
18.5605216
0
ARC
8
DEFAULT_255_1_234
10
5.3789038
20
124.3938792
40
1.0752407
50
1.1274072
51
8.1718305
0
ARC
8
DEFAULT_255_1_234
10
5.0553229
20
124.3811885
40
1.3990231
50
0.5424119
51
1.3863029
0
ARC
8
DEFAULT_255_1_234
10
5.2374607
20
124.4084342
40
1.0682415
50
359.8090433
51
4.9407866
0
ARC
8
DEFAULT_255_1_234
10
5.6584621
20
124.4460113
40
0.6455691
50
4.8362157
51
12.2904523
0
ARC
8
DEFAULT_255_1_234
10
5.9339735
20
124.5073965
40
0.3633074
50
12.0805627
51
23.8173984
0
ARC
8
DEFAULT_255_1_234
10
6.0513441
20
124.5570919
40
0.2358723
50
24.2871213
51
31.3935614
0
ARC
8
DEFAULT_255_1_234
10
6.1038138
20
124.5914233
40
0.1732111
50
30.7407893
51
82.4657128
0
ARC
8
DEFAULT_255_1_234
10
6.0858272
20
124.5030691
40
0.263235
50
81.1060089
51
90.2184952
0
ARC
8
DEFAULT_255_1_234
10
6.0822571
20
124.5288924
40
0.2374236
50
89.3806855
51
105.6762551
0
ARC
8
DEFAULT_255_1_234
10
6.0639202
20
124.5955567
40
0.1682847
50
105.7981136
51
149.7388061
0
ARC
8
DEFAULT_255_1_234
10
6.170328
20
124.531595
40
0.2924306
50
149.4208916
51
163.6286378
0
ARC
8
DEFAULT_255_1_234
10
6.3794168
20
124.467825
40
0.5110213
50
163.3763315
51
172.1410975
0
ARC
8
DEFAULT_255_1_234
10
6.7094887
20
124.4205518
40
0.8444586
50
172.0259487
51
178.0703232
0
ARC
8
DEFAULT_255_1_234
10
7.0124977
20
124.4061906
40
1.1477868
50
177.8631668
51
179.5044149
0
ARC
8
DEFAULT_255_1_234
10
6.9052381
20
124.1747389
40
1.0404907
50
179.7995573
51
185.2460446
0
ARC
8
DEFAULT_255_1_234
10
6.500942
20
124.1364513
40
0.6343885
50
185.1411642
51
193.0079639
0
ARC
8
DEFAULT_255_1_234
10
6.2365893
20
124.0739641
40
0.3627568
50
192.7897626
51
205.2507664
0
ARC
8
DEFAULT_255_1_234
10
6.131944
20
124.0272415
40
0.2481908
50
205.8005384
51
211.2537509
0
ARC
8
DEFAULT_255_1_234
10
6.079588
20
123.992158
40
0.1852521
50
210.3789793
51
238.4008143
0
ARC
8
DEFAULT_255_1_234
10
6.0776402
20
123.9968376
40
0.1882621
50
239.6520629
51
265.9793761
0
ARC
8
DEFAULT_255_1_234
10
6.0861602
20
124.0640427
40
0.2559272
50
265.1315437
51
270.060332
0
ARC
8
DEFAULT_255_1_234
10
6.0890381
20
124.0316534
40
0.2235528
50
269.3314664
51
287.2178029
0
ARC
8
DEFAULT_255_1_234
10
6.1028233
20
123.9813279
40
0.1714108
50
287.7958004
51
329.080874
0
ARC
8
DEFAULT_255_1_234
10
6.007069
20
124.041093
40
0.2842745
50
328.6634704
51
343.3325132
0
ARC
8
DEFAULT_255_1_234
10
5.789771
20
124.1087863
40
0.5118644
50
343.0499468
51
351.9393422
0
ARC
8
DEFAULT_255_1_234
10
5.443101
20
124.1598949
40
0.8622784
50
351.8069023
51
357.7959224
0
ARC
8
DEFAULT_255_1_234
10
5.1195566
20
124.1766721
40
1.1862365
50
357.5871873
51
359.2677531
0
LINE
8
DEFAULT_255_1_234
10
4.943923
20
132.0114663
11
5.0989355
21
132.0114663
0
LINE
8
DEFAULT_255_1_234
10
4.1985777
20
132.1704947
11
4.1985777
21
132.2829391
0
LINE
8
DEFAULT_255_1_234
10
5.0989355
20
132.4339357
11
4.943923
21
132.4339357
0
LINE
8
DEFAULT_255_1_234
10
4.3535902
20
132.2789232
11
4.3535902
21
132.1656757
0
ARC
8
DEFAULT_255_1_234
10
4.5508742
20
132.0711846
40
0.5513052
50
340.1774281
51
353.7814284
0
ARC
8
DEFAULT_255_1_234
10
4.7080095
20
132.0126582
40
0.3836379
50
311.4558989
51
340.4421614
0
ARC
8
DEFAULT_255_1_234
10
4.7046763
20
132.0237528
40
0.3941894
50
282.4333181
51
310.7513653
0
ARC
8
DEFAULT_255_1_234
10
4.6607502
20
132.2052679
40
0.5809175
50
269.9358511
51
282.809604
0
ARC
8
DEFAULT_255_1_234
10
4.6555568
20
132.3510212
40
0.7266847
50
270.0021091
51
270.3581957
0
ARC
8
DEFAULT_255_1_234
10
4.6502985
20
132.0909585
40
0.4666519
50
250.7884749
51
270.6489167
0
ARC
8
DEFAULT_255_1_234
10
4.633482
20
132.0272319
40
0.4009729
50
219.3627325
51
250.0611886
0
ARC
8
DEFAULT_255_1_234
10
4.7164031
20
132.0977042
40
0.5097822
50
193.5479632
51
219.5756669
0
ARC
8
DEFAULT_255_1_234
10
4.9535652
20
132.1592919
40
0.7547848
50
181.1218675
51
193.87563
0
ARC
8
DEFAULT_255_1_234
10
5.1605833
20
132.170358
40
0.9620055
50
179.9918545
51
181.5394234
0
ARC
8
DEFAULT_255_1_234
10
4.9754935
20
132.2866788
40
0.7769248
50
169.5837241
51
180.2757934
0
ARC
8
DEFAULT_255_1_234
10
4.7917873
20
132.3206229
40
0.590109
50
155.0365899
51
169.6003176
0
ARC
8
DEFAULT_255_1_234
10
4.6782337
20
132.3753677
40
0.4640625
50
136.783148
51
155.2472683
0
ARC
8
DEFAULT_255_1_234
10
4.6392814
20
132.4084562
40
0.4130255
50
121.7633186
51
136.428115
0
ARC
8
DEFAULT_255_1_234
10
4.6527776
20
132.3835227
40
0.4413323
50
95.6459699
51
121.5490577
0
ARC
8
DEFAULT_255_1_234
10
4.6685058
20
132.2726949
40
0.55319
50
89.924208
51
96.1377933
0
ARC
8
DEFAULT_255_1_234
10
4.6735491
20
132.2845542
40
0.5413475
50
76.6779277
51
90.4563316
0
ARC
8
DEFAULT_255_1_234
10
4.7129114
20
132.4436114
40
0.3775041
50
47.485847
51
76.9287264
0
ARC
8
DEFAULT_255_1_234
10
4.6982087
20
132.4336159
40
0.3948286
50
16.5424086
51
46.8933463
0
ARC
8
DEFAULT_255_1_234
10
4.5374244
20
132.3807861
40
0.564021
50
5.4072051
51
17.0365086
0
ARC
8
DEFAULT_255_1_234
10
4.3935261
20
132.3576679
40
0.5556559
50
7.8891745
51
15.9239216
0
ARC
8
DEFAULT_255_1_234
10
4.5922274
20
132.4153631
40
0.3487515
50
15.7653144
51
27.9410532
0
ARC
8
DEFAULT_255_1_234
10
4.7026492
20
132.474479
40
0.2235026
50
27.8166557
51
46.4008329
0
ARC
8
DEFAULT_255_1_234
10
4.7076135
20
132.4739082
40
0.2205286
50
47.4371857
51
75.0698205
0
ARC
8
DEFAULT_255_1_234
10
4.6767529
20
132.3664765
40
0.3322915
50
74.7008593
51
87.8124495
0
ARC
8
DEFAULT_255_1_234
10
4.6694217
20
132.2608844
40
0.4380987
50
87.3814673
51
90.0240855
0
ARC
8
DEFAULT_255_1_234
10
4.665576
20
132.3786291
40
0.3203749
50
89.3451631
51
108.5745436
0
ARC
8
DEFAULT_255_1_234
10
4.6518865
20
132.4299908
40
0.2673494
50
109.2998449
51
143.3037509
0
ARC
8
DEFAULT_255_1_234
10
4.7280938
20
132.3713881
40
0.3634757
50
143.0753173
51
163.1916937
0
ARC
8
DEFAULT_255_1_234
10
4.9232666
20
132.3097967
40
0.5681262
50
162.9373603
51
174.6208611
0
ARC
8
DEFAULT_255_1_234
10
5.1858708
20
132.281001
40
0.8322832
50
174.3419979
51
180.1430411
0
ARC
8
DEFAULT_255_1_234
10
5.0927864
20
132.1615698
40
0.7392076
50
179.6817502
51
189.150529
0
ARC
8
DEFAULT_255_1_234
10
4.8427112
20
132.119919
40
0.4856932
50
188.9910863
51
203.5773039
0
ARC
8
DEFAULT_255_1_234
10
4.7347445
20
132.0751211
40
0.3688271
50
203.9077269
51
215.1312379
0
ARC
8
DEFAULT_255_1_234
10
4.6424539
20
132.0035941
40
0.2522457
50
213.9071664
51
263.8849284
0
ARC
8
DEFAULT_255_1_234
10
4.6549868
20
132.0820518
40
0.3316174
50
263.1758525
51
270.1031083
0
ARC
8
DEFAULT_255_1_234
10
4.658196
20
132.2067365
40
0.4563091
50
269.6719807
51
279.0609165
0
ARC
8
DEFAULT_255_1_234
10
4.6848728
20
132.0454907
40
0.2928759
50
278.8750225
51
293.6346586
0
ARC
8
DEFAULT_255_1_234
10
4.7168936
20
131.97029
40
0.2111472
50
293.8553404
51
310.0518804
0
ARC
8
DEFAULT_255_1_234
10
4.717379
20
131.9640516
40
0.2060917
50
311.0646779
51
332.0108348
0
ARC
8
DEFAULT_255_1_234
10
4.5981517
20
132.0297978
40
0.3422352
50
331.6588543
51
343.2878891
0
ARC
8
DEFAULT_255_1_234
10
4.3919032
20
132.0931798
40
0.5580003
50
343.1446044
51
351.010618
0
ARC
8
DEFAULT_255_1_234
10
4.2377678
20
132.1212871
40
0.7146438
50
350.7157277
51
351.1602153
0
LINE
8
DEFAULT_255_1_234
10
6.2089218
20
132.2612534
11
6.2089218
21
132.1873614
0
LINE
8
DEFAULT_255_1_234
10
5.2684052
20
132.1769201
11
5.2684052
21
132.2612534
0
LINE
8
DEFAULT_255_1_234
10
6.0555156
20
132.1761169
11
6.0555156
21
132.2628597
0
LINE
8
DEFAULT_255_1_234
10
5.4218114
20
132.273301
11
5.4218114
21
132.1873614
0
ARC
8
DEFAULT_255_1_234
10
5.3447244
20
132.1834015
40
0.8642064
50
350.487711
51
0.2625388
0
ARC
8
DEFAULT_255_1_234
10
5.5740486
20
132.1439578
40
0.631518
50
336.0277639
51
350.5787438
0
ARC
8
DEFAULT_255_1_234
10
5.7085309
20
132.0831892
40
0.4839466
50
319.8877444
51
336.1328423
0
ARC
8
DEFAULT_255_1_234
10
5.768795
20
132.034958
40
0.4067874
50
302.4806467
51
319.6143626
0
ARC
8
DEFAULT_255_1_234
10
5.757296
20
132.0571202
40
0.4316636
50
275.8195682
51
302.1884709
0
ARC
8
DEFAULT_255_1_234
10
5.7406593
20
132.1713665
40
0.5470306
50
269.9171439
51
276.3397983
0
ARC
8
DEFAULT_255_1_234
10
5.7361803
20
132.1027681
40
0.4784458
50
252.5219675
51
270.4416499
0
ARC
8
DEFAULT_255_1_234
10
5.7218062
20
132.0488592
40
0.422716
50
237.5352116
51
252.1857531
0
ARC
8
DEFAULT_255_1_234
10
5.7307258
20
132.0602363
40
0.4371052
50
209.063312
51
237.3492538
0
ARC
8
DEFAULT_255_1_234
10
5.8177106
20
132.1148685
40
0.5397041
50
205.1183774
51
209.6470015
0
ARC
8
DEFAULT_255_1_234
10
5.8974143
20
132.148683
40
0.6262326
50
188.7215458
51
204.8240747
0
ARC
8
DEFAULT_255_1_234
10
6.0971671
20
132.1823067
40
0.8287794
50
180.3723947
51
188.9252049
0
ARC
8
DEFAULT_255_1_234
10
6.0944423
20
132.2652402
40
0.8260467
50
169.5253763
51
180.2765336
0
ARC
8
DEFAULT_255_1_234
10
5.9041871
20
132.3002309
40
0.6326007
50
155.8315255
51
169.5089989
0
ARC
8
DEFAULT_255_1_234
10
5.7761373
20
132.3596348
40
0.4914567
50
139.6258461
51
156.0379525
0
ARC
8
DEFAULT_255_1_234
10
5.7171706
20
132.4070799
40
0.4158054
50
122.6416387
51
139.3430715
0
ARC
8
DEFAULT_255_1_234
10
5.7272326
20
132.3887451
40
0.4366739
50
93.0223692
51
122.455762
0
ARC
8
DEFAULT_255_1_234
10
5.7380323
20
132.2922709
40
0.5336137
50
89.975342
51
93.6341897
0
ARC
8
DEFAULT_255_1_234
10
5.7419102
20
132.3321242
40
0.4937738
50
73.746375
51
90.4233405
0
ARC
8
DEFAULT_255_1_234
10
5.7594681
20
132.4001287
40
0.4235786
50
57.662753
51
73.4518111
0
ARC
8
DEFAULT_255_1_234
10
5.7586687
20
132.4022832
40
0.4221899
50
29.1440151
51
57.414694
0
ARC
8
DEFAULT_255_1_234
10
5.6651882
20
132.3439005
40
0.5322966
50
24.0982783
51
29.7323517
0
ARC
8
DEFAULT_255_1_234
10
5.5618157
20
132.3010399
40
0.6441673
50
8.6655297
51
23.8241346
0
ARC
8
DEFAULT_255_1_234
10
5.3383895
20
132.2645854
40
0.8705386
50
359.7806941
51
8.8218784
0
ARC
8
DEFAULT_255_1_234
10
5.2236893
20
132.2671345
40
0.8318373
50
359.7055579
51
8.036044
0
ARC
8
DEFAULT_255_1_234
10
5.5236899
20
132.3108239
40
0.5286768
50
7.8928306
51
20.2962107
0
ARC
8
DEFAULT_255_1_234
10
5.686447
20
132.3708395
40
0.3552073
50
20.3231126
51
36.4992797
0
ARC
8
DEFAULT_255_1_234
10
5.7550016
20
132.4236402
40
0.2686974
50
36.1437156
51
85.6627023
0
ARC
8
DEFAULT_255_1_234
10
5.7387562
20
132.3196221
40
0.373739
50
84.3852322
51
90.0757696
0
ARC
8
DEFAULT_255_1_234
10
5.7345234
20
132.3856839
40
0.3076997
50
89.3038458
51
109.9045693
0
ARC
8
DEFAULT_255_1_234
10
5.7252625
20
132.4239062
40
0.2686424
50
110.8228367
51
143.9179474
0
ARC
8
DEFAULT_255_1_234
10
5.8186285
20
132.3526236
40
0.3860887
50
143.5289163
51
163.2980757
0
ARC
8
DEFAULT_255_1_234
10
6.0094106
20
132.2926433
40
0.5860659
50
163.0418846
51
174.3140048
0
ARC
8
DEFAULT_255_1_234
10
6.2498218
20
132.2648854
40
0.8280531
50
174.0509143
51
179.4176892
0
ARC
8
DEFAULT_255_1_234
10
6.1993957
20
132.1831954
40
0.7775954
50
179.6930361
51
188.7906598
0
ARC
8
DEFAULT_255_1_234
10
5.9330436
20
132.1405935
40
0.5078633
50
188.6331305
51
202.5629587
0
ARC
8
DEFAULT_255_1_234
10
5.8076028
20
132.0901996
40
0.3726913
50
202.8081362
51
216.1193925
0
ARC
8
DEFAULT_255_1_234
10
5.7266598
20
132.0250676
40
0.2689577
50
215.0755913
51
264.6379694
0
ARC
8
DEFAULT_255_1_234
10
5.7393548
20
132.1081513
40
0.3528978
50
263.846392
51
270.0833719
0
ARC
8
DEFAULT_255_1_234
10
5.7434938
20
132.0823374
40
0.3271036
50
269.3649385
51
287.5152008
0
ARC
8
DEFAULT_255_1_234
10
5.7613096
20
132.0176238
40
0.2600406
50
288.0630309
51
323.8113348
0
ARC
8
DEFAULT_255_1_234
10
5.6741937
20
132.0826049
40
0.3687189
50
323.6547608
51
342.6590488
0
ARC
8
DEFAULT_255_1_234
10
5.4710552
20
132.1486952
40
0.5823286
50
342.4091907
51
353.6451149
0
ARC
8
DEFAULT_255_1_234
10
5.1879063
20
132.183919
40
0.8676442
50
353.4029884
51
359.4847795
0
LINE
8
DEFAULT_255_1_234
10
6.4402358
20
132.8098211
11
6.6394229
21
132.8098211
0
LINE
8
DEFAULT_255_1_234
10
6.6394229
20
132.8098211
11
7.0217337
21
131.8556506
0
LINE
8
DEFAULT_255_1_234
10
7.0217337
20
131.8556506
11
7.4040444
21
132.8098211
0
LINE
8
DEFAULT_255_1_234
10
7.4040444
20
132.8098211
11
7.6040347
21
132.8098211
0
LINE
8
DEFAULT_255_1_234
10
7.6040347
20
132.8098211
11
7.6040347
21
131.6404
0
LINE
8
DEFAULT_255_1_234
10
7.6040347
20
131.6404
11
7.4498253
21
131.6404
0
LINE
8
DEFAULT_255_1_234
10
7.4498253
20
131.6404
11
7.4498253
21
132.0957996
0
LINE
8
DEFAULT_255_1_234
10
7.4498253
20
132.0957996
11
7.4642825
21
132.5873419
0
LINE
8
DEFAULT_255_1_234
10
7.4642825
20
132.5873419
11
7.0803654
21
131.6404
0
LINE
8
DEFAULT_255_1_234
10
7.0803654
20
131.6404
11
6.9622988
21
131.6404
0
LINE
8
DEFAULT_255_1_234
10
6.9622988
20
131.6404
11
6.5791849
21
132.5849324
0
LINE
8
DEFAULT_255_1_234
10
6.5791849
20
132.5849324
11
6.5944452
21
132.0957996
0
LINE
8
DEFAULT_255_1_234
10
6.5944452
20
132.0957996
11
6.5944452
21
131.6404
0
LINE
8
DEFAULT_255_1_234
10
6.5944452
20
131.6404
11
6.4402358
21
131.6404
0
LINE
8
DEFAULT_255_1_234
10
6.4402358
20
131.6404
11
6.4402358
21
132.8098211
0
LINE
8
DEFAULT_255_1_234
10
5.0438879
20
140.7473211
11
5.0438879
21
139.5779
0
LINE
8
DEFAULT_255_1_234
10
5.0438879
20
139.5779
11
4.8888753
21
139.5779
0
LINE
8
DEFAULT_255_1_234
10
4.8888753
20
139.5779
11
4.3001489
21
140.479061
0
LINE
8
DEFAULT_255_1_234
10
4.3001489
20
140.479061
11
4.3001489
21
139.5779
0
LINE
8
DEFAULT_255_1_234
10
4.3001489
20
139.5779
11
4.1451364
21
139.5779
0
LINE
8
DEFAULT_255_1_234
10
4.1451364
20
139.5779
11
4.1451364
21
140.7473211
0
LINE
8
DEFAULT_255_1_234
10
4.1451364
20
140.7473211
11
4.3001489
21
140.7473211
0
LINE
8
DEFAULT_255_1_234
10
4.3001489
20
140.7473211
11
4.8904817
21
139.8421442
0
LINE
8
DEFAULT_255_1_234
10
4.8904817
20
139.8421442
11
4.8904817
21
140.7473211
0
LINE
8
DEFAULT_255_1_234
10
4.8904817
20
140.7473211
11
5.0438879
21
140.7473211
0
LINE
8
DEFAULT_255_1_234
10
6.0229568
20
139.9489663
11
6.1779693
21
139.9489663
0
LINE
8
DEFAULT_255_1_234
10
5.2776115
20
140.1079947
11
5.2776115
21
140.2204391
0
LINE
8
DEFAULT_255_1_234
10
6.1779693
20
140.3714357
11
6.0229568
21
140.3714357
0
LINE
8
DEFAULT_255_1_234
10
5.432624
20
140.2164232
11
5.432624
21
140.1031757
0
ARC
8
DEFAULT_255_1_234
10
5.629908
20
140.0086846
40
0.5513052
50
340.1774281
51
353.7814284
0
ARC
8
DEFAULT_255_1_234
10
5.7870432
20
139.9501582
40
0.3836379
50
311.4558989
51
340.4421614
0
ARC
8
DEFAULT_255_1_234
10
5.7837101
20
139.9612528
40
0.3941894
50
282.4333181
51
310.7513653
0
ARC
8
DEFAULT_255_1_234
10
5.739784
20
140.1427679
40
0.5809175
50
269.9358511
51
282.809604
0
ARC
8
DEFAULT_255_1_234
10
5.7345906
20
140.2885212
40
0.7266847
50
270.0021091
51
270.3581957
0
ARC
8
DEFAULT_255_1_234
10
5.7293323
20
140.0284585
40
0.4666519
50
250.7884749
51
270.6489167
0
ARC
8
DEFAULT_255_1_234
10
5.7125158
20
139.9647319
40
0.4009729
50
219.3627325
51
250.0611886
0
ARC
8
DEFAULT_255_1_234
10
5.7954369
20
140.0352042
40
0.5097822
50
193.5479632
51
219.5756669
0
ARC
8
DEFAULT_255_1_234
10
6.0325989
20
140.0967919
40
0.7547848
50
181.1218675
51
193.87563
0
ARC
8
DEFAULT_255_1_234
10
6.2396171
20
140.107858
40
0.9620055
50
179.9918545
51
181.5394234
0
ARC
8
DEFAULT_255_1_234
10
6.0545273
20
140.2241788
40
0.7769248
50
169.5837241
51
180.2757934
0
ARC
8
DEFAULT_255_1_234
10
5.8708211
20
140.2581229
40
0.590109
50
155.0365899
51
169.6003176
0
ARC
8
DEFAULT_255_1_234
10
5.7572675
20
140.3128677
40
0.4640625
50
136.783148
51
155.2472683
0
ARC
8
DEFAULT_255_1_234
10
5.7183152
20
140.3459562
40
0.4130255
50
121.7633186
51
136.428115
0
ARC
8
DEFAULT_255_1_234
10
5.7318114
20
140.3210227
40
0.4413323
50
95.6459699
51
121.5490577
0
ARC
8
DEFAULT_255_1_234
10
5.7475396
20
140.2101949
40
0.55319
50
89.924208
51
96.1377933
0
ARC
8
DEFAULT_255_1_234
10
5.7525828
20
140.2220542
40
0.5413475
50
76.6779277
51
90.4563316
0
ARC
8
DEFAULT_255_1_234
10
5.7919452
20
140.3811114
40
0.3775041
50
47.485847
51
76.9287264
0
ARC
8
DEFAULT_255_1_234
10
5.7772425
20
140.3711159
40
0.3948286
50
16.5424086
51
46.8933463
0
ARC
8
DEFAULT_255_1_234
10
5.6164582
20
140.3182861
40
0.564021
50
5.4072051
51
17.0365086
0
ARC
8
DEFAULT_255_1_234
10
5.4725599
20
140.2951679
40
0.5556559
50
7.8891745
51
15.9239216
0
ARC
8
DEFAULT_255_1_234
10
5.6712612
20
140.3528631
40
0.3487515
50
15.7653144
51
27.9410532
0
ARC
8
DEFAULT_255_1_234
10
5.781683
20
140.411979
40
0.2235026
50
27.8166557
51
46.4008329
0
ARC
8
DEFAULT_255_1_234
10
5.7866473
20
140.4114082
40
0.2205286
50
47.4371857
51
75.0698205
0
ARC
8
DEFAULT_255_1_234
10
5.7557867
20
140.3039765
40
0.3322915
50
74.7008593
51
87.8124495
0
ARC
8
DEFAULT_255_1_234
10
5.7484555
20
140.1983844
40
0.4380987
50
87.3814673
51
90.0240855
0
ARC
8
DEFAULT_255_1_234
10
5.7446098
20
140.3161291
40
0.3203749
50
89.3451631
51
108.5745436
0
ARC
8
DEFAULT_255_1_234
10
5.7309203
20
140.3674908
40
0.2673494
50
109.2998449
51
143.3037509
0
ARC
8
DEFAULT_255_1_234
10
5.8071276
20
140.3088881
40
0.3634757
50
143.0753173
51
163.1916937
0
ARC
8
DEFAULT_255_1_234
10
6.0023003
20
140.2472967
40
0.5681262
50
162.9373603
51
174.6208611
0
ARC
8
DEFAULT_255_1_234
10
6.2649046
20
140.218501
40
0.8322832
50
174.3419979
51
180.1430411
0
ARC
8
DEFAULT_255_1_234
10
6.1718202
20
140.0990698
40
0.7392076
50
179.6817502
51
189.150529
0
ARC
8
DEFAULT_255_1_234
10
5.921745
20
140.057419
40
0.4856932
50
188.9910863
51
203.5773039
0
ARC
8
DEFAULT_255_1_234
10
5.8137783
20
140.0126211
40
0.3688271
50
203.9077269
51
215.1312379
0
ARC
8
DEFAULT_255_1_234
10
5.7214877
20
139.9410941
40
0.2522457
50
213.9071664
51
263.8849284
0
ARC
8
DEFAULT_255_1_234
10
5.7340206
20
140.0195518
40
0.3316174
50
263.1758525
51
270.1031083
0
ARC
8
DEFAULT_255_1_234
10
5.7372297
20
140.1442365
40
0.4563091
50
269.6719807
51
279.0609165
0
ARC
8
DEFAULT_255_1_234
10
5.7639066
20
139.9829907
40
0.2928759
50
278.8750225
51
293.6346586
0
ARC
8
DEFAULT_255_1_234
10
5.7959274
20
139.90779
40
0.2111472
50
293.8553404
51
310.0518804
0
ARC
8
DEFAULT_255_1_234
10
5.7964128
20
139.9015516
40
0.2060917
50
311.0646779
51
332.0108348
0
ARC
8
DEFAULT_255_1_234
10
5.6771854
20
139.9672978
40
0.3422352
50
331.6588543
51
343.2878891
0
ARC
8
DEFAULT_255_1_234
10
5.4709369
20
140.0306798
40
0.5580003
50
343.1446044
51
351.010618
0
ARC
8
DEFAULT_255_1_234
10
5.3168016
20
140.0587871
40
0.7146438
50
350.7157277
51
351.1602153
0
LINE
8
DEFAULT_255_1_234
10
23.1643817
20
148.2069327
11
23.1643817
21
148.0141709
0
LINE
8
DEFAULT_255_1_234
10
22.426265
20
147.9940916
11
22.426265
21
148.1924755
0
LINE
8
DEFAULT_255_1_234
10
23.0157946
20
147.9740123
11
23.0157946
21
148.2173739
0
LINE
8
DEFAULT_255_1_234
10
22.5748521
20
148.2286184
11
22.5748521
21
147.9908789
0
ARC
8
DEFAULT_255_1_234
10
21.9396707
20
148.0092805
40
1.2247208
50
353.8441951
51
0.2287902
0
ARC
8
DEFAULT_255_1_234
10
22.4036211
20
147.9574806
40
0.7578929
50
344.4934747
51
353.9765454
0
ARC
8
DEFAULT_255_1_234
10
22.7028801
20
147.8723981
40
0.4467846
50
329.2803592
51
344.7472793
0
ARC
8
DEFAULT_255_1_234
10
22.8021626
20
147.8179018
40
0.3336173
50
324.9352394
51
328.6160465
0
ARC
8
DEFAULT_255_1_234
10
22.8398734
20
147.7915427
40
0.2876076
50
280.580143
51
324.9173126
0
ARC
8
DEFAULT_255_1_234
10
22.7997527
20
147.9586099
40
0.4592847
50
269.5977311
51
281.6734359
0
ARC
8
DEFAULT_255_1_234
10
22.7925433
20
147.9466173
40
0.4472986
50
256.6228859
51
270.51044
0
ARC
8
DEFAULT_255_1_234
10
22.752341
20
147.7917877
40
0.2873874
50
215.8618325
51
257.2788573
0
ARC
8
DEFAULT_255_1_234
10
22.8544442
20
147.8602977
40
0.4102928
50
197.9693508
51
215.2623606
0
ARC
8
DEFAULT_255_1_234
10
23.1029558
20
147.9441709
40
0.6725652
50
187.8816417
51
198.2346507
0
ARC
8
DEFAULT_255_1_234
10
23.4987766
20
148.0013079
40
1.0724845
50
180.8976217
51
188.0055519
0
ARC
8
DEFAULT_255_1_234
10
23.7787954
20
148.0116777
40
1.3526448
50
180.7449369
51
181.1510016
0
ARC
8
DEFAULT_255_1_234
10
23.6210683
20
148.1973042
40
1.1948131
50
173.7675579
51
180.231553
0
ARC
8
DEFAULT_255_1_234
10
23.169283
20
148.2483666
40
0.7401564
50
164.3058563
51
173.9002247
0
ARC
8
DEFAULT_255_1_234
10
22.8780899
20
148.3322656
40
0.4371288
50
148.7922025
51
164.568378
0
ARC
8
DEFAULT_255_1_234
10
22.7829351
20
148.3853929
40
0.3282386
50
144.5883898
51
148.1176286
0
ARC
8
DEFAULT_255_1_234
10
22.7486249
20
148.4093315
40
0.2864044
50
101.6440918
51
144.514236
0
ARC
8
DEFAULT_255_1_234
10
22.7911315
20
148.2404069
40
0.4604934
50
89.5284041
51
102.5819763
0
ARC
8
DEFAULT_255_1_234
10
22.7990403
20
148.2365018
40
0.464401
50
77.0437873
51
90.5081339
0
ARC
8
DEFAULT_255_1_234
10
22.8392405
20
148.4007615
40
0.2953195
50
48.2778575
51
77.4994676
0
ARC
8
DEFAULT_255_1_234
10
22.8465036
20
148.4136746
40
0.2808655
50
36.3142134
51
47.6305865
0
ARC
8
DEFAULT_255_1_234
10
22.7596343
20
148.3551515
40
0.3855453
50
18.2931786
51
35.6769206
0
ARC
8
DEFAULT_255_1_234
10
22.5053102
20
148.2678593
40
0.654423
50
8.024666
51
18.5605216
0
ARC
8
DEFAULT_255_1_234
10
22.0890022
20
148.2063792
40
1.0752407
50
1.1274072
51
8.1718305
0
ARC
8
DEFAULT_255_1_234
10
21.7654213
20
148.1936885
40
1.3990231
50
0.5424119
51
1.3863029
0
ARC
8
DEFAULT_255_1_234
10
21.947559
20
148.2209342
40
1.0682415
50
359.8090433
51
4.9407866
0
ARC
8
DEFAULT_255_1_234
10
22.3685604
20
148.2585113
40
0.6455691
50
4.8362157
51
12.2904523
0
ARC
8
DEFAULT_255_1_234
10
22.6440719
20
148.3198965
40
0.3633074
50
12.0805627
51
23.8173984
0
ARC
8
DEFAULT_255_1_234
10
22.7614425
20
148.3695919
40
0.2358723
50
24.2871213
51
31.3935614
0
ARC
8
DEFAULT_255_1_234
10
22.8139122
20
148.4039233
40
0.1732111
50
30.7407893
51
82.4657128
0
ARC
8
DEFAULT_255_1_234
10
22.7959256
20
148.3155691
40
0.263235
50
81.1060089
51
90.2184952
0
ARC
8
DEFAULT_255_1_234
10
22.7923555
20
148.3413924
40
0.2374236
50
89.3806855
51
105.6762551
0
ARC
8
DEFAULT_255_1_234
10
22.7740186
20
148.4080567
40
0.1682847
50
105.7981136
51
149.7388061
0
ARC
8
DEFAULT_255_1_234
10
22.8804264
20
148.344095
40
0.2924306
50
149.4208916
51
163.6286378
0
ARC
8
DEFAULT_255_1_234
10
23.0895152
20
148.280325
40
0.5110213
50
163.3763315
51
172.1410975
0
ARC
8
DEFAULT_255_1_234
10
23.4195871
20
148.2330518
40
0.8444586
50
172.0259487
51
178.0703232
0
ARC
8
DEFAULT_255_1_234
10
23.722596
20
148.2186906
40
1.1477868
50
177.8631668
51
179.5044149
0
ARC
8
DEFAULT_255_1_234
10
23.6153365
20
147.9872389
40
1.0404907
50
179.7995573
51
185.2460446
0
ARC
8
DEFAULT_255_1_234
10
23.2110404
20
147.9489513
40
0.6343885
50
185.1411642
51
193.0079639
0
ARC
8
DEFAULT_255_1_234
10
22.9466877
20
147.8864641
40
0.3627568
50
192.7897626
51
205.2507664
0
ARC
8
DEFAULT_255_1_234
10
22.8420424
20
147.8397415
40
0.2481908
50
205.8005384
51
211.2537509
0
ARC
8
DEFAULT_255_1_234
10
22.7896864
20
147.804658
40
0.1852521
50
210.3789793
51
238.4008143
0
ARC
8
DEFAULT_255_1_234
10
22.7877386
20
147.8093376
40
0.1882621
50
239.6520629
51
265.9793761
0
ARC
8
DEFAULT_255_1_234
10
22.7962586
20
147.8765427
40
0.2559272
50
265.1315437
51
270.060332
0
ARC
8
DEFAULT_255_1_234
10
22.7991365
20
147.8441534
40
0.2235528
50
269.3314664
51
287.2178029
0
ARC
8
DEFAULT_255_1_234
10
22.8129217
20
147.7938279
40
0.1714108
50
287.7958004
51
329.080874
0
ARC
8
DEFAULT_255_1_234
10
22.7171674
20
147.853593
40
0.2842745
50
328.6634704
51
343.3325132
0
ARC
8
DEFAULT_255_1_234
10
22.4998694
20
147.9212863
40
0.5118644
50
343.0499468
51
351.9393422
0
ARC
8
DEFAULT_255_1_234
10
22.1531994
20
147.9723949
40
0.8622784
50
351.8069023
51
357.7959224
0
ARC
8
DEFAULT_255_1_234
10
21.829655
20
147.9891721
40
1.1862365
50
357.5871873
51
359.2677531
0
LINE
8
DEFAULT_255_1_234
10
23.4479021
20
148.6848211
11
23.7804161
21
147.7202093
0
LINE
8
DEFAULT_255_1_234
10
23.7804161
20
147.7202093
11
24.1145364
21
148.6848211
0
LINE
8
DEFAULT_255_1_234
10
24.1145364
20
148.6848211
11
24.2832029
21
148.6848211
0
LINE
8
DEFAULT_255_1_234
10
24.2832029
20
148.6848211
11
23.849489
21
147.5154
0
LINE
8
DEFAULT_255_1_234
10
23.849489
20
147.5154
11
23.7129495
21
147.5154
0
LINE
8
DEFAULT_255_1_234
10
23.7129495
20
147.5154
11
23.2800388
21
148.6848211
0
LINE
8
DEFAULT_255_1_234
10
23.2800388
20
148.6848211
11
23.4479021
21
148.6848211
0
LINE
8
DEFAULT_255_1_234
10
21.411423
20
132.0114663
11
21.5664355
21
132.0114663
0
LINE
8
DEFAULT_255_1_234
10
20.6660777
20
132.1704947
11
20.6660777
21
132.2829391
0
LINE
8
DEFAULT_255_1_234
10
21.5664355
20
132.4339357
11
21.411423
21
132.4339357
0
LINE
8
DEFAULT_255_1_234
10
20.8210902
20
132.2789232
11
20.8210902
21
132.1656757
0
ARC
8
DEFAULT_255_1_234
10
21.0183742
20
132.0711846
40
0.5513052
50
340.1774281
51
353.7814284
0
ARC
8
DEFAULT_255_1_234
10
21.1755095
20
132.0126582
40
0.3836379
50
311.4558989
51
340.4421614
0
ARC
8
DEFAULT_255_1_234
10
21.1721763
20
132.0237528
40
0.3941894
50
282.4333181
51
310.7513653
0
ARC
8
DEFAULT_255_1_234
10
21.1282502
20
132.2052679
40
0.5809175
50
269.9358511
51
282.809604
0
ARC
8
DEFAULT_255_1_234
10
21.1230568
20
132.3510212
40
0.7266847
50
270.0021091
51
270.3581957
0
ARC
8
DEFAULT_255_1_234
10
21.1177985
20
132.0909585
40
0.4666519
50
250.7884749
51
270.6489167
0
ARC
8
DEFAULT_255_1_234
10
21.100982
20
132.0272319
40
0.4009729
50
219.3627325
51
250.0611886
0
ARC
8
DEFAULT_255_1_234
10
21.1839031
20
132.0977042
40
0.5097822
50
193.5479632
51
219.5756669
0
ARC
8
DEFAULT_255_1_234
10
21.4210652
20
132.1592919
40
0.7547848
50
181.1218675
51
193.87563
0
ARC
8
DEFAULT_255_1_234
10
21.6280833
20
132.170358
40
0.9620055
50
179.9918545
51
181.5394234
0
ARC
8
DEFAULT_255_1_234
10
21.4429935
20
132.2866788
40
0.7769248
50
169.5837241
51
180.2757934
0
ARC
8
DEFAULT_255_1_234
10
21.2592873
20
132.3206229
40
0.590109
50
155.0365899
51
169.6003176
0
ARC
8
DEFAULT_255_1_234
10
21.1457337
20
132.3753677
40
0.4640625
50
136.783148
51
155.2472683
0
ARC
8
DEFAULT_255_1_234
10
21.1067814
20
132.4084562
40
0.4130255
50
121.7633186
51
136.428115
0
ARC
8
DEFAULT_255_1_234
10
21.1202776
20
132.3835227
40
0.4413323
50
95.6459699
51
121.5490577
0
ARC
8
DEFAULT_255_1_234
10
21.1360058
20
132.2726949
40
0.55319
50
89.924208
51
96.1377933
0
ARC
8
DEFAULT_255_1_234
10
21.1410491
20
132.2845542
40
0.5413475
50
76.6779277
51
90.4563316
0
ARC
8
DEFAULT_255_1_234
10
21.1804114
20
132.4436114
40
0.3775041
50
47.485847
51
76.9287264
0
ARC
8
DEFAULT_255_1_234
10
21.1657087
20
132.4336159
40
0.3948286
50
16.5424086
51
46.8933463
0
ARC
8
DEFAULT_255_1_234
10
21.0049244
20
132.3807861
40
0.564021
50
5.4072051
51
17.0365086
0
ARC
8
DEFAULT_255_1_234
10
20.8610261
20
132.3576679
40
0.5556559
50
7.8891745
51
15.9239216
0
ARC
8
DEFAULT_255_1_234
10
21.0597274
20
132.4153631
40
0.3487515
50
15.7653144
51
27.9410532
0
ARC
8
DEFAULT_255_1_234
10
21.1701492
20
132.474479
40
0.2235026
50
27.8166557
51
46.4008329
0
ARC
8
DEFAULT_255_1_234
10
21.1751135
20
132.4739082
40
0.2205286
50
47.4371857
51
75.0698205
0
ARC
8
DEFAULT_255_1_234
10
21.1442529
20
132.3664765
40
0.3322915
50
74.7008593
51
87.8124495
0
ARC
8
DEFAULT_255_1_234
10
21.1369217
20
132.2608844
40
0.4380987
50
87.3814673
51
90.0240855
0
ARC
8
DEFAULT_255_1_234
10
21.133076
20
132.3786291
40
0.3203749
50
89.3451631
51
108.5745436
0
ARC
8
DEFAULT_255_1_234
10
21.1193865
20
132.4299908
40
0.2673494
50
109.2998449
51
143.3037509
0
ARC
8
DEFAULT_255_1_234
10
21.1955938
20
132.3713881
40
0.3634757
50
143.0753173
51
163.1916937
0
ARC
8
DEFAULT_255_1_234
10
21.3907666
20
132.3097967
40
0.5681262
50
162.9373603
51
174.6208611
0
ARC
8
DEFAULT_255_1_234
10
21.6533708
20
132.281001
40
0.8322832
50
174.3419979
51
180.1430411
0
ARC
8
DEFAULT_255_1_234
10
21.5602864
20
132.1615698
40
0.7392076
50
179.6817502
51
189.150529
0
ARC
8
DEFAULT_255_1_234
10
21.3102112
20
132.119919
40
0.4856932
50
188.9910863
51
203.5773039
0
ARC
8
DEFAULT_255_1_234
10
21.2022445
20
132.0751211
40
0.3688271
50
203.9077269
51
215.1312379
0
ARC
8
DEFAULT_255_1_234
10
21.1099539
20
132.0035941
40
0.2522457
50
213.9071664
51
263.8849284
0
ARC
8
DEFAULT_255_1_234
10
21.1224868
20
132.0820518
40
0.3316174
50
263.1758525
51
270.1031083
0
ARC
8
DEFAULT_255_1_234
10
21.125696
20
132.2067365
40
0.4563091
50
269.6719807
51
279.0609165
0
ARC
8
DEFAULT_255_1_234
10
21.1523728
20
132.0454907
40
0.2928759
50
278.8750225
51
293.6346586
0
ARC
8
DEFAULT_255_1_234
10
21.1843936
20
131.97029
40
0.2111472
50
293.8553404
51
310.0518804
0
ARC
8
DEFAULT_255_1_234
10
21.184879
20
131.9640516
40
0.2060917
50
311.0646779
51
332.0108348
0
ARC
8
DEFAULT_255_1_234
10
21.0656517
20
132.0297978
40
0.3422352
50
331.6588543
51
343.2878891
0
ARC
8
DEFAULT_255_1_234
10
20.8594032
20
132.0931798
40
0.5580003
50
343.1446044
51
351.010618
0
ARC
8
DEFAULT_255_1_234
10
20.7052678
20
132.1212871
40
0.7146438
50
350.7157277
51
351.1602153
0
LINE
8
DEFAULT_255_1_234
10
22.6764218
20
132.2612534
11
22.6764218
21
132.1873614
0
LINE
8
DEFAULT_255_1_234
10
21.7359052
20
132.1769201
11
21.7359052
21
132.2612534
0
LINE
8
DEFAULT_255_1_234
10
22.5230156
20
132.1761169
11
22.5230156
21
132.2628597
0
LINE
8
DEFAULT_255_1_234
10
21.8893114
20
132.273301
11
21.8893114
21
132.1873614
0
ARC
8
DEFAULT_255_1_234
10
21.8122244
20
132.1834015
40
0.8642064
50
350.487711
51
0.2625388
0
ARC
8
DEFAULT_255_1_234
10
22.0415486
20
132.1439578
40
0.631518
50
336.0277639
51
350.5787438
0
ARC
8
DEFAULT_255_1_234
10
22.1760309
20
132.0831892
40
0.4839466
50
319.8877444
51
336.1328423
0
ARC
8
DEFAULT_255_1_234
10
22.236295
20
132.034958
40
0.4067874
50
302.4806467
51
319.6143626
0
ARC
8
DEFAULT_255_1_234
10
22.224796
20
132.0571202
40
0.4316636
50
275.8195682
51
302.1884709
0
ARC
8
DEFAULT_255_1_234
10
22.2081593
20
132.1713665
40
0.5470306
50
269.9171439
51
276.3397983
0
ARC
8
DEFAULT_255_1_234
10
22.2036803
20
132.1027681
40
0.4784458
50
252.5219675
51
270.4416499
0
ARC
8
DEFAULT_255_1_234
10
22.1893062
20
132.0488592
40
0.422716
50
237.5352116
51
252.1857531
0
ARC
8
DEFAULT_255_1_234
10
22.1982258
20
132.0602363
40
0.4371052
50
209.063312
51
237.3492538
0
ARC
8
DEFAULT_255_1_234
10
22.2852106
20
132.1148685
40
0.5397041
50
205.1183774
51
209.6470015
0
ARC
8
DEFAULT_255_1_234
10
22.3649143
20
132.148683
40
0.6262326
50
188.7215458
51
204.8240747
0
ARC
8
DEFAULT_255_1_234
10
22.5646671
20
132.1823067
40
0.8287794
50
180.3723947
51
188.9252049
0
ARC
8
DEFAULT_255_1_234
10
22.5619423
20
132.2652402
40
0.8260467
50
169.5253763
51
180.2765336
0
ARC
8
DEFAULT_255_1_234
10
22.3716871
20
132.3002309
40
0.6326007
50
155.8315255
51
169.5089989
0
ARC
8
DEFAULT_255_1_234
10
22.2436373
20
132.3596348
40
0.4914567
50
139.6258461
51
156.0379525
0
ARC
8
DEFAULT_255_1_234
10
22.1846706
20
132.4070799
40
0.4158054
50
122.6416387
51
139.3430715
0
ARC
8
DEFAULT_255_1_234
10
22.1947326
20
132.3887451
40
0.4366739
50
93.0223692
51
122.455762
0
ARC
8
DEFAULT_255_1_234
10
22.2055323
20
132.2922709
40
0.5336137
50
89.975342
51
93.6341897
0
ARC
8
DEFAULT_255_1_234
10
22.2094102
20
132.3321242
40
0.4937738
50
73.746375
51
90.4233405
0
ARC
8
DEFAULT_255_1_234
10
22.2269681
20
132.4001287
40
0.4235786
50
57.662753
51
73.4518111
0
ARC
8
DEFAULT_255_1_234
10
22.2261687
20
132.4022832
40
0.4221899
50
29.1440151
51
57.414694
0
ARC
8
DEFAULT_255_1_234
10
22.1326882
20
132.3439005
40
0.5322966
50
24.0982783
51
29.7323517
0
ARC
8
DEFAULT_255_1_234
10
22.0293157
20
132.3010399
40
0.6441673
50
8.6655297
51
23.8241346
0
ARC
8
DEFAULT_255_1_234
10
21.8058895
20
132.2645854
40
0.8705386
50
359.7806941
51
8.8218784
0
ARC
8
DEFAULT_255_1_234
10
21.6911893
20
132.2671345
40
0.8318373
50
359.7055579
51
8.036044
0
ARC
8
DEFAULT_255_1_234
10
21.9911899
20
132.3108239
40
0.5286768
50
7.8928306
51
20.2962107
0
ARC
8
DEFAULT_255_1_234
10
22.153947
20
132.3708395
40
0.3552073
50
20.3231126
51
36.4992797
0
ARC
8
DEFAULT_255_1_234
10
22.2225016
20
132.4236402
40
0.2686974
50
36.1437156
51
85.6627023
0
ARC
8
DEFAULT_255_1_234
10
22.2062562
20
132.3196221
40
0.373739
50
84.3852322
51
90.0757696
0
ARC
8
DEFAULT_255_1_234
10
22.2020234
20
132.3856839
40
0.3076997
50
89.3038458
51
109.9045693
0
ARC
8
DEFAULT_255_1_234
10
22.1927625
20
132.4239062
40
0.2686424
50
110.8228367
51
143.9179474
0
ARC
8
DEFAULT_255_1_234
10
22.2861285
20
132.3526236
40
0.3860887
50
143.5289163
51
163.2980757
0
ARC
8
DEFAULT_255_1_234
10
22.4769106
20
132.2926433
40
0.5860659
50
163.0418846
51
174.3140048
0
ARC
8
DEFAULT_255_1_234
10
22.7173218
20
132.2648854
40
0.8280531
50
174.0509143
51
179.4176892
0
ARC
8
DEFAULT_255_1_234
10
22.6668957
20
132.1831954
40
0.7775954
50
179.6930361
51
188.7906598
0
ARC
8
DEFAULT_255_1_234
10
22.4005436
20
132.1405935
40
0.5078633
50
188.6331305
51
202.5629587
0
ARC
8
DEFAULT_255_1_234
10
22.2751028
20
132.0901996
40
0.3726913
50
202.8081362
51
216.1193925
0
ARC
8
DEFAULT_255_1_234
10
22.1941598
20
132.0250676
40
0.2689577
50
215.0755913
51
264.6379694
0
ARC
8
DEFAULT_255_1_234
10
22.2068548
20
132.1081513
40
0.3528978
50
263.846392
51
270.0833719
0
ARC
8
DEFAULT_255_1_234
10
22.2109938
20
132.0823374
40
0.3271036
50
269.3649385
51
287.5152008
0
ARC
8
DEFAULT_255_1_234
10
22.2288096
20
132.0176238
40
0.2600406
50
288.0630309
51
323.8113348
0
ARC
8
DEFAULT_255_1_234
10
22.1416937
20
132.0826049
40
0.3687189
50
323.6547608
51
342.6590488
0
ARC
8
DEFAULT_255_1_234
10
21.9385552
20
132.1486952
40
0.5823286
50
342.4091907
51
353.6451149
0
ARC
8
DEFAULT_255_1_234
10
21.6554063
20
132.183919
40
0.8676442
50
353.4029884
51
359.4847795
0
LINE
8
DEFAULT_255_1_234
10
22.9077358
20
132.8098211
11
23.1069229
21
132.8098211
0
LINE
8
DEFAULT_255_1_234
10
23.1069229
20
132.8098211
11
23.4892337
21
131.8556506
0
LINE
8
DEFAULT_255_1_234
10
23.4892337
20
131.8556506
11
23.8715444
21
132.8098211
0
LINE
8
DEFAULT_255_1_234
10
23.8715444
20
132.8098211
11
24.0715347
21
132.8098211
0
LINE
8
DEFAULT_255_1_234
10
24.0715347
20
132.8098211
11
24.0715347
21
131.6404
0
LINE
8
DEFAULT_255_1_234
10
24.0715347
20
131.6404
11
23.9173253
21
131.6404
0
LINE
8
DEFAULT_255_1_234
10
23.9173253
20
131.6404
11
23.9173253
21
132.0957996
0
LINE
8
DEFAULT_255_1_234
10
23.9173253
20
132.0957996
11
23.9317825
21
132.5873419
0
LINE
8
DEFAULT_255_1_234
10
23.9317825
20
132.5873419
11
23.5478654
21
131.6404
0
LINE
8
DEFAULT_255_1_234
10
23.5478654
20
131.6404
11
23.4297988
21
131.6404
0
LINE
8
DEFAULT_255_1_234
10
23.4297988
20
131.6404
11
23.0466849
21
132.5849324
0
LINE
8
DEFAULT_255_1_234
10
23.0466849
20
132.5849324
11
23.0619452
21
132.0957996
0
LINE
8
DEFAULT_255_1_234
10
23.0619452
20
132.0957996
11
23.0619452
21
131.6404
0
LINE
8
DEFAULT_255_1_234
10
23.0619452
20
131.6404
11
22.9077358
21
131.6404
0
LINE
8
DEFAULT_255_1_234
10
22.9077358
20
131.6404
11
22.9077358
21
132.8098211
0
LINE
8
DEFAULT_255_1_234
10
23.0931879
20
140.7473211
11
23.0931879
21
139.5779
0
LINE
8
DEFAULT_255_1_234
10
23.0931879
20
139.5779
11
22.9381753
21
139.5779
0
LINE
8
DEFAULT_255_1_234
10
22.9381753
20
139.5779
11
22.3494489
21
140.479061
0
LINE
8
DEFAULT_255_1_234
10
22.3494489
20
140.479061
11
22.3494489
21
139.5779
0
LINE
8
DEFAULT_255_1_234
10
22.3494489
20
139.5779
11
22.1944364
21
139.5779
0
LINE
8
DEFAULT_255_1_234
10
22.1944364
20
139.5779
11
22.1944364
21
140.7473211
0
LINE
8
DEFAULT_255_1_234
10
22.1944364
20
140.7473211
11
22.3494489
21
140.7473211
0
LINE
8
DEFAULT_255_1_234
10
22.3494489
20
140.7473211
11
22.9397817
21
139.8421442
0
LINE
8
DEFAULT_255_1_234
10
22.9397817
20
139.8421442
11
22.9397817
21
140.7473211
0
LINE
8
DEFAULT_255_1_234
10
22.9397817
20
140.7473211
11
23.0931879
21
140.7473211
0
LINE
8
DEFAULT_255_1_234
10
24.0722568
20
139.9489663
11
24.2272693
21
139.9489663
0
LINE
8
DEFAULT_255_1_234
10
23.3269115
20
140.1079947
11
23.3269115
21
140.2204391
0
LINE
8
DEFAULT_255_1_234
10
24.2272693
20
140.3714357
11
24.0722568
21
140.3714357
0
LINE
8
DEFAULT_255_1_234
10
23.481924
20
140.2164232
11
23.481924
21
140.1031757
0
ARC
8
DEFAULT_255_1_234
10
23.679208
20
140.0086846
40
0.5513052
50
340.1774281
51
353.7814284
0
ARC
8
DEFAULT_255_1_234
10
23.8363432
20
139.9501582
40
0.3836379
50
311.4558989
51
340.4421614
0
ARC
8
DEFAULT_255_1_234
10
23.8330101
20
139.9612528
40
0.3941894
50
282.4333181
51
310.7513653
0
ARC
8
DEFAULT_255_1_234
10
23.789084
20
140.1427679
40
0.5809175
50
269.9358511
51
282.809604
0
ARC
8
DEFAULT_255_1_234
10
23.7838906
20
140.2885212
40
0.7266847
50
270.0021091
51
270.3581957
0
ARC
8
DEFAULT_255_1_234
10
23.7786323
20
140.0284585
40
0.4666519
50
250.7884749
51
270.6489167
0
ARC
8
DEFAULT_255_1_234
10
23.7618158
20
139.9647319
40
0.4009729
50
219.3627325
51
250.0611886
0
ARC
8
DEFAULT_255_1_234
10
23.8447369
20
140.0352042
40
0.5097822
50
193.5479632
51
219.5756669
0
ARC
8
DEFAULT_255_1_234
10
24.0818989
20
140.0967919
40
0.7547848
50
181.1218675
51
193.87563
0
ARC
8
DEFAULT_255_1_234
10
24.2889171
20
140.107858
40
0.9620055
50
179.9918545
51
181.5394234
0
ARC
8
DEFAULT_255_1_234
10
24.1038273
20
140.2241788
40
0.7769248
50
169.5837241
51
180.2757934
0
ARC
8
DEFAULT_255_1_234
10
23.9201211
20
140.2581229
40
0.590109
50
155.0365899
51
169.6003176
0
ARC
8
DEFAULT_255_1_234
10
23.8065675
20
140.3128677
40
0.4640625
50
136.783148
51
155.2472683
0
ARC
8
DEFAULT_255_1_234
10
23.7676152
20
140.3459562
40
0.4130255
50
121.7633186
51
136.428115
0
ARC
8
DEFAULT_255_1_234
10
23.7811114
20
140.3210227
40
0.4413323
50
95.6459699
51
121.5490577
0
ARC
8
DEFAULT_255_1_234
10
23.7968396
20
140.2101949
40
0.55319
50
89.924208
51
96.1377933
0
ARC
8
DEFAULT_255_1_234
10
23.8018828
20
140.2220542
40
0.5413475
50
76.6779277
51
90.4563316
0
ARC
8
DEFAULT_255_1_234
10
23.8412452
20
140.3811114
40
0.3775041
50
47.485847
51
76.9287264
0
ARC
8
DEFAULT_255_1_234
10
23.8265425
20
140.3711159
40
0.3948286
50
16.5424086
51
46.8933463
0
ARC
8
DEFAULT_255_1_234
10
23.6657582
20
140.3182861
40
0.564021
50
5.4072051
51
17.0365086
0
ARC
8
DEFAULT_255_1_234
10
23.5218599
20
140.2951679
40
0.5556559
50
7.8891745
51
15.9239216
0
ARC
8
DEFAULT_255_1_234
10
23.7205612
20
140.3528631
40
0.3487515
50
15.7653144
51
27.9410532
0
ARC
8
DEFAULT_255_1_234
10
23.830983
20
140.411979
40
0.2235026
50
27.8166557
51
46.4008329
0
ARC
8
DEFAULT_255_1_234
10
23.8359473
20
140.4114082
40
0.2205286
50
47.4371857
51
75.0698205
0
ARC
8
DEFAULT_255_1_234
10
23.8050867
20
140.3039765
40
0.3322915
50
74.7008593
51
87.8124495
0
ARC
8
DEFAULT_255_1_234
10
23.7977555
20
140.1983844
40
0.4380987
50
87.3814673
51
90.0240855
0
ARC
8
DEFAULT_255_1_234
10
23.7939098
20
140.3161291
40
0.3203749
50
89.3451631
51
108.5745436
0
ARC
8
DEFAULT_255_1_234
10
23.7802203
20
140.3674908
40
0.2673494
50
109.2998449
51
143.3037509
0
ARC
8
DEFAULT_255_1_234
10
23.8564276
20
140.3088881
40
0.3634757
50
143.0753173
51
163.1916937
0
ARC
8
DEFAULT_255_1_234
10
24.0516003
20
140.2472967
40
0.5681262
50
162.9373603
51
174.6208611
0
ARC
8
DEFAULT_255_1_234
10
24.3142046
20
140.218501
40
0.8322832
50
174.3419979
51
180.1430411
0
ARC
8
DEFAULT_255_1_234
10
24.2211202
20
140.0990698
40
0.7392076
50
179.6817502
51
189.150529
0
ARC
8
DEFAULT_255_1_234
10
23.971045
20
140.057419
40
0.4856932
50
188.9910863
51
203.5773039
0
ARC
8
DEFAULT_255_1_234
10
23.8630783
20
140.0126211
40
0.3688271
50
203.9077269
51
215.1312379
0
ARC
8
DEFAULT_255_1_234
10
23.7707877
20
139.9410941
40
0.2522457
50
213.9071664
51
263.8849284
0
ARC
8
DEFAULT_255_1_234
10
23.7833206
20
140.0195518
40
0.3316174
50
263.1758525
51
270.1031083
0
ARC
8
DEFAULT_255_1_234
10
23.7865297
20
140.1442365
40
0.4563091
50
269.6719807
51
279.0609165
0
ARC
8
DEFAULT_255_1_234
10
23.8132066
20
139.9829907
40
0.2928759
50
278.8750225
51
293.6346586
0
ARC
8
DEFAULT_255_1_234
10
23.8452274
20
139.90779
40
0.2111472
50
293.8553404
51
310.0518804
0
ARC
8
DEFAULT_255_1_234
10
23.8457128
20
139.9015516
40
0.2060917
50
311.0646779
51
332.0108348
0
ARC
8
DEFAULT_255_1_234
10
23.7264854
20
139.9672978
40
0.3422352
50
331.6588543
51
343.2878891
0
ARC
8
DEFAULT_255_1_234
10
23.5202369
20
140.0306798
40
0.5580003
50
343.1446044
51
351.010618
0
ARC
8
DEFAULT_255_1_234
10
23.3661016
20
140.0587871
40
0.7146438
50
350.7157277
51
351.1602153
0
ENDSEC
0
EOF