0
SECTION
2
HEADER
9
$MEASUREMENT
70
1
0
ENDSEC
0
SECTION
2
TABLES
0
TABLE
2
LTYPE
0
LTYPE
72
65
70
64
2
CONTINUOUS
3
______
73
0
40
0
0
ENDTAB
0
TABLE
2
LAYER
0
LAYER
2
DEFAULT_255_2_778
70
0
62
255
6
CONTINUOUS
0
ENDTAB
0
ENDSEC
0
SECTION
2
ENTITIES
0
ARC
8
DEFAULT_255_2_778
10
58.4000638
20
3.3243799
40
1.7954174
50
299.9566853
51
325.6674358
0
ARC
8
DEFAULT_255_2_778
10
58.3932497
20
3.3288818
40
1.8035833
50
325.6714259
51
359.9702961
0
ARC
8
DEFAULT_255_2_778
10
58.403972
20
3.3279466
40
1.7928608
50
0.0000033
51
7.0116588
0
ARC
8
DEFAULT_255_2_778
10
58.3946571
20
3.326572
40
1.8022737
50
7.0188857
51
16.3321271
0
ARC
8
DEFAULT_255_2_778
10
58.3776191
20
3.3219364
40
1.8199278
50
16.321339
51
17.8543963
0
ARC
8
DEFAULT_255_2_778
10
58.4013044
20
3.3310634
40
1.7945854
50
17.8088836
51
47.279744
0
ARC
8
DEFAULT_255_2_778
10
58.3970507
20
3.3282687
40
1.7995247
50
47.2406101
51
89.9718058
0
ARC
8
DEFAULT_255_2_778
10
58.3980923
20
3.3170639
40
1.8107293
50
90.0049376
51
95.736707
0
LINE
8
DEFAULT_255_2_778
10
6.0165968
20
64.0192246
11
7.6165968
21
64.0192246
0
LINE
8
DEFAULT_255_2_778
10
7.6165968
20
64.0192246
11
7.6165968
21
38.6192246
0
LINE
8
DEFAULT_255_2_778
10
7.6165968
20
38.6192246
11
6.0165968
21
38.6192246
0
LINE
8
DEFAULT_255_2_778
10
51.7566968
20
1.3190246
11
51.7566968
21
0.9190246
0
LINE
8
DEFAULT_255_2_778
10
51.7566968
20
0.9190246
11
52.3567968
21
0.9190246
0
LINE
8
DEFAULT_255_2_778
10
52.3567968
20
0.9190246
11
52.3567968
21
0.5189246
0
LINE
8
DEFAULT_255_2_778
10
52.3567968
20
0.5189246
11
53.1568968
21
0.5189246
0
LINE
8
DEFAULT_255_2_778
10
53.1568968
20
0.5189246
11
53.1568968
21
0.1189246
0
LINE
8
DEFAULT_255_2_778
10
53.1568968
20
0.1189246
11
53.9569968
21
0.1189246
0
LINE
8
DEFAULT_255_2_778
10
53.9569968
20
0.1189246
11
53.9569968
21
-0.1810754
0
LINE
8
DEFAULT_255_2_778
10
53.9569968
20
-0.1810754
11
57.0168968
21
-0.1810754
0
LINE
8
DEFAULT_255_2_778
10
57.0168968
20
-0.1810754
11
58.5167968
21
1.3188246
0
LINE
8
DEFAULT_255_2_778
10
58.5167968
20
1.3188246
11
59.2965968
21
1.7688246
0
LINE
8
DEFAULT_255_2_778
10
58.2170968
20
5.1187246
11
58.2170968
21
8.2278246
0
LINE
8
DEFAULT_255_2_778
10
58.2170968
20
8.2278246
11
54.1670968
21
8.2278246
0
LINE
8
DEFAULT_255_2_778
10
54.1670968
20
8.2278246
11
54.1670968
21
70.9280246
0
LINE
8
DEFAULT_255_2_778
10
54.1670968
20
70.9280246
11
58.2170968
21
70.9280246
0
LINE
8
DEFAULT_255_2_778
10
58.2170968
20
70.9280246
11
58.2170968
21
74.3189246
0
LINE
8
DEFAULT_255_2_778
10
58.2170968
20
74.3189246
11
71.2170968
21
74.3189246
0
LINE
8
DEFAULT_255_2_778
10
71.2170968
20
74.3189246
11
71.2170968
21
96.8191246
0
LINE
8
DEFAULT_255_2_778
10
71.2170968
20
96.8191246
11
70.7169968
21
96.8191246
0
LINE
8
DEFAULT_255_2_778
10
70.7169968
20
96.8191246
11
66.2169968
21
101.3191246
0
LINE
8
DEFAULT_255_2_778
10
66.2169968
20
101.3191246
11
4.1166968
21
101.3191246
0
LINE
8
DEFAULT_255_2_778
10
59.9780968
20
2.4692246
11
0.2166968
21
2.4692246
0
LINE
8
DEFAULT_255_2_778
10
68.3667749
20
99.1691074
11
0.2166749
21
99.1691074
0
LINE
8
DEFAULT_255_2_778
10
3.0667749
20
33.4506074
11
3.0667749
21
36.1250074
0
LINE
8
DEFAULT_255_2_778
10
0.6122749
20
33.1651074
11
3.7668749
21
36.9690074
0
LINE
8
DEFAULT_255_2_778
10
3.7668749
20
36.9690074
11
4.6169749
21
36.9690074
0
LINE
8
DEFAULT_255_2_778
10
4.6169749
20
36.9690074
11
5.2302749
21
33.6191074
0
LINE
8
DEFAULT_255_2_778
10
4.7166749
20
48.2191074
11
7.6167749
21
48.2191074
0
LINE
8
DEFAULT_255_2_778
10
6.0166323
20
61.3191602
11
7.6165323
21
61.3191602
0
LINE
8
DEFAULT_255_2_778
10
6.0166323
20
43.4190602
11
7.6165323
21
43.4190602
0
LINE
8
DEFAULT_255_2_778
10
4.1166936
20
99.1691475
11
4.1166936
21
105.8191475
0
LINE
8
DEFAULT_255_2_778
10
4.1166936
20
105.8191475
11
0.2166936
21
105.8191475
0
LINE
8
DEFAULT_255_2_778
10
0.2166936
20
105.8191475
11
0.2166936
21
69.5191475
0
LINE
8
DEFAULT_255_2_778
10
0.2166936
20
69.5191475
11
4.5166936
21
69.0190475
0
LINE
8
DEFAULT_255_2_778
10
4.5166936
20
69.0190475
11
6.0165936
21
69.0190475
0
LINE
8
DEFAULT_255_2_778
10
6.0165936
20
69.0190475
11
6.0165936
21
55.4189475
0
LINE
8
DEFAULT_255_2_778
10
6.0165936
20
55.4189475
11
4.7166936
21
55.4189475
0
LINE
8
DEFAULT_255_2_778
10
4.7166936
20
55.4189475
11
4.7166936
21
47.2189475
0
LINE
8
DEFAULT_255_2_778
10
4.7166936
20
47.2189475
11
6.0165936
21
47.2189475
0
LINE
8
DEFAULT_255_2_778
10
6.0165936
20
47.2189475
11
6.0165936
21
33.6188475
0
LINE
8
DEFAULT_255_2_778
10
6.0165936
20
33.6188475
11
4.5166936
21
33.6188475
0
LINE
8
DEFAULT_255_2_778
10
4.5166936
20
33.6188475
11
0.2166936
21
33.1190475
0
LINE
8
DEFAULT_255_2_778
10
0.2166936
20
33.1190475
11
0.2166936
21
1.3190475
0
LINE
8
DEFAULT_255_2_778
10
0.2166936
20
1.3190475
11
61.7166936
21
1.3190475
0
LINE
8
DEFAULT_255_2_778
10
61.7166936
20
1.3190475
11
61.7166936
21
2.2781475
0
ARC
8
DEFAULT_255_2_778
10
58.2227342
20
3.1301453
40
2.0940596
50
359.9477347
51
23.6158017
0
ARC
8
DEFAULT_255_2_778
10
58.2143558
20
3.1250796
40
2.1037659
50
23.6507999
51
79.9497193
0
ARC
8
DEFAULT_255_2_778
10
58.216936
20
3.1143507
40
2.1138844
50
80.0693296
51
90.0038786
0
LINE
8
DEFAULT_255_2_778
10
60.3135929
20
3.2417351
11
60.1963929
21
3.3190351
0
LINE
8
DEFAULT_255_2_778
10
65.7166929
20
101.3191351
11
64.2166929
21
102.8190351
0
LINE
8
DEFAULT_255_2_778
10
64.2166929
20
102.8190351
11
61.3165929
21
102.8190351
0
LINE
8
DEFAULT_255_2_778
10
61.3165929
20
102.8190351
11
61.3165929
21
102.5190351
0
LINE
8
DEFAULT_255_2_778
10
61.3165929
20
102.5190351
11
60.5164929
21
102.5190351
0
LINE
8
DEFAULT_255_2_778
10
60.5164929
20
102.5190351
11
60.5164929
21
102.1189351
0
LINE
8
DEFAULT_255_2_778
10
60.5164929
20
102.1189351
11
59.7163929
21
102.1189351
0
LINE
8
DEFAULT_255_2_778
10
59.7163929
20
102.1189351
11
59.7163929
21
101.7189351
0
LINE
8
DEFAULT_255_2_778
10
59.7163929
20
101.7189351
11
59.1163929
21
101.7189351
0
LINE
8
DEFAULT_255_2_778
10
59.1163929
20
101.7189351
11
59.1163929
21
101.3188351
0
LINE
8
DEFAULT_255_2_778
10
58.2167929
20
74.1281351
11
71.2167929
21
74.1281351
0
LINE
8
DEFAULT_255_2_778
10
71.2167929
20
74.1281351
11
71.2167929
21
5.7481351
0
LINE
8
DEFAULT_255_2_778
10
71.2167929
20
5.7481351
11
69.9168929
21
5.7481351
0
LINE
8
DEFAULT_255_2_778
10
69.9168929
20
5.7481351
11
69.9168929
21
2.2781351
0
LINE
8
DEFAULT_255_2_778
10
69.9168929
20
2.2781351
11
60.3167929
21
2.2781351
0
LINE
8
DEFAULT_255_2_778
10
60.3167929
20
2.2781351
11
60.3167929
21
3.1282351
0
LINE
8
DEFAULT_255_2_778
10
58.2167929
20
5.2282351
11
58.2167929
21
8.2283351
0
LINE
8
DEFAULT_255_2_778
10
58.2167929
20
8.2283351
11
54.1667929
21
8.2283351
0
LINE
8
DEFAULT_255_2_778
10
54.1667929
20
8.2283351
11
54.1667929
21
70.9282351
0
LINE
8
DEFAULT_255_2_778
10
54.1667929
20
70.9282351
11
58.2167929
21
70.9282351
0
ARC
8
DEFAULT_255_2_778
10
64.4824355
20
3.6578849
40
2.5148426
50
278.7383412
51
279.9966483
0
ARC
8
DEFAULT_255_2_778
10
64.4842337
20
3.6445771
40
2.5014162
50
270.5467269
51
278.7439401
0
ARC
8
DEFAULT_255_2_778
10
64.4844549
20
3.6396429
40
2.49648
50
270.0001292
51
270.5427309
0
ARC
8
DEFAULT_255_2_778
10
64.4851919
20
3.6439114
40
2.5007486
50
214.4745463
51
269.9832427
0
ARC
8
DEFAULT_255_2_778
10
64.4982028
20
3.6524359
40
2.5162997
50
213.1015433
51
214.4668658
0
LINE
8
DEFAULT_255_2_778
10
59.9550885
20
4.2282229
11
60.0053885
21
4.2282229
0
LINE
8
DEFAULT_255_2_778
10
69.2514885
20
2.2782229
11
68.9853885
21
1.8982229
0
LINE
8
DEFAULT_255_2_778
10
68.9853885
20
1.8982229
11
64.9189885
21
1.1812229
0
LINE
8
DEFAULT_255_2_778
10
4.4637885
20
69.0251229
11
4.4163885
21
65.6689229
0
LINE
8
DEFAULT_255_2_778
10
4.4163885
20
65.6689229
11
3.6165885
21
65.6689229
0
LINE
8
DEFAULT_255_2_778
10
3.6165885
20
65.6689229
11
0.4460885
21
69.4924229
0
LINE
8
DEFAULT_255_2_778
10
2.3167388
20
67.236821
11
2.3167388
21
69.274921
0
LINE
8
DEFAULT_255_2_778
10
4.1167388
20
104.319221
11
0.2167388
21
104.319221
0
LINE
8
DEFAULT_255_2_778
10
16.0166388
20
49.999221
11
12.2166388
21
49.999221
0
LINE
8
DEFAULT_255_2_778
10
12.2166388
20
49.999221
11
12.2166388
21
39.869121
0
LINE
8
DEFAULT_255_2_778
10
12.2166388
20
39.869121
11
16.0166388
21
39.869121
0
LINE
8
DEFAULT_255_2_778
10
16.0166388
20
91.769021
11
12.2166388
21
91.769021
0
LINE
8
DEFAULT_255_2_778
10
12.2166388
20
91.769021
11
12.2166388
21
52.369121
0
LINE
8
DEFAULT_255_2_778
10
12.2166388
20
52.369121
11
16.0166388
21
52.369121
0
LINE
8
DEFAULT_255_2_778
10
16.0168388
20
38.869021
11
16.0168388
21
92.769121
0
LINE
8
DEFAULT_255_2_778
10
11.7168388
20
92.769121
11
11.7168388
21
38.869021
0
ARC
8
DEFAULT_255_2_778
10
75.3919011
20
79.0798891
40
0.303555
50
84.9391034
51
89.9932435
0
ARC
8
DEFAULT_255_2_778
10
75.3922826
20
79.0838343
40
0.2996099
50
90.0660928
51
175.0741542
0
ARC
8
DEFAULT_255_2_778
10
75.3972068
20
79.0832452
40
0.3045667
50
175.0432808
51
179.993648
0
ARC
8
DEFAULT_255_2_778
10
75.3926421
20
79.0834285
40
0.3000021
50
180.0285637
51
265.0160863
0
LINE
8
DEFAULT_255_2_778
10
19.0166791
20
38.8690607
11
8.7166791
21
38.8690607
0
LINE
8
DEFAULT_255_2_778
10
8.7166791
20
38.8690607
11
8.7166791
21
92.7691607
0
LINE
8
DEFAULT_255_2_778
10
8.7166791
20
92.7691607
11
19.0166791
21
92.7691607
0
LINE
8
DEFAULT_255_2_778
10
19.0166791
20
92.7691607
11
19.0166791
21
38.8690607
0
LINE
8
DEFAULT_255_2_778
10
76.5849791
20
80.1180607
11
76.7849791
21
79.7717607
0
LINE
8
DEFAULT_255_2_778
10
76.7849791
20
79.7717607
11
76.0192791
21
79.3296607
0
LINE
8
DEFAULT_255_2_778
10
76.0192791
20
79.3296607
11
75.4186791
21
79.3822607
0
LINE
8
DEFAULT_255_2_778
10
75.3665791
20
78.7845607
11
76.1803791
21
78.7134607
0
LINE
8
DEFAULT_255_2_778
10
76.1803791
20
78.7134607
11
77.1849791
21
79.0790607
0
LINE
8
DEFAULT_255_2_778
10
77.1849791
20
79.0790607
11
78.4848791
21
76.8274607
0
LINE
8
DEFAULT_255_2_778
10
78.4848791
20
76.8274607
11
77.6660791
21
76.1403607
0
LINE
8
DEFAULT_255_2_778
10
77.6660791
20
76.1403607
11
77.6554791
21
76.1175607
0
LINE
8
DEFAULT_255_2_778
10
76.1555791
20
78.7155607
11
75.4829791
21
78.3271607
0
LINE
8
DEFAULT_255_2_778
10
71.9380791
20
78.8279607
11
71.2580791
21
76.2903607
0
LINE
8
DEFAULT_255_2_778
10
71.2580791
20
76.2903607
11
71.2165791
21
76.2662607
0
LINE
8
DEFAULT_255_2_778
10
79.1479646
20
76.9788406
11
76.9828646
21
75.7289406
0
LINE
8
DEFAULT_255_2_778
10
76.9828646
20
75.7289406
11
74.9828646
21
79.1931406
0
LINE
8
DEFAULT_255_2_778
10
74.9828646
20
79.1931406
11
77.1479646
21
80.4430406
0
ARC
8
DEFAULT_255_2_778
10
71.8804427
20
79.9277077
40
0.5002829
50
90.0086986
51
149.9812943
0
ARC
8
DEFAULT_255_2_778
10
71.8804595
20
79.9279667
40
0.5001678
50
150.0079494
51
179.965911
0
LINE
8
DEFAULT_255_2_778
10
71.3802919
20
79.9282643
11
71.3802918
21
79.927903
0
ARC
8
DEFAULT_255_2_778
10
71.8800535
20
79.9278053
40
0.4997617
50
179.9888012
51
210.0044964
0
LINE
8
DEFAULT_255_2_778
10
71.2165668
20
73.6281905
11
80.2166668
21
73.6281905
0
LINE
8
DEFAULT_255_2_778
10
80.2166668
20
73.6281905
11
80.2166668
21
75.1280905
0
LINE
8
DEFAULT_255_2_778
10
80.2166668
20
75.1280905
11
76.5793668
21
81.4280905
0
LINE
8
DEFAULT_255_2_778
10
76.5793668
20
81.4280905
11
75.0794668
21
81.4280905
0
LINE
8
DEFAULT_255_2_778
10
75.0794668
20
81.4280905
11
74.0793668
21
80.4279905
0
LINE
8
DEFAULT_255_2_778
10
74.0793668
20
80.4279905
11
71.8803668
21
80.4279905
0
LINE
8
DEFAULT_255_2_778
10
71.4472668
20
79.6778905
11
74.9402668
21
73.6278905
0
LINE
8
DEFAULT_255_2_778
10
74.0166706
20
75.2281
11
71.2165706
21
75.2281
0
ENDSEC
0
EOF