0
SECTION
2
HEADER
9
$MEASUREMENT
70
1
0
ENDSEC
0
SECTION
2
TABLES
0
TABLE
2
LTYPE
0
LTYPE
72
65
70
64
2
CONTINUOUS
3
______
73
0
40
0
0
ENDTAB
0
TABLE
2
LAYER
0
LAYER
2
DEFAULT_255_2_778
70
0
62
255
6
CONTINUOUS
0
ENDTAB
0
ENDSEC
0
SECTION
2
ENTITIES
0
LINE
8
DEFAULT_255_2_778
10
29.2217875
20
68.516403
11
29.4217875
21
68.516403
0
LINE
8
DEFAULT_255_2_778
10
29.4217875
20
68.516403
11
29.4217875
21
74.916403
0
LINE
8
DEFAULT_255_2_778
10
29.4217875
20
74.916403
11
29.2217875
21
74.916403
0
LINE
8
DEFAULT_255_2_778
10
29.2217875
20
60.896403
11
29.4217875
21
60.896403
0
LINE
8
DEFAULT_255_2_778
10
29.4217875
20
60.896403
11
29.4217875
21
67.296403
0
LINE
8
DEFAULT_255_2_778
10
29.4217875
20
67.296403
11
29.2217875
21
67.296403
0
LINE
8
DEFAULT_255_2_778
10
29.2217875
20
53.276403
11
29.4217875
21
53.276403
0
LINE
8
DEFAULT_255_2_778
10
29.4217875
20
53.276403
11
29.4217875
21
59.676403
0
LINE
8
DEFAULT_255_2_778
10
29.4217875
20
59.676403
11
29.2217875
21
59.676403
0
LINE
8
DEFAULT_255_2_778
10
29.2217875
20
45.656403
11
29.4217875
21
45.656403
0
LINE
8
DEFAULT_255_2_778
10
29.4217875
20
45.656403
11
29.4217875
21
52.056403
0
LINE
8
DEFAULT_255_2_778
10
29.4217875
20
52.056403
11
29.2217875
21
52.056403
0
LINE
8
DEFAULT_255_2_778
10
29.2217875
20
38.036403
11
29.4217875
21
38.036403
0
LINE
8
DEFAULT_255_2_778
10
29.4217875
20
38.036403
11
29.4217875
21
44.436403
0
LINE
8
DEFAULT_255_2_778
10
29.4217875
20
44.436403
11
29.2217875
21
44.436403
0
LINE
8
DEFAULT_255_2_778
10
29.2217875
20
30.416403
11
29.4217875
21
30.416403
0
LINE
8
DEFAULT_255_2_778
10
29.4217875
20
30.416403
11
29.4217875
21
36.816403
0
LINE
8
DEFAULT_255_2_778
10
29.4217875
20
36.816403
11
29.2217875
21
36.816403
0
LINE
8
DEFAULT_255_2_778
10
29.2217875
20
22.796403
11
29.4217875
21
22.796403
0
LINE
8
DEFAULT_255_2_778
10
29.4217875
20
22.796403
11
29.4217875
21
29.196403
0
LINE
8
DEFAULT_255_2_778
10
29.4217875
20
29.196403
11
29.2217875
21
29.196403
0
LINE
8
DEFAULT_255_2_778
10
29.2217875
20
15.176403
11
29.4217875
21
15.176403
0
LINE
8
DEFAULT_255_2_778
10
29.4217875
20
15.176403
11
29.4217875
21
21.576403
0
LINE
8
DEFAULT_255_2_778
10
29.4217875
20
21.576403
11
29.2217875
21
21.576403
0
LINE
8
DEFAULT_255_2_778
10
29.4218627
20
7.5563594
11
29.4218627
21
13.9564594
0
LINE
8
DEFAULT_255_2_778
10
29.4218627
20
13.9564594
11
29.2218627
21
13.9564594
0
LINE
8
DEFAULT_255_2_778
10
29.2218627
20
77.5262594
11
29.2218627
21
7.5561594
0
LINE
8
DEFAULT_255_2_778
10
17.7219627
20
65.4260594
11
25.2218627
21
65.4260594
0
LINE
8
DEFAULT_255_2_778
10
25.2218627
20
65.4260594
11
25.2218627
21
70.4261594
0
LINE
8
DEFAULT_255_2_778
10
25.2218627
20
70.4261594
11
17.7219627
21
70.4261594
0
LINE
8
DEFAULT_255_2_778
10
17.7219627
20
70.4261594
11
17.7219627
21
65.4260594
0
LINE
8
DEFAULT_255_2_778
10
17.7219627
20
65.4260594
11
25.2218627
21
65.4260594
0
LINE
8
DEFAULT_255_2_778
10
25.2218627
20
65.4260594
11
25.2218627
21
70.4261594
0
LINE
8
DEFAULT_255_2_778
10
25.2218627
20
70.4261594
11
17.7219627
21
70.4261594
0
LINE
8
DEFAULT_255_2_778
10
17.7219627
20
70.4261594
11
17.7219627
21
65.4260594
0
LINE
8
DEFAULT_255_2_778
10
30.2218786
20
2.6563309
11
12.7218786
21
2.6563309
0
LINE
8
DEFAULT_255_2_778
10
12.7218786
20
2.6563309
11
12.7218786
21
80.5263309
0
LINE
8
DEFAULT_255_2_778
10
12.7218786
20
80.5263309
11
30.2218786
21
80.5263309
0
LINE
8
DEFAULT_255_2_778
10
30.2218786
20
2.3063309
11
31.3217786
21
2.3063309
0
LINE
8
DEFAULT_255_2_778
10
31.3217786
20
2.3063309
11
31.3217786
21
3.8062309
0
LINE
8
DEFAULT_255_2_778
10
31.3217786
20
3.8062309
11
32.3216786
21
3.8062309
0
LINE
8
DEFAULT_255_2_778
10
32.3216786
20
3.8062309
11
32.3216786
21
1.3561309
0
LINE
8
DEFAULT_255_2_778
10
32.3216786
20
1.3561309
11
20.8717786
21
1.3561309
0
LINE
8
DEFAULT_255_2_778
10
13.2218786
20
1.3561309
11
2.5218786
21
1.3561309
0
LINE
8
DEFAULT_255_2_778
10
2.5218786
20
1.3561309
11
2.5218786
21
5.0561309
0
LINE
8
DEFAULT_255_2_778
10
2.5218786
20
5.0561309
11
1.1719786
21
5.0561309
0
LINE
8
DEFAULT_255_2_778
10
1.1719786
20
5.0561309
11
1.1719786
21
2.5060309
0
LINE
8
DEFAULT_255_2_778
10
1.1719786
20
2.5060309
11
0.2218786
21
2.5060309
0
LINE
8
DEFAULT_255_2_778
10
0.2218786
20
2.5060309
11
0.2218786
21
99.2062309
0
LINE
8
DEFAULT_255_2_778
10
0.2218786
20
99.2062309
11
1.1719786
21
99.2062309
0
LINE
8
DEFAULT_255_2_778
10
1.1719786
20
99.2062309
11
1.1719786
21
97.6563309
0
LINE
8
DEFAULT_255_2_778
10
1.1719786
20
97.6563309
11
2.5218786
21
97.6563309
0
LINE
8
DEFAULT_255_2_778
10
2.5218786
20
97.6563309
11
2.5218786
21
101.3562309
0
LINE
8
DEFAULT_255_2_778
10
2.5218786
20
101.3562309
11
32.3218786
21
101.3562309
0
LINE
8
DEFAULT_255_2_778
10
32.3218786
20
101.3562309
11
32.3218786
21
97.9063309
0
LINE
8
DEFAULT_255_2_778
10
32.3218786
20
97.9063309
11
31.3220786
21
97.9063309
0
LINE
8
DEFAULT_255_2_778
10
31.3220786
20
97.9063309
11
31.3220786
21
99.4062309
0
LINE
8
DEFAULT_255_2_778
10
31.3220786
20
99.4062309
11
30.2221786
21
99.4062309
0
LINE
8
DEFAULT_255_2_778
10
30.2221786
20
99.4062309
11
30.2221786
21
1.3561309
0
LINE
8
DEFAULT_255_2_778
10
16.321798
20
108.8060423
11
16.321798
21
99.0831423
0
LINE
8
DEFAULT_255_2_778
10
20.271698
20
101.3564423
11
20.271698
21
104.3562423
0
LINE
8
DEFAULT_255_2_778
10
20.271698
20
104.3562423
11
18.771798
21
105.8562423
0
LINE
8
DEFAULT_255_2_778
10
18.771798
20
105.8562423
11
13.871698
21
105.8562423
0
LINE
8
DEFAULT_255_2_778
10
13.871698
20
105.8562423
11
12.371798
21
104.3562423
0
LINE
8
DEFAULT_255_2_778
10
12.371798
20
104.3562423
11
12.371798
21
101.3561423
0
LINE
8
DEFAULT_255_2_778
10
13.221898
20
1.7561423
11
20.871798
21
1.7561423
0
LINE
8
DEFAULT_255_2_778
10
13.2218512
20
2.6562927
11
13.2218512
21
-0.2438073
0
LINE
8
DEFAULT_255_2_778
10
13.2218512
20
-0.2438073
11
20.8717512
21
-0.2438073
0
LINE
8
DEFAULT_255_2_778
10
20.8717512
20
-0.2438073
11
20.8717512
21
2.6562927
0
LINE
8
DEFAULT_255_2_778
10
27.2217512
20
78.7263927
11
27.2217512
21
77.5264927
0
LINE
8
DEFAULT_255_2_778
10
30.2218775
20
77.526454
11
27.0220775
21
77.526454
0
LINE
8
DEFAULT_255_2_778
10
27.0220775
20
77.526454
11
27.0220775
21
78.726354
0
LINE
8
DEFAULT_255_2_778
10
27.0220775
20
78.726354
11
30.2218775
21
78.726354
0
LINE
8
DEFAULT_255_2_778
10
30.2218775
20
7.556354
11
27.0220775
21
7.556354
0
LINE
8
DEFAULT_255_2_778
10
27.0220775
20
7.556354
11
27.0220775
21
5.756354
0
LINE
8
DEFAULT_255_2_778
10
27.0220775
20
5.756354
11
30.2218775
21
5.756354
0
LINE
8
DEFAULT_255_2_778
10
30.2218775
20
80.856254
11
0.2218775
21
80.856254
0
LINE
8
DEFAULT_255_2_778
10
0.2218775
20
81.056254
11
30.2218775
21
81.056254
0
LINE
8
DEFAULT_255_2_778
10
14.5220775
20
1.356354
11
14.5220775
21
-0.143546
0
LINE
8
DEFAULT_255_2_778
10
14.5220775
20
-0.143546
11
13.4219775
21
-0.143546
0
LINE
8
DEFAULT_255_2_778
10
13.4219775
20
-0.143546
11
13.4219775
21
1.356354
0
LINE
8
DEFAULT_255_2_778
10
18.2219775
20
1.356354
11
18.2219775
21
-0.143546
0
LINE
8
DEFAULT_255_2_778
10
18.2219775
20
-0.143546
11
19.3218775
21
-0.143546
0
LINE
8
DEFAULT_255_2_778
10
19.3218775
20
-0.143546
11
19.3218775
21
1.356354
0
LINE
8
DEFAULT_255_2_778
10
11.7216775
20
88.756454
11
11.7216775
21
90.156354
0
LINE
8
DEFAULT_255_2_778
10
11.7216775
20
90.156354
11
10.5218775
21
90.156354
0
LINE
8
DEFAULT_255_2_778
10
10.5218775
20
90.156354
11
10.5218775
21
88.756454
0
LINE
8
DEFAULT_255_2_778
10
10.5218775
20
88.756454
11
11.7216775
21
88.756454
0
LINE
8
DEFAULT_255_2_778
10
11.7217573
20
86.4564552
11
11.7217573
21
87.8563552
0
LINE
8
DEFAULT_255_2_778
10
11.7217573
20
87.8563552
11
10.5218573
21
87.8563552
0
LINE
8
DEFAULT_255_2_778
10
10.5218573
20
87.8563552
11
10.5218573
21
86.4564552
0
LINE
8
DEFAULT_255_2_778
10
10.5218573
20
86.4564552
11
11.7217573
21
86.4564552
0
LINE
8
DEFAULT_255_2_778
10
0.2218775
20
96.1563561
11
30.2218775
21
96.1563561
0
LINE
8
DEFAULT_255_2_778
10
30.2218775
20
96.3563561
11
0.2218775
21
96.3563561
0
LINE
8
DEFAULT_255_2_778
10
0.2218775
20
96.8561561
11
30.2218775
21
96.8561561
0
LINE
8
DEFAULT_255_2_778
10
4.5218775
20
87.8563561
11
4.5218775
21
86.4564561
0
LINE
8
DEFAULT_255_2_778
10
4.5218775
20
86.4564561
11
5.7217775
21
86.4564561
0
LINE
8
DEFAULT_255_2_778
10
5.7217775
20
86.4564561
11
5.7217775
21
87.8563561
0
LINE
8
DEFAULT_255_2_778
10
5.7217775
20
87.8563561
11
4.5218775
21
87.8563561
0
LINE
8
DEFAULT_255_2_778
10
5.7217573
20
90.1563552
11
4.5218573
21
90.1563552
0
LINE
8
DEFAULT_255_2_778
10
4.5218573
20
90.1563552
11
4.5218573
21
88.7564552
0
LINE
8
DEFAULT_255_2_778
10
4.5218573
20
88.7564552
11
5.7217573
21
88.7564552
0
LINE
8
DEFAULT_255_2_778
10
5.7217573
20
88.7564552
11
5.7217573
21
90.1563552
0
LINE
8
DEFAULT_255_2_778
10
8.7218573
20
86.4564552
11
8.7218573
21
87.8563552
0
LINE
8
DEFAULT_255_2_778
10
8.7218573
20
87.8563552
11
7.5219573
21
87.8563552
0
LINE
8
DEFAULT_255_2_778
10
7.5219573
20
87.8563552
11
7.5219573
21
86.4564552
0
LINE
8
DEFAULT_255_2_778
10
7.5219573
20
86.4564552
11
8.7218573
21
86.4564552
0
LINE
8
DEFAULT_255_2_778
10
8.7218573
20
90.1563552
11
7.5219573
21
90.1563552
0
LINE
8
DEFAULT_255_2_778
10
7.5219573
20
90.1563552
11
7.5219573
21
88.7564552
0
LINE
8
DEFAULT_255_2_778
10
7.5219573
20
88.7564552
11
8.7218573
21
88.7564552
0
LINE
8
DEFAULT_255_2_778
10
8.7218573
20
88.7564552
11
8.7218573
21
90.1563552
0
LINE
8
DEFAULT_255_2_778
10
29.0719282
20
97.3385135
11
29.0719282
21
100.8741135
0
LINE
8
DEFAULT_255_2_778
10
29.0719282
20
100.8741135
11
29.0719282
21
97.3385135
0
LINE
8
DEFAULT_255_2_778
10
29.0719282
20
97.3385135
11
21.5718282
21
97.3385135
0
LINE
8
DEFAULT_255_2_778
10
21.5718282
20
97.3385135
11
29.0719282
21
97.3385135
0
LINE
8
DEFAULT_255_2_778
10
21.5718282
20
100.8741135
11
21.5718282
21
97.3385135
0
LINE
8
DEFAULT_255_2_778
10
21.5718282
20
97.3385135
11
21.5718282
21
100.8741135
0
LINE
8
DEFAULT_255_2_778
10
21.5718282
20
100.8741135
11
29.0717282
21
100.8741135
0
LINE
8
DEFAULT_255_2_778
10
26.7217573
20
86.4564552
11
26.7217573
21
87.8563552
0
LINE
8
DEFAULT_255_2_778
10
26.7217573
20
87.8563552
11
25.5218573
21
87.8563552
0
LINE
8
DEFAULT_255_2_778
10
25.5218573
20
87.8563552
11
25.5218573
21
86.4564552
0
LINE
8
DEFAULT_255_2_778
10
25.5218573
20
86.4564552
11
26.7217573
21
86.4564552
0
LINE
8
DEFAULT_255_2_778
10
26.7216793
20
88.7564666
11
26.7216793
21
90.1563666
0
LINE
8
DEFAULT_255_2_778
10
26.7216793
20
90.1563666
11
25.5218793
21
90.1563666
0
LINE
8
DEFAULT_255_2_778
10
25.5218793
20
90.1563666
11
25.5218793
21
88.7564666
0
LINE
8
DEFAULT_255_2_778
10
25.5218793
20
88.7564666
11
26.7216793
21
88.7564666
0
LINE
8
DEFAULT_255_2_778
10
20.7217793
20
87.8563666
11
19.5218793
21
87.8563666
0
LINE
8
DEFAULT_255_2_778
10
19.5218793
20
87.8563666
11
19.5218793
21
86.4564666
0
LINE
8
DEFAULT_255_2_778
10
19.5218793
20
86.4564666
11
20.7217793
21
86.4564666
0
LINE
8
DEFAULT_255_2_778
10
20.7217793
20
86.4564666
11
20.7217793
21
87.8563666
0
LINE
8
DEFAULT_255_2_778
10
20.7217573
20
90.1563552
11
19.5218573
21
90.1563552
0
LINE
8
DEFAULT_255_2_778
10
19.5218573
20
90.1563552
11
19.5218573
21
88.7564552
0
LINE
8
DEFAULT_255_2_778
10
19.5218573
20
88.7564552
11
20.7217573
21
88.7564552
0
LINE
8
DEFAULT_255_2_778
10
20.7217573
20
88.7564552
11
20.7217573
21
90.1563552
0
LINE
8
DEFAULT_255_2_778
10
16.5217573
20
87.8563552
11
16.5217573
21
86.4564552
0
LINE
8
DEFAULT_255_2_778
10
16.5217573
20
86.4564552
11
17.7216573
21
86.4564552
0
LINE
8
DEFAULT_255_2_778
10
17.7216573
20
86.4564552
11
17.7216573
21
87.8563552
0
LINE
8
DEFAULT_255_2_778
10
17.7216573
20
87.8563552
11
16.5217573
21
87.8563552
0
LINE
8
DEFAULT_255_2_778
10
17.7216573
20
90.1563552
11
16.5217573
21
90.1563552
0
LINE
8
DEFAULT_255_2_778
10
16.5217573
20
90.1563552
11
16.5217573
21
88.7564552
0
LINE
8
DEFAULT_255_2_778
10
16.5217573
20
88.7564552
11
17.7216573
21
88.7564552
0
LINE
8
DEFAULT_255_2_778
10
17.7216573
20
88.7564552
11
17.7216573
21
90.1563552
0
LINE
8
DEFAULT_255_2_778
10
13.5219573
20
86.4564552
11
14.7218573
21
86.4564552
0
LINE
8
DEFAULT_255_2_778
10
14.7218573
20
86.4564552
11
14.7218573
21
87.8563552
0
LINE
8
DEFAULT_255_2_778
10
14.7218573
20
87.8563552
11
13.5219573
21
87.8563552
0
LINE
8
DEFAULT_255_2_778
10
13.5219573
20
87.8563552
11
13.5219573
21
86.4564552
0
LINE
8
DEFAULT_255_2_778
10
14.7218573
20
90.1563552
11
13.5219573
21
90.1563552
0
LINE
8
DEFAULT_255_2_778
10
13.5219573
20
90.1563552
11
13.5219573
21
88.7564552
0
LINE
8
DEFAULT_255_2_778
10
13.5219573
20
88.7564552
11
14.7218573
21
88.7564552
0
LINE
8
DEFAULT_255_2_778
10
14.7218573
20
88.7564552
11
14.7218573
21
90.1563552
0
LINE
8
DEFAULT_255_2_778
10
23.7218573
20
91.5563552
11
23.7218573
21
92.9562552
0
LINE
8
DEFAULT_255_2_778
10
23.7218573
20
92.9562552
11
22.5219573
21
92.9562552
0
LINE
8
DEFAULT_255_2_778
10
22.5219573
20
92.9562552
11
22.5219573
21
91.5563552
0
LINE
8
DEFAULT_255_2_778
10
22.5219573
20
91.5563552
11
23.7218573
21
91.5563552
0
LINE
8
DEFAULT_255_2_778
10
23.7218573
20
86.4564552
11
23.7218573
21
87.8563552
0
LINE
8
DEFAULT_255_2_778
10
23.7218573
20
87.8563552
11
22.5219573
21
87.8563552
0
LINE
8
DEFAULT_255_2_778
10
22.5219573
20
87.8563552
11
22.5219573
21
86.4564552
0
LINE
8
DEFAULT_255_2_778
10
22.5219573
20
86.4564552
11
23.7218573
21
86.4564552
0
LINE
8
DEFAULT_255_2_778
10
23.7218573
20
90.1563552
11
22.5219573
21
90.1563552
0
LINE
8
DEFAULT_255_2_778
10
22.5219573
20
90.1563552
11
22.5219573
21
88.7564552
0
LINE
8
DEFAULT_255_2_778
10
22.5219573
20
88.7564552
11
23.7218573
21
88.7564552
0
LINE
8
DEFAULT_255_2_778
10
23.7218573
20
88.7564552
11
23.7218573
21
90.1563552
0
LINE
8
DEFAULT_255_2_778
10
13.4219282
20
101.3564614
11
13.4219282
21
102.8563614
0
LINE
8
DEFAULT_255_2_778
10
13.4219282
20
102.8563614
11
14.5218282
21
102.8563614
0
LINE
8
DEFAULT_255_2_778
10
14.5218282
20
102.8563614
11
14.5218282
21
101.3564614
0
LINE
8
DEFAULT_255_2_778
10
18.2220282
20
101.3564614
11
18.2220282
21
102.8563614
0
LINE
8
DEFAULT_255_2_778
10
18.2220282
20
102.8563614
11
19.3218282
21
102.8563614
0
LINE
8
DEFAULT_255_2_778
10
19.3218282
20
102.8563614
11
19.3218282
21
101.3564614
0
ENDSEC
0
EOF