0
SECTION
2
HEADER
9
$MEASUREMENT
70
1
0
ENDSEC
0
SECTION
2
TABLES
0
TABLE
2
LTYPE
0
LTYPE
72
65
70
64
2
CONTINUOUS
3
______
73
0
40
0
0
ENDTAB
0
TABLE
2
LAYER
0
LAYER
2
DEFAULT_255_2_778
70
0
62
255
6
CONTINUOUS
0
ENDTAB
0
ENDSEC
0
SECTION
2
ENTITIES
0
LINE
8
DEFAULT_255_2_778
10
78.8740253
20
10.1263613
11
78.8740253
21
7.5363613
0
LINE
8
DEFAULT_255_2_778
10
78.8740253
20
7.5363613
11
95.3739253
21
7.5363613
0
LINE
8
DEFAULT_255_2_778
10
95.3739253
20
5.7363613
11
79.1740253
21
5.7363613
0
LINE
8
DEFAULT_255_2_778
10
79.1740253
20
5.7363613
11
84.8740253
21
4.7365613
0
LINE
8
DEFAULT_255_2_778
10
84.8740253
20
4.7365613
11
84.8740253
21
1.7364613
0
LINE
8
DEFAULT_255_2_778
10
84.8740253
20
1.7364613
11
82.3739253
21
1.7364613
0
LINE
8
DEFAULT_255_2_778
10
82.3739253
20
1.7364613
11
74.7740253
21
-0.2635387
0
LINE
8
DEFAULT_255_2_778
10
74.7740253
20
-0.2635387
11
70.3740253
21
-0.2635387
0
LINE
8
DEFAULT_255_2_778
10
70.3740253
20
-0.2635387
11
70.3740253
21
1.3363613
0
LINE
8
DEFAULT_255_2_778
10
76.8399229
20
10.1263833
11
79.1741229
21
5.7363833
0
LINE
8
DEFAULT_255_2_778
10
73.3741555
20
10.1263916
11
84.3741555
21
10.1263916
0
LINE
8
DEFAULT_255_2_778
10
84.3741555
20
10.1263916
11
84.3741555
21
11.3463916
0
LINE
8
DEFAULT_255_2_778
10
84.3741555
20
11.3463916
11
76.8742555
21
11.3463916
0
LINE
8
DEFAULT_255_2_778
10
76.8742555
20
11.3463916
11
76.8742555
21
17.7463916
0
LINE
8
DEFAULT_255_2_778
10
76.8742555
20
17.7463916
11
84.3741555
21
17.7463916
0
LINE
8
DEFAULT_255_2_778
10
84.3741555
20
17.7463916
11
84.3741555
21
18.9663916
0
LINE
8
DEFAULT_255_2_778
10
84.3741555
20
18.9663916
11
76.8742555
21
18.9663916
0
LINE
8
DEFAULT_255_2_778
10
76.8742555
20
18.9663916
11
76.8742555
21
25.3663916
0
LINE
8
DEFAULT_255_2_778
10
76.8742555
20
25.3663916
11
84.3741555
21
25.3663916
0
LINE
8
DEFAULT_255_2_778
10
84.3741555
20
25.3663916
11
84.3741555
21
26.5863916
0
LINE
8
DEFAULT_255_2_778
10
84.3741555
20
26.5863916
11
76.8742555
21
26.5863916
0
LINE
8
DEFAULT_255_2_778
10
76.8742555
20
26.5863916
11
76.8742555
21
32.9863916
0
LINE
8
DEFAULT_255_2_778
10
76.8742555
20
32.9863916
11
84.3741555
21
32.9863916
0
LINE
8
DEFAULT_255_2_778
10
84.3741555
20
32.9863916
11
84.3741555
21
34.2063916
0
LINE
8
DEFAULT_255_2_778
10
84.3741555
20
34.2063916
11
76.8742555
21
34.2063916
0
LINE
8
DEFAULT_255_2_778
10
76.8742555
20
34.2063916
11
76.8742555
21
40.6063916
0
LINE
8
DEFAULT_255_2_778
10
76.8742555
20
40.6063916
11
84.3741555
21
40.6063916
0
LINE
8
DEFAULT_255_2_778
10
84.3741555
20
40.6063916
11
84.3741555
21
41.8263916
0
LINE
8
DEFAULT_255_2_778
10
84.3741555
20
41.8263916
11
76.8742555
21
41.8263916
0
LINE
8
DEFAULT_255_2_778
10
76.8742555
20
41.8263916
11
76.8742555
21
48.2263916
0
LINE
8
DEFAULT_255_2_778
10
76.8742555
20
48.2263916
11
84.3741555
21
48.2263916
0
LINE
8
DEFAULT_255_2_778
10
84.3741555
20
48.2263916
11
84.3741555
21
49.4463916
0
LINE
8
DEFAULT_255_2_778
10
84.3741555
20
49.4463916
11
76.8742555
21
49.4463916
0
LINE
8
DEFAULT_255_2_778
10
76.8742555
20
49.4463916
11
76.8742555
21
55.8463916
0
LINE
8
DEFAULT_255_2_778
10
76.8742555
20
55.8463916
11
84.3741555
21
55.8463916
0
LINE
8
DEFAULT_255_2_778
10
84.3741555
20
55.8463916
11
84.3741555
21
57.0663916
0
LINE
8
DEFAULT_255_2_778
10
84.3741555
20
57.0663916
11
76.8742555
21
57.0663916
0
LINE
8
DEFAULT_255_2_778
10
76.8742555
20
57.0663916
11
76.8742555
21
63.4663916
0
LINE
8
DEFAULT_255_2_778
10
76.8742555
20
63.4663916
11
84.3741555
21
63.4663916
0
LINE
8
DEFAULT_255_2_778
10
84.3741555
20
63.4663916
11
84.3741555
21
64.6863916
0
LINE
8
DEFAULT_255_2_778
10
84.3741555
20
64.6863916
11
76.8742555
21
64.6863916
0
LINE
8
DEFAULT_255_2_778
10
76.8742555
20
64.6863916
11
76.8742555
21
71.0863916
0
LINE
8
DEFAULT_255_2_778
10
76.8742555
20
71.0863916
11
84.3741555
21
71.0863916
0
LINE
8
DEFAULT_255_2_778
10
84.3741555
20
71.0863916
11
84.3741555
21
72.3063916
0
LINE
8
DEFAULT_255_2_778
10
84.3741555
20
72.3063916
11
76.8742555
21
72.3063916
0
LINE
8
DEFAULT_255_2_778
10
76.8742555
20
72.3063916
11
76.8742555
21
78.7063916
0
LINE
8
DEFAULT_255_2_778
10
76.8742555
20
78.7063916
11
82.3741555
21
78.7063916
0
LINE
8
DEFAULT_255_2_778
10
82.3741555
20
78.7063916
11
82.3741555
21
79.5064916
0
LINE
8
DEFAULT_255_2_778
10
82.3741555
20
79.5064916
11
95.3742555
21
79.5064916
0
LINE
8
DEFAULT_255_2_778
10
94.1740555
20
5.7366916
11
94.1740555
21
2.6367916
0
LINE
8
DEFAULT_255_2_778
10
94.1740555
20
2.6367916
11
97.3739555
21
2.6367916
0
LINE
8
DEFAULT_255_2_778
10
97.3739555
20
2.6367916
11
97.3739555
21
80.5065916
0
LINE
8
DEFAULT_255_2_778
10
97.3739555
20
80.5065916
11
73.3738555
21
80.5065916
0
LINE
8
DEFAULT_255_2_778
10
95.3740096
20
2.6366333
11
95.3740096
21
80.5066333
0
LINE
8
DEFAULT_255_2_778
10
18.1741096
20
50.0165333
11
14.3742096
21
50.0165333
0
LINE
8
DEFAULT_255_2_778
10
14.3742096
20
50.0165333
11
14.3742096
21
39.8864333
0
LINE
8
DEFAULT_255_2_778
10
14.3742096
20
39.8864333
11
18.1741096
21
39.8864333
0
LINE
8
DEFAULT_255_2_778
10
73.3741096
20
2.4865333
11
2.3740096
21
2.4865333
0
LINE
8
DEFAULT_255_2_778
10
2.7695749
20
33.1826475
11
5.9241749
21
36.9865475
0
LINE
8
DEFAULT_255_2_778
10
5.9241749
20
36.9865475
11
6.7742749
21
36.9865475
0
LINE
8
DEFAULT_255_2_778
10
6.7742749
20
36.9865475
11
7.3875749
21
33.6367475
0
LINE
8
DEFAULT_255_2_778
10
5.2240749
20
33.4679475
11
5.2240749
21
36.1423475
0
LINE
8
DEFAULT_255_2_778
10
67.8741749
20
1.3363475
11
66.3742749
21
-0.1635525
0
LINE
8
DEFAULT_255_2_778
10
66.3742749
20
-0.1635525
11
63.3143749
21
-0.1635525
0
LINE
8
DEFAULT_255_2_778
10
63.3143749
20
-0.1635525
11
63.3143749
21
0.1364475
0
LINE
8
DEFAULT_255_2_778
10
63.3143749
20
0.1364475
11
62.5142749
21
0.1364475
0
LINE
8
DEFAULT_255_2_778
10
62.5142749
20
0.1364475
11
62.5142749
21
0.5365475
0
LINE
8
DEFAULT_255_2_778
10
62.5142749
20
0.5365475
11
61.7141749
21
0.5365475
0
LINE
8
DEFAULT_255_2_778
10
61.7141749
20
0.5365475
11
61.7141749
21
0.9365475
0
LINE
8
DEFAULT_255_2_778
10
61.7141749
20
0.9365475
11
61.1140749
21
0.9365475
0
LINE
8
DEFAULT_255_2_778
10
61.1140749
20
0.9365475
11
61.1140749
21
1.3366475
0
LINE
8
DEFAULT_255_2_778
10
70.5240749
20
99.1864475
11
2.3739749
21
99.1864475
0
LINE
8
DEFAULT_255_2_778
10
7.1872749
20
69.0363475
11
6.5739749
21
65.6864475
0
LINE
8
DEFAULT_255_2_778
10
6.5739749
20
65.6864475
11
5.7738749
21
65.6864475
0
LINE
8
DEFAULT_255_2_778
10
5.7738749
20
65.6864475
11
2.6033749
21
69.5097475
0
LINE
8
DEFAULT_255_2_778
10
5.0740749
20
66.5307475
11
5.0740749
21
69.2226475
0
LINE
8
DEFAULT_255_2_778
10
6.2739749
20
104.3365475
11
2.3739749
21
104.3365475
0
LINE
8
DEFAULT_255_2_778
10
18.1740749
20
91.7865475
11
14.3741749
21
91.7865475
0
LINE
8
DEFAULT_255_2_778
10
14.3741749
20
91.7865475
11
14.3741749
21
52.3866475
0
LINE
8
DEFAULT_255_2_778
10
14.3741749
20
52.3866475
11
18.1740749
21
52.3866475
0
LINE
8
DEFAULT_255_2_778
10
61.2739749
20
101.3364475
11
61.2739749
21
101.7364475
0
LINE
8
DEFAULT_255_2_778
10
61.2739749
20
101.7364475
11
61.8739749
21
101.7364475
0
LINE
8
DEFAULT_255_2_778
10
61.8739749
20
101.7364475
11
61.8739749
21
102.1365475
0
LINE
8
DEFAULT_255_2_778
10
61.8739749
20
102.1365475
11
62.6740749
21
102.1365475
0
LINE
8
DEFAULT_255_2_778
10
62.6740749
20
102.1365475
11
62.6740749
21
102.5365475
0
LINE
8
DEFAULT_255_2_778
10
62.6740749
20
102.5365475
11
63.4741749
21
102.5365475
0
LINE
8
DEFAULT_255_2_778
10
63.4741749
20
102.5365475
11
63.4741749
21
102.8366475
0
LINE
8
DEFAULT_255_2_778
10
63.4741749
20
102.8366475
11
66.3742749
21
102.8366475
0
LINE
8
DEFAULT_255_2_778
10
66.3742749
20
102.8366475
11
67.8741749
21
101.3367475
0
LINE
8
DEFAULT_255_2_778
10
95.3739338
20
15.1564
11
82.6366338
21
15.1564
0
LINE
8
DEFAULT_255_2_778
10
95.3739338
20
13.9364
11
82.6366338
21
13.9364
0
ARC
8
DEFAULT_255_2_778
10
95.1742183
20
65.7065535
40
0.2998541
50
125.0062799
51
180.0399122
0
ARC
8
DEFAULT_255_2_778
10
95.1764304
20
65.7063539
40
0.302066
50
180.001761
51
184.9745647
0
ARC
8
DEFAULT_255_2_778
10
95.1740722
20
65.7060079
40
0.2996868
50
184.9477598
51
245.0175229
0
ARC
8
DEFAULT_255_2_778
10
95.1740809
20
65.7062193
40
0.2998821
50
245.0330752
51
268.6318943
0
ARC
8
DEFAULT_255_2_778
10
95.1741637
20
65.7078531
40
0.3015176
50
268.6235845
51
269.9982649
0
ARC
8
DEFAULT_255_2_778
10
95.1742293
20
65.7067852
40
0.3004497
50
269.9857527
51
304.9632378
0
ARC
8
DEFAULT_255_2_778
10
95.1742183
20
70.1064679
40
0.2998541
50
179.9600878
51
234.9937201
0
ARC
8
DEFAULT_255_2_778
10
95.1764304
20
70.1066675
40
0.302066
50
175.0254353
51
179.998239
0
ARC
8
DEFAULT_255_2_778
10
95.1742035
20
70.1069217
40
0.2998255
50
114.9978083
51
175.0369266
0
ARC
8
DEFAULT_255_2_778
10
95.1740809
20
70.1068021
40
0.2998821
50
91.3681057
51
114.9669248
0
ARC
8
DEFAULT_255_2_778
10
95.1741637
20
70.1051683
40
0.3015176
50
90.0017351
51
91.3764155
0
ARC
8
DEFAULT_255_2_778
10
95.1742293
20
70.1062362
40
0.3004497
50
55.0367622
51
90.0142473
0
LINE
8
DEFAULT_255_2_778
10
95.3742022
20
66.2127607
11
95.0022022
21
65.9521607
0
LINE
8
DEFAULT_255_2_778
10
95.3464022
20
65.4605607
11
95.3745022
21
65.4801607
0
LINE
8
DEFAULT_255_2_778
10
95.3742022
20
69.6002607
11
95.0022022
21
69.8608607
0
LINE
8
DEFAULT_255_2_778
10
95.3464022
20
70.3524607
11
95.3745022
21
70.3328607
0
LINE
8
DEFAULT_255_2_778
10
13.8741022
20
92.7864607
11
13.8741022
21
38.8863607
0
LINE
8
DEFAULT_255_2_778
10
10.8740179
20
92.7864607
11
21.1740179
21
92.7864607
0
LINE
8
DEFAULT_255_2_778
10
21.1740179
20
92.7864607
11
21.1740179
21
38.8863607
0
LINE
8
DEFAULT_255_2_778
10
21.1740179
20
38.8863607
11
10.8740179
21
38.8863607
0
LINE
8
DEFAULT_255_2_778
10
10.8740179
20
38.8863607
11
10.8740179
21
92.7864607
0
LINE
8
DEFAULT_255_2_778
10
18.1741
20
38.8863607
11
18.1741
21
92.7864607
0
LINE
8
DEFAULT_255_2_778
10
73.3740291
20
1.3363475
11
2.3739291
21
1.3363475
0
LINE
8
DEFAULT_255_2_778
10
2.3739291
20
1.3363475
11
2.3739291
21
33.1363475
0
LINE
8
DEFAULT_255_2_778
10
2.3739291
20
33.1363475
11
6.6739291
21
33.6364475
0
LINE
8
DEFAULT_255_2_778
10
6.6739291
20
33.6364475
11
8.1738291
21
33.6364475
0
LINE
8
DEFAULT_255_2_778
10
8.1738291
20
33.6364475
11
8.1738291
21
69.0363475
0
LINE
8
DEFAULT_255_2_778
10
8.1738291
20
69.0363475
11
6.6739291
21
69.0363475
0
LINE
8
DEFAULT_255_2_778
10
6.6739291
20
69.0363475
11
2.3739291
21
69.5364475
0
LINE
8
DEFAULT_255_2_778
10
2.3739291
20
69.5364475
11
2.3739291
21
105.8364475
0
LINE
8
DEFAULT_255_2_778
10
2.3739291
20
105.8364475
11
6.2739291
21
105.8364475
0
LINE
8
DEFAULT_255_2_778
10
6.2739291
20
105.8364475
11
6.2739291
21
101.3364475
0
LINE
8
DEFAULT_255_2_778
10
71.3738614
20
1.3363434
11
71.3738614
21
1.1363434
0
LINE
8
DEFAULT_255_2_778
10
71.3738614
20
1.1363434
11
73.3738614
21
1.1363434
0
LINE
8
DEFAULT_255_2_778
10
73.3738614
20
1.1363434
11
73.3738614
21
80.8365434
0
LINE
8
DEFAULT_255_2_778
10
73.3738614
20
80.8365434
11
71.6738614
21
80.8365434
0
LINE
8
DEFAULT_255_2_778
10
71.6738614
20
80.8365434
11
71.6738614
21
96.3363434
0
LINE
8
DEFAULT_255_2_778
10
71.6738614
20
96.3363434
11
73.3738614
21
96.3363434
0
LINE
8
DEFAULT_255_2_778
10
73.3738614
20
96.3363434
11
73.3738614
21
96.8364434
0
LINE
8
DEFAULT_255_2_778
10
73.3738614
20
96.8364434
11
72.8737614
21
96.8364434
0
LINE
8
DEFAULT_255_2_778
10
72.8737614
20
96.8364434
11
68.3737614
21
101.3364434
0
LINE
8
DEFAULT_255_2_778
10
68.3737614
20
101.3364434
11
2.3739614
21
101.3364434
0
LINE
8
DEFAULT_255_2_778
10
8.1741614
20
56.3363434
11
9.7740614
21
56.3363434
0
LINE
8
DEFAULT_255_2_778
10
8.1741614
20
54.8364434
11
9.7740614
21
54.8364434
0
LINE
8
DEFAULT_255_2_778
10
8.1741269
20
38.6366211
11
9.7740269
21
38.6366211
0
LINE
8
DEFAULT_255_2_778
10
9.7740269
20
38.6366211
11
9.7740269
21
64.0366211
0
LINE
8
DEFAULT_255_2_778
10
9.7740269
20
64.0366211
11
8.1741269
21
64.0366211
0
LINE
8
DEFAULT_255_2_778
10
71.6741269
20
81.0366211
11
73.3740269
21
81.0366211
0
LINE
8
DEFAULT_255_2_778
10
73.3740269
20
81.0366211
11
73.3740269
21
96.1366211
0
LINE
8
DEFAULT_255_2_778
10
73.3740269
20
96.1366211
11
71.6741269
21
96.1366211
0
LINE
8
DEFAULT_255_2_778
10
81.5989667
20
16.3464604
11
82.6742667
21
14.5464604
0
LINE
8
DEFAULT_255_2_778
10
82.6742667
20
14.5464604
11
81.5989667
21
12.7465604
0
ARC
8
DEFAULT_255_2_778
10
81.2456887
20
12.74687
40
1.0001847
50
270.0167764
51
333.2562196
0
ARC
8
DEFAULT_255_2_778
10
77.6754457
20
14.5462748
40
4.9982459
50
333.2527372
51
347.4449807
0
ARC
8
DEFAULT_255_2_778
10
77.672139
20
14.5467073
40
5.0015676
50
347.4483793
51
359.9961133
0
LINE
8
DEFAULT_255_2_778
10
82.6737065
20
14.546368
11
82.6737065
21
14.5468228
0
ARC
8
DEFAULT_255_2_778
10
77.6749074
20
14.5471876
40
4.9987991
50
359.9958189
51
19.9790289
0
ARC
8
DEFAULT_255_2_778
10
77.671364
20
14.5454374
40
5.0027273
50
19.9840014
51
26.745231
0
ARC
8
DEFAULT_255_2_778
10
81.2458016
20
16.3468837
40
1.0000016
50
26.7373269
51
89.98969
0
LINE
8
DEFAULT_255_2_778
10
80.2738815
20
11.7466853
11
81.2459815
21
11.7466853
0
LINE
8
DEFAULT_255_2_778
10
81.2459815
20
17.3468853
11
80.2738815
21
17.3468853
0
LINE
8
DEFAULT_255_2_778
10
78.8740448
20
17.4465655
11
80.2739448
21
17.4465655
0
LINE
8
DEFAULT_255_2_778
10
80.2739448
20
17.4465655
11
80.2739448
21
11.6466655
0
LINE
8
DEFAULT_255_2_778
10
80.2739448
20
11.6466655
11
78.8740448
21
11.6466655
0
LINE
8
DEFAULT_255_2_778
10
78.874
20
17.746403
11
78.874
21
11.346403
0
LINE
8
DEFAULT_255_2_778
10
90.2989667
20
12.5364604
11
91.3742667
21
10.7364604
0
LINE
8
DEFAULT_255_2_778
10
91.3742667
20
10.7364604
11
90.2989667
21
8.9365604
0
ARC
8
DEFAULT_255_2_778
10
89.9457887
20
8.93687
40
1.0001847
50
270.0167764
51
333.2562196
0
ARC
8
DEFAULT_255_2_778
10
86.3755457
20
10.7362748
40
4.9982459
50
333.2527372
51
347.4449807
0
ARC
8
DEFAULT_255_2_778
10
86.372239
20
10.7367073
40
5.0015676
50
347.4483793
51
359.9961133
0
LINE
8
DEFAULT_255_2_778
10
91.3738065
20
10.736368
11
91.3738065
21
10.7368228
0
ARC
8
DEFAULT_255_2_778
10
86.3750074
20
10.7371876
40
4.9987991
50
359.9958189
51
19.9790289
0
ARC
8
DEFAULT_255_2_778
10
86.371464
20
10.7354374
40
5.0027273
50
19.9840014
51
26.745231
0
ARC
8
DEFAULT_255_2_778
10
89.9459016
20
12.5368837
40
1.0000016
50
26.7373269
51
89.98969
0
LINE
8
DEFAULT_255_2_778
10
88.9739815
20
7.9366853
11
89.9460815
21
7.9366853
0
LINE
8
DEFAULT_255_2_778
10
89.9460815
20
13.5368853
11
88.9739815
21
13.5368853
0
LINE
8
DEFAULT_255_2_778
10
87.5740448
20
13.6363655
11
88.9739448
21
13.6363655
0
LINE
8
DEFAULT_255_2_778
10
88.9739448
20
13.6363655
11
88.9739448
21
7.8364655
0
LINE
8
DEFAULT_255_2_778
10
88.9739448
20
7.8364655
11
87.5740448
21
7.8364655
0
LINE
8
DEFAULT_255_2_778
10
87.574
20
13.936403
11
87.574
21
7.536403
0
LINE
8
DEFAULT_255_2_778
10
90.2989667
20
20.1564604
11
91.3742667
21
18.3564604
0
LINE
8
DEFAULT_255_2_778
10
91.3742667
20
18.3564604
11
90.2989667
21
16.5565604
0
ARC
8
DEFAULT_255_2_778
10
89.9457887
20
16.55687
40
1.0001847
50
270.0167764
51
333.2562196
0
ARC
8
DEFAULT_255_2_778
10
86.3755457
20
18.3562748
40
4.9982459
50
333.2527372
51
347.4449807
0
ARC
8
DEFAULT_255_2_778
10
86.372239
20
18.3567073
40
5.0015676
50
347.4483793
51
359.9961133
0
LINE
8
DEFAULT_255_2_778
10
91.3738065
20
18.356368
11
91.3738065
21
18.3568228
0
ARC
8
DEFAULT_255_2_778
10
86.3750074
20
18.3571876
40
4.9987991
50
359.9958189
51
19.9790289
0
ARC
8
DEFAULT_255_2_778
10
86.371464
20
18.3554374
40
5.0027273
50
19.9840014
51
26.745231
0
ARC
8
DEFAULT_255_2_778
10
89.9459016
20
20.1568837
40
1.0000016
50
26.7373269
51
89.98969
0
LINE
8
DEFAULT_255_2_778
10
88.9739815
20
15.5566853
11
89.9460815
21
15.5566853
0
LINE
8
DEFAULT_255_2_778
10
89.9460815
20
21.1568853
11
88.9739815
21
21.1568853
0
LINE
8
DEFAULT_255_2_778
10
87.5740448
20
21.2565655
11
88.9739448
21
21.2565655
0
LINE
8
DEFAULT_255_2_778
10
88.9739448
20
21.2565655
11
88.9739448
21
15.4566655
0
LINE
8
DEFAULT_255_2_778
10
88.9739448
20
15.4566655
11
87.5740448
21
15.4566655
0
LINE
8
DEFAULT_255_2_778
10
87.574
20
21.556403
11
87.574
21
15.156403
0
LINE
8
DEFAULT_255_2_778
10
90.2989667
20
27.7764604
11
91.3742667
21
25.9764604
0
LINE
8
DEFAULT_255_2_778
10
91.3742667
20
25.9764604
11
90.2989667
21
24.1765604
0
ARC
8
DEFAULT_255_2_778
10
89.9457887
20
24.17687
40
1.0001847
50
270.0167764
51
333.2562196
0
ARC
8
DEFAULT_255_2_778
10
86.3755457
20
25.9762748
40
4.9982459
50
333.2527372
51
347.4449807
0
ARC
8
DEFAULT_255_2_778
10
86.372239
20
25.9767073
40
5.0015676
50
347.4483793
51
359.9961133
0
LINE
8
DEFAULT_255_2_778
10
91.3738065
20
25.976368
11
91.3738065
21
25.9768228
0
ARC
8
DEFAULT_255_2_778
10
86.3750074
20
25.9771876
40
4.9987991
50
359.9958189
51
19.9790289
0
ARC
8
DEFAULT_255_2_778
10
86.371464
20
25.9754374
40
5.0027273
50
19.9840014
51
26.745231
0
ARC
8
DEFAULT_255_2_778
10
89.9459016
20
27.7768837
40
1.0000016
50
26.7373269
51
89.98969
0
LINE
8
DEFAULT_255_2_778
10
88.9739815
20
23.1766853
11
89.9460815
21
23.1766853
0
LINE
8
DEFAULT_255_2_778
10
89.9460815
20
28.7768853
11
88.9739815
21
28.7768853
0
LINE
8
DEFAULT_255_2_778
10
87.5740448
20
28.8765655
11
88.9739448
21
28.8765655
0
LINE
8
DEFAULT_255_2_778
10
88.9739448
20
28.8765655
11
88.9739448
21
23.0766655
0
LINE
8
DEFAULT_255_2_778
10
88.9739448
20
23.0766655
11
87.5740448
21
23.0766655
0
LINE
8
DEFAULT_255_2_778
10
87.574
20
29.176403
11
87.574
21
22.776403
0
LINE
8
DEFAULT_255_2_778
10
90.2989667
20
35.3964604
11
91.3742667
21
33.5964604
0
LINE
8
DEFAULT_255_2_778
10
91.3742667
20
33.5964604
11
90.2989667
21
31.7965604
0
ARC
8
DEFAULT_255_2_778
10
89.9457887
20
31.79687
40
1.0001847
50
270.0167764
51
333.2562196
0
ARC
8
DEFAULT_255_2_778
10
86.3755457
20
33.5962748
40
4.9982459
50
333.2527372
51
347.4449807
0
ARC
8
DEFAULT_255_2_778
10
86.372239
20
33.5967073
40
5.0015676
50
347.4483793
51
359.9961133
0
LINE
8
DEFAULT_255_2_778
10
91.3738065
20
33.596368
11
91.3738065
21
33.5968228
0
ARC
8
DEFAULT_255_2_778
10
86.3750074
20
33.5971876
40
4.9987991
50
359.9958189
51
19.9790289
0
ARC
8
DEFAULT_255_2_778
10
86.371464
20
33.5954374
40
5.0027273
50
19.9840014
51
26.745231
0
ARC
8
DEFAULT_255_2_778
10
89.9459016
20
35.3968837
40
1.0000016
50
26.7373269
51
89.98969
0
LINE
8
DEFAULT_255_2_778
10
88.9739815
20
30.7966853
11
89.9460815
21
30.7966853
0
LINE
8
DEFAULT_255_2_778
10
89.9460815
20
36.3968853
11
88.9739815
21
36.3968853
0
LINE
8
DEFAULT_255_2_778
10
87.5740448
20
36.4965655
11
88.9739448
21
36.4965655
0
LINE
8
DEFAULT_255_2_778
10
88.9739448
20
36.4965655
11
88.9739448
21
30.6966655
0
LINE
8
DEFAULT_255_2_778
10
88.9739448
20
30.6966655
11
87.5740448
21
30.6966655
0
LINE
8
DEFAULT_255_2_778
10
87.574
20
36.796403
11
87.574
21
30.396403
0
LINE
8
DEFAULT_255_2_778
10
90.2989667
20
43.0164604
11
91.3742667
21
41.2164604
0
LINE
8
DEFAULT_255_2_778
10
91.3742667
20
41.2164604
11
90.2989667
21
39.4165604
0
ARC
8
DEFAULT_255_2_778
10
89.9457887
20
39.41687
40
1.0001847
50
270.0167764
51
333.2562196
0
ARC
8
DEFAULT_255_2_778
10
86.3755457
20
41.2162748
40
4.9982459
50
333.2527372
51
347.4449807
0
ARC
8
DEFAULT_255_2_778
10
86.372239
20
41.2167073
40
5.0015676
50
347.4483793
51
359.9961133
0
LINE
8
DEFAULT_255_2_778
10
91.3738065
20
41.216368
11
91.3738065
21
41.2168228
0
ARC
8
DEFAULT_255_2_778
10
86.3750074
20
41.2171876
40
4.9987991
50
359.9958189
51
19.9790289
0
ARC
8
DEFAULT_255_2_778
10
86.371464
20
41.2154374
40
5.0027273
50
19.9840014
51
26.745231
0
ARC
8
DEFAULT_255_2_778
10
89.9459016
20
43.0168837
40
1.0000016
50
26.7373269
51
89.98969
0
LINE
8
DEFAULT_255_2_778
10
88.9739815
20
38.4166853
11
89.9460815
21
38.4166853
0
LINE
8
DEFAULT_255_2_778
10
89.9460815
20
44.0168853
11
88.9739815
21
44.0168853
0
LINE
8
DEFAULT_255_2_778
10
87.5740448
20
44.1165655
11
88.9739448
21
44.1165655
0
LINE
8
DEFAULT_255_2_778
10
88.9739448
20
44.1165655
11
88.9739448
21
38.3166655
0
LINE
8
DEFAULT_255_2_778
10
88.9739448
20
38.3166655
11
87.5740448
21
38.3166655
0
LINE
8
DEFAULT_255_2_778
10
87.574
20
44.416403
11
87.574
21
38.016403
0
LINE
8
DEFAULT_255_2_778
10
90.2989667
20
50.6364604
11
91.3742667
21
48.8364604
0
LINE
8
DEFAULT_255_2_778
10
91.3742667
20
48.8364604
11
90.2989667
21
47.0365604
0
ARC
8
DEFAULT_255_2_778
10
89.9457887
20
47.03687
40
1.0001847
50
270.0167764
51
333.2562196
0
ARC
8
DEFAULT_255_2_778
10
86.3755457
20
48.8362748
40
4.9982459
50
333.2527372
51
347.4449807
0
ARC
8
DEFAULT_255_2_778
10
86.372239
20
48.8367073
40
5.0015676
50
347.4483793
51
359.9961133
0
LINE
8
DEFAULT_255_2_778
10
91.3738065
20
48.836368
11
91.3738065
21
48.8368228
0
ARC
8
DEFAULT_255_2_778
10
86.3750074
20
48.8371876
40
4.9987991
50
359.9958189
51
19.9790289
0
ARC
8
DEFAULT_255_2_778
10
86.371464
20
48.8354374
40
5.0027273
50
19.9840014
51
26.745231
0
ARC
8
DEFAULT_255_2_778
10
89.9459016
20
50.6368837
40
1.0000016
50
26.7373269
51
89.98969
0
LINE
8
DEFAULT_255_2_778
10
88.9739815
20
46.0366853
11
89.9460815
21
46.0366853
0
LINE
8
DEFAULT_255_2_778
10
89.9460815
20
51.6368853
11
88.9739815
21
51.6368853
0
LINE
8
DEFAULT_255_2_778
10
87.5740448
20
51.7365655
11
88.9739448
21
51.7365655
0
LINE
8
DEFAULT_255_2_778
10
88.9739448
20
51.7365655
11
88.9739448
21
45.9366655
0
LINE
8
DEFAULT_255_2_778
10
88.9739448
20
45.9366655
11
87.5740448
21
45.9366655
0
LINE
8
DEFAULT_255_2_778
10
87.574
20
52.036403
11
87.574
21
45.636403
0
LINE
8
DEFAULT_255_2_778
10
90.2989667
20
58.2564604
11
91.3742667
21
56.4564604
0
LINE
8
DEFAULT_255_2_778
10
91.3742667
20
56.4564604
11
90.2989667
21
54.6565604
0
ARC
8
DEFAULT_255_2_778
10
89.9457887
20
54.65687
40
1.0001847
50
270.0167764
51
333.2562196
0
ARC
8
DEFAULT_255_2_778
10
86.3755457
20
56.4562748
40
4.9982459
50
333.2527372
51
347.4449807
0
ARC
8
DEFAULT_255_2_778
10
86.372239
20
56.4567073
40
5.0015676
50
347.4483793
51
359.9961133
0
LINE
8
DEFAULT_255_2_778
10
91.3738065
20
56.456368
11
91.3738065
21
56.4568228
0
ARC
8
DEFAULT_255_2_778
10
86.3750074
20
56.4571876
40
4.9987991
50
359.9958189
51
19.9790289
0
ARC
8
DEFAULT_255_2_778
10
86.371464
20
56.4554374
40
5.0027273
50
19.9840014
51
26.745231
0
ARC
8
DEFAULT_255_2_778
10
89.9459016
20
58.2568837
40
1.0000016
50
26.7373269
51
89.98969
0
LINE
8
DEFAULT_255_2_778
10
88.9739815
20
53.6566853
11
89.9460815
21
53.6566853
0
LINE
8
DEFAULT_255_2_778
10
89.9460815
20
59.2568853
11
88.9739815
21
59.2568853
0
LINE
8
DEFAULT_255_2_778
10
87.5740448
20
59.3565655
11
88.9739448
21
59.3565655
0
LINE
8
DEFAULT_255_2_778
10
88.9739448
20
59.3565655
11
88.9739448
21
53.5566655
0
LINE
8
DEFAULT_255_2_778
10
88.9739448
20
53.5566655
11
87.5740448
21
53.5566655
0
LINE
8
DEFAULT_255_2_778
10
87.574
20
59.656403
11
87.574
21
53.256403
0
LINE
8
DEFAULT_255_2_778
10
90.2989667
20
65.8764604
11
91.3742667
21
64.0764604
0
LINE
8
DEFAULT_255_2_778
10
91.3742667
20
64.0764604
11
90.2989667
21
62.2765604
0
ARC
8
DEFAULT_255_2_778
10
89.9457887
20
62.27687
40
1.0001847
50
270.0167764
51
333.2562196
0
ARC
8
DEFAULT_255_2_778
10
86.3755457
20
64.0762748
40
4.9982459
50
333.2527372
51
347.4449807
0
ARC
8
DEFAULT_255_2_778
10
86.372239
20
64.0767073
40
5.0015676
50
347.4483793
51
359.9961133
0
LINE
8
DEFAULT_255_2_778
10
91.3738065
20
64.076368
11
91.3738065
21
64.0768228
0
ARC
8
DEFAULT_255_2_778
10
86.3750074
20
64.0771876
40
4.9987991
50
359.9958189
51
19.9790289
0
ARC
8
DEFAULT_255_2_778
10
86.371464
20
64.0754374
40
5.0027273
50
19.9840014
51
26.745231
0
ARC
8
DEFAULT_255_2_778
10
89.9459016
20
65.8768837
40
1.0000016
50
26.7373269
51
89.98969
0
LINE
8
DEFAULT_255_2_778
10
88.9739815
20
61.2766853
11
89.9460815
21
61.2766853
0
LINE
8
DEFAULT_255_2_778
10
89.9460815
20
66.8768853
11
88.9739815
21
66.8768853
0
LINE
8
DEFAULT_255_2_778
10
87.5740448
20
66.9765655
11
88.9739448
21
66.9765655
0
LINE
8
DEFAULT_255_2_778
10
88.9739448
20
66.9765655
11
88.9739448
21
61.1766655
0
LINE
8
DEFAULT_255_2_778
10
88.9739448
20
61.1766655
11
87.5740448
21
61.1766655
0
LINE
8
DEFAULT_255_2_778
10
87.574
20
67.276403
11
87.574
21
60.876403
0
LINE
8
DEFAULT_255_2_778
10
95.3739338
20
22.7764
11
82.6366338
21
22.7764
0
LINE
8
DEFAULT_255_2_778
10
95.3739338
20
21.5564
11
82.6366338
21
21.5564
0
ARC
8
DEFAULT_255_2_778
10
81.2456887
20
20.36687
40
1.0001847
50
270.0167764
51
333.2562196
0
ARC
8
DEFAULT_255_2_778
10
77.6754457
20
22.1662748
40
4.9982459
50
333.2527372
51
347.4449807
0
ARC
8
DEFAULT_255_2_778
10
77.672139
20
22.1667073
40
5.0015676
50
347.4483793
51
359.9961133
0
LINE
8
DEFAULT_255_2_778
10
82.6737065
20
22.166368
11
82.6737065
21
22.1668228
0
ARC
8
DEFAULT_255_2_778
10
77.6749074
20
22.1671876
40
4.9987991
50
359.9958189
51
19.9790289
0
ARC
8
DEFAULT_255_2_778
10
77.671364
20
22.1654374
40
5.0027273
50
19.9840014
51
26.745231
0
ARC
8
DEFAULT_255_2_778
10
81.2458016
20
23.9668837
40
1.0000016
50
26.7373269
51
89.98969
0
LINE
8
DEFAULT_255_2_778
10
80.2738815
20
19.3666853
11
81.2459815
21
19.3666853
0
LINE
8
DEFAULT_255_2_778
10
81.2459815
20
24.9668853
11
80.2738815
21
24.9668853
0
LINE
8
DEFAULT_255_2_778
10
78.8740448
20
25.0665655
11
80.2739448
21
25.0665655
0
LINE
8
DEFAULT_255_2_778
10
80.2739448
20
25.0665655
11
80.2739448
21
19.2666655
0
LINE
8
DEFAULT_255_2_778
10
80.2739448
20
19.2666655
11
78.8740448
21
19.2666655
0
LINE
8
DEFAULT_255_2_778
10
81.5989667
20
20.3665604
11
82.6742667
21
22.1664604
0
LINE
8
DEFAULT_255_2_778
10
82.6742667
20
22.1664604
11
81.5989667
21
23.9664604
0
LINE
8
DEFAULT_255_2_778
10
78.874
20
25.366403
11
78.874
21
18.966403
0
LINE
8
DEFAULT_255_2_778
10
95.3739338
20
30.3964
11
82.6366338
21
30.3964
0
LINE
8
DEFAULT_255_2_778
10
95.3739338
20
29.1764
11
82.6366338
21
29.1764
0
ARC
8
DEFAULT_255_2_778
10
81.2456887
20
27.98687
40
1.0001847
50
270.0167764
51
333.2562196
0
ARC
8
DEFAULT_255_2_778
10
77.6754457
20
29.7862748
40
4.9982459
50
333.2527372
51
347.4449807
0
ARC
8
DEFAULT_255_2_778
10
77.672139
20
29.7867073
40
5.0015676
50
347.4483793
51
359.9961133
0
LINE
8
DEFAULT_255_2_778
10
82.6737065
20
29.786368
11
82.6737065
21
29.7868228
0
ARC
8
DEFAULT_255_2_778
10
77.6749074
20
29.7871876
40
4.9987991
50
359.9958189
51
19.9790289
0
ARC
8
DEFAULT_255_2_778
10
77.671364
20
29.7854374
40
5.0027273
50
19.9840014
51
26.745231
0
ARC
8
DEFAULT_255_2_778
10
81.2458016
20
31.5868837
40
1.0000016
50
26.7373269
51
89.98969
0
LINE
8
DEFAULT_255_2_778
10
80.2738815
20
26.9866853
11
81.2459815
21
26.9866853
0
LINE
8
DEFAULT_255_2_778
10
81.2459815
20
32.5868853
11
80.2738815
21
32.5868853
0
LINE
8
DEFAULT_255_2_778
10
78.8740448
20
32.6865655
11
80.2739448
21
32.6865655
0
LINE
8
DEFAULT_255_2_778
10
80.2739448
20
32.6865655
11
80.2739448
21
26.8866655
0
LINE
8
DEFAULT_255_2_778
10
80.2739448
20
26.8866655
11
78.8740448
21
26.8866655
0
LINE
8
DEFAULT_255_2_778
10
81.5989667
20
27.9865604
11
82.6742667
21
29.7864604
0
LINE
8
DEFAULT_255_2_778
10
82.6742667
20
29.7864604
11
81.5989667
21
31.5864604
0
LINE
8
DEFAULT_255_2_778
10
78.874
20
32.986403
11
78.874
21
26.586403
0
LINE
8
DEFAULT_255_2_778
10
95.3739338
20
38.0164
11
82.6366338
21
38.0164
0
LINE
8
DEFAULT_255_2_778
10
95.3739338
20
36.7964
11
82.6366338
21
36.7964
0
ARC
8
DEFAULT_255_2_778
10
81.2456887
20
35.60687
40
1.0001847
50
270.0167764
51
333.2562196
0
ARC
8
DEFAULT_255_2_778
10
77.6754457
20
37.4062748
40
4.9982459
50
333.2527372
51
347.4449807
0
ARC
8
DEFAULT_255_2_778
10
77.672139
20
37.4067073
40
5.0015676
50
347.4483793
51
359.9961133
0
LINE
8
DEFAULT_255_2_778
10
82.6737065
20
37.406368
11
82.6737065
21
37.4068228
0
ARC
8
DEFAULT_255_2_778
10
77.6749074
20
37.4071876
40
4.9987991
50
359.9958189
51
19.9790289
0
ARC
8
DEFAULT_255_2_778
10
77.671364
20
37.4054374
40
5.0027273
50
19.9840014
51
26.745231
0
ARC
8
DEFAULT_255_2_778
10
81.2458016
20
39.2068837
40
1.0000016
50
26.7373269
51
89.98969
0
LINE
8
DEFAULT_255_2_778
10
80.2738815
20
34.6066853
11
81.2459815
21
34.6066853
0
LINE
8
DEFAULT_255_2_778
10
81.2459815
20
40.2068853
11
80.2738815
21
40.2068853
0
LINE
8
DEFAULT_255_2_778
10
78.8740448
20
40.3063655
11
80.2739448
21
40.3063655
0
LINE
8
DEFAULT_255_2_778
10
80.2739448
20
40.3063655
11
80.2739448
21
34.5064655
0
LINE
8
DEFAULT_255_2_778
10
80.2739448
20
34.5064655
11
78.8740448
21
34.5064655
0
LINE
8
DEFAULT_255_2_778
10
81.5989667
20
35.6065604
11
82.6742667
21
37.4064604
0
LINE
8
DEFAULT_255_2_778
10
82.6742667
20
37.4064604
11
81.5989667
21
39.2064604
0
LINE
8
DEFAULT_255_2_778
10
78.874
20
40.606403
11
78.874
21
34.206403
0
LINE
8
DEFAULT_255_2_778
10
95.3739338
20
45.6364
11
82.6366338
21
45.6364
0
LINE
8
DEFAULT_255_2_778
10
95.3739338
20
44.4164
11
82.6366338
21
44.4164
0
ARC
8
DEFAULT_255_2_778
10
81.2456887
20
43.22687
40
1.0001847
50
270.0167764
51
333.2562196
0
ARC
8
DEFAULT_255_2_778
10
77.6754457
20
45.0262748
40
4.9982459
50
333.2527372
51
347.4449807
0
ARC
8
DEFAULT_255_2_778
10
77.672139
20
45.0267073
40
5.0015676
50
347.4483793
51
359.9961133
0
LINE
8
DEFAULT_255_2_778
10
82.6737065
20
45.026368
11
82.6737065
21
45.0268228
0
ARC
8
DEFAULT_255_2_778
10
77.6749074
20
45.0271876
40
4.9987991
50
359.9958189
51
19.9790289
0
ARC
8
DEFAULT_255_2_778
10
77.671364
20
45.0254374
40
5.0027273
50
19.9840014
51
26.745231
0
ARC
8
DEFAULT_255_2_778
10
81.2458016
20
46.8268837
40
1.0000016
50
26.7373269
51
89.98969
0
LINE
8
DEFAULT_255_2_778
10
80.2738815
20
42.2266853
11
81.2459815
21
42.2266853
0
LINE
8
DEFAULT_255_2_778
10
81.2459815
20
47.8268853
11
80.2738815
21
47.8268853
0
LINE
8
DEFAULT_255_2_778
10
78.8740448
20
47.9265655
11
80.2739448
21
47.9265655
0
LINE
8
DEFAULT_255_2_778
10
80.2739448
20
47.9265655
11
80.2739448
21
42.1266655
0
LINE
8
DEFAULT_255_2_778
10
80.2739448
20
42.1266655
11
78.8740448
21
42.1266655
0
LINE
8
DEFAULT_255_2_778
10
81.5989667
20
43.2265604
11
82.6742667
21
45.0264604
0
LINE
8
DEFAULT_255_2_778
10
82.6742667
20
45.0264604
11
81.5989667
21
46.8264604
0
LINE
8
DEFAULT_255_2_778
10
78.874
20
48.226403
11
78.874
21
41.826403
0
LINE
8
DEFAULT_255_2_778
10
95.3739338
20
53.2564
11
82.6366338
21
53.2564
0
LINE
8
DEFAULT_255_2_778
10
95.3739338
20
52.0364
11
82.6366338
21
52.0364
0
ARC
8
DEFAULT_255_2_778
10
81.2456887
20
50.84687
40
1.0001847
50
270.0167764
51
333.2562196
0
ARC
8
DEFAULT_255_2_778
10
77.6754457
20
52.6462748
40
4.9982459
50
333.2527372
51
347.4449807
0
ARC
8
DEFAULT_255_2_778
10
77.672139
20
52.6467073
40
5.0015676
50
347.4483793
51
359.9961133
0
LINE
8
DEFAULT_255_2_778
10
82.6737065
20
52.646368
11
82.6737065
21
52.6468228
0
ARC
8
DEFAULT_255_2_778
10
77.6749074
20
52.6471876
40
4.9987991
50
359.9958189
51
19.9790289
0
ARC
8
DEFAULT_255_2_778
10
77.671364
20
52.6454374
40
5.0027273
50
19.9840014
51
26.745231
0
ARC
8
DEFAULT_255_2_778
10
81.2458016
20
54.4468837
40
1.0000016
50
26.7373269
51
89.98969
0
LINE
8
DEFAULT_255_2_778
10
80.2738815
20
49.8466853
11
81.2459815
21
49.8466853
0
LINE
8
DEFAULT_255_2_778
10
81.2459815
20
55.4468853
11
80.2738815
21
55.4468853
0
LINE
8
DEFAULT_255_2_778
10
78.8740448
20
55.5465655
11
80.2739448
21
55.5465655
0
LINE
8
DEFAULT_255_2_778
10
80.2739448
20
55.5465655
11
80.2739448
21
49.7466655
0
LINE
8
DEFAULT_255_2_778
10
80.2739448
20
49.7466655
11
78.8740448
21
49.7466655
0
LINE
8
DEFAULT_255_2_778
10
81.5989667
20
50.8465604
11
82.6742667
21
52.6464604
0
LINE
8
DEFAULT_255_2_778
10
82.6742667
20
52.6464604
11
81.5989667
21
54.4464604
0
LINE
8
DEFAULT_255_2_778
10
78.874
20
55.846403
11
78.874
21
49.446403
0
LINE
8
DEFAULT_255_2_778
10
95.3739338
20
60.8764
11
82.6366338
21
60.8764
0
LINE
8
DEFAULT_255_2_778
10
95.3739338
20
59.6564
11
82.6366338
21
59.6564
0
ARC
8
DEFAULT_255_2_778
10
81.2456887
20
58.46687
40
1.0001847
50
270.0167764
51
333.2562196
0
ARC
8
DEFAULT_255_2_778
10
77.6754457
20
60.2662748
40
4.9982459
50
333.2527372
51
347.4449807
0
ARC
8
DEFAULT_255_2_778
10
77.672139
20
60.2667073
40
5.0015676
50
347.4483793
51
359.9961133
0
LINE
8
DEFAULT_255_2_778
10
82.6737065
20
60.266368
11
82.6737065
21
60.2668228
0
ARC
8
DEFAULT_255_2_778
10
77.6749074
20
60.2671876
40
4.9987991
50
359.9958189
51
19.9790289
0
ARC
8
DEFAULT_255_2_778
10
77.671364
20
60.2654374
40
5.0027273
50
19.9840014
51
26.745231
0
ARC
8
DEFAULT_255_2_778
10
81.2458016
20
62.0668837
40
1.0000016
50
26.7373269
51
89.98969
0
LINE
8
DEFAULT_255_2_778
10
80.2738815
20
57.4666853
11
81.2459815
21
57.4666853
0
LINE
8
DEFAULT_255_2_778
10
81.2459815
20
63.0668853
11
80.2738815
21
63.0668853
0
LINE
8
DEFAULT_255_2_778
10
78.8740448
20
63.1663655
11
80.2739448
21
63.1663655
0
LINE
8
DEFAULT_255_2_778
10
80.2739448
20
63.1663655
11
80.2739448
21
57.3664655
0
LINE
8
DEFAULT_255_2_778
10
80.2739448
20
57.3664655
11
78.8740448
21
57.3664655
0
LINE
8
DEFAULT_255_2_778
10
81.5989667
20
58.4665604
11
82.6742667
21
60.2664604
0
LINE
8
DEFAULT_255_2_778
10
82.6742667
20
60.2664604
11
81.5989667
21
62.0664604
0
LINE
8
DEFAULT_255_2_778
10
78.874
20
63.466403
11
78.874
21
57.066403
0
LINE
8
DEFAULT_255_2_778
10
95.3739338
20
68.4964
11
82.6366338
21
68.4964
0
LINE
8
DEFAULT_255_2_778
10
95.3739338
20
67.2764
11
82.6366338
21
67.2764
0
ARC
8
DEFAULT_255_2_778
10
81.2456887
20
66.08687
40
1.0001847
50
270.0167764
51
333.2562196
0
ARC
8
DEFAULT_255_2_778
10
77.6754457
20
67.8862748
40
4.9982459
50
333.2527372
51
347.4449807
0
ARC
8
DEFAULT_255_2_778
10
77.672139
20
67.8867073
40
5.0015676
50
347.4483793
51
359.9961133
0
LINE
8
DEFAULT_255_2_778
10
82.6737065
20
67.886368
11
82.6737065
21
67.8868228
0
ARC
8
DEFAULT_255_2_778
10
77.6749074
20
67.8871876
40
4.9987991
50
359.9958189
51
19.9790289
0
ARC
8
DEFAULT_255_2_778
10
77.671364
20
67.8854374
40
5.0027273
50
19.9840014
51
26.745231
0
ARC
8
DEFAULT_255_2_778
10
81.2458016
20
69.6868837
40
1.0000016
50
26.7373269
51
89.98969
0
LINE
8
DEFAULT_255_2_778
10
80.2738815
20
65.0866853
11
81.2459815
21
65.0866853
0
LINE
8
DEFAULT_255_2_778
10
81.2459815
20
70.6868853
11
80.2738815
21
70.6868853
0
LINE
8
DEFAULT_255_2_778
10
78.8740448
20
70.7865655
11
80.2739448
21
70.7865655
0
LINE
8
DEFAULT_255_2_778
10
80.2739448
20
70.7865655
11
80.2739448
21
64.9866655
0
LINE
8
DEFAULT_255_2_778
10
80.2739448
20
64.9866655
11
78.8740448
21
64.9866655
0
LINE
8
DEFAULT_255_2_778
10
81.5989667
20
66.0865604
11
82.6742667
21
67.8864604
0
LINE
8
DEFAULT_255_2_778
10
82.6742667
20
67.8864604
11
81.5989667
21
69.6864604
0
LINE
8
DEFAULT_255_2_778
10
78.874
20
71.086403
11
78.874
21
64.686403
0
LINE
8
DEFAULT_255_2_778
10
95.3739338
20
76.1164
11
82.6366338
21
76.1164
0
LINE
8
DEFAULT_255_2_778
10
95.3739338
20
74.8964
11
82.6366338
21
74.8964
0
ARC
8
DEFAULT_255_2_778
10
81.2456887
20
73.70687
40
1.0001847
50
270.0167764
51
333.2562196
0
ARC
8
DEFAULT_255_2_778
10
77.6754457
20
75.5062748
40
4.9982459
50
333.2527372
51
347.4449807
0
ARC
8
DEFAULT_255_2_778
10
77.672139
20
75.5067073
40
5.0015676
50
347.4483793
51
359.9961133
0
LINE
8
DEFAULT_255_2_778
10
82.6737065
20
75.506368
11
82.6737065
21
75.5068228
0
ARC
8
DEFAULT_255_2_778
10
77.6749074
20
75.5071876
40
4.9987991
50
359.9958189
51
19.9790289
0
ARC
8
DEFAULT_255_2_778
10
77.671364
20
75.5054374
40
5.0027273
50
19.9840014
51
26.745231
0
ARC
8
DEFAULT_255_2_778
10
81.2458016
20
77.3068837
40
1.0000016
50
26.7373269
51
89.98969
0
LINE
8
DEFAULT_255_2_778
10
80.2738815
20
72.7066853
11
81.2459815
21
72.7066853
0
LINE
8
DEFAULT_255_2_778
10
81.2459815
20
78.3068853
11
80.2738815
21
78.3068853
0
LINE
8
DEFAULT_255_2_778
10
78.8740448
20
78.4065655
11
80.2739448
21
78.4065655
0
LINE
8
DEFAULT_255_2_778
10
80.2739448
20
78.4065655
11
80.2739448
21
72.6066655
0
LINE
8
DEFAULT_255_2_778
10
80.2739448
20
72.6066655
11
78.8740448
21
72.6066655
0
LINE
8
DEFAULT_255_2_778
10
81.5989667
20
73.7065604
11
82.6742667
21
75.5064604
0
LINE
8
DEFAULT_255_2_778
10
82.6742667
20
75.5064604
11
81.5989667
21
77.3064604
0
LINE
8
DEFAULT_255_2_778
10
78.874
20
78.706403
11
78.874
21
72.306403
0
ARC
8
DEFAULT_255_2_778
10
89.9457887
20
69.89687
40
1.0001847
50
270.0167764
51
333.2562196
0
ARC
8
DEFAULT_255_2_778
10
86.3755457
20
71.6962748
40
4.9982459
50
333.2527372
51
347.4449807
0
ARC
8
DEFAULT_255_2_778
10
86.372239
20
71.6967073
40
5.0015676
50
347.4483793
51
359.9961133
0
LINE
8
DEFAULT_255_2_778
10
91.3738065
20
71.696368
11
91.3738065
21
71.6968228
0
ARC
8
DEFAULT_255_2_778
10
86.3750074
20
71.6971876
40
4.9987991
50
359.9958189
51
19.9790289
0
ARC
8
DEFAULT_255_2_778
10
86.371464
20
71.6954374
40
5.0027273
50
19.9840014
51
26.745231
0
ARC
8
DEFAULT_255_2_778
10
89.9459016
20
73.4968837
40
1.0000016
50
26.7373269
51
89.98969
0
LINE
8
DEFAULT_255_2_778
10
88.9739815
20
68.8966853
11
89.9460815
21
68.8966853
0
LINE
8
DEFAULT_255_2_778
10
89.9460815
20
74.4968853
11
88.9739815
21
74.4968853
0
LINE
8
DEFAULT_255_2_778
10
87.5740448
20
74.5965655
11
88.9739448
21
74.5965655
0
LINE
8
DEFAULT_255_2_778
10
88.9739448
20
74.5965655
11
88.9739448
21
68.7966655
0
LINE
8
DEFAULT_255_2_778
10
88.9739448
20
68.7966655
11
87.5740448
21
68.7966655
0
LINE
8
DEFAULT_255_2_778
10
90.2989667
20
73.4964604
11
91.3742667
21
71.6964604
0
LINE
8
DEFAULT_255_2_778
10
91.3742667
20
71.6964604
11
90.2989667
21
69.8965604
0
LINE
8
DEFAULT_255_2_778
10
87.574
20
74.896403
11
87.574
21
68.496403
0
ENDSEC
0
EOF