0
SECTION
2
HEADER
9
$MEASUREMENT
70
1
0
ENDSEC
0
SECTION
2
TABLES
0
TABLE
2
LTYPE
0
LTYPE
72
65
70
64
2
CONTINUOUS
3
______
73
0
40
0
0
ENDTAB
0
TABLE
2
LAYER
0
LAYER
2
DEFAULT_255_2_778
70
0
62
255
6
CONTINUOUS
0
ENDTAB
0
ENDSEC
0
SECTION
2
ENTITIES
0
LINE
8
DEFAULT_255_2_778
10
29.0719282
20
97.3204135
11
21.5718282
21
97.3204135
0
LINE
8
DEFAULT_255_2_778
10
21.5718282
20
97.3204135
11
21.5718282
21
100.8560135
0
LINE
8
DEFAULT_255_2_778
10
21.5718282
20
100.8560135
11
29.0719282
21
100.8560135
0
LINE
8
DEFAULT_255_2_778
10
29.0719282
20
100.8560135
11
29.0719282
21
97.3204135
0
LINE
8
DEFAULT_255_2_778
10
22.5219573
20
85.5382552
11
23.7218573
21
85.5382552
0
LINE
8
DEFAULT_255_2_778
10
23.7218573
20
85.5382552
11
23.7218573
21
84.1383552
0
LINE
8
DEFAULT_255_2_778
10
23.7218573
20
84.1383552
11
22.5219573
21
84.1383552
0
LINE
8
DEFAULT_255_2_778
10
22.5219573
20
84.1383552
11
22.5219573
21
85.5382552
0
LINE
8
DEFAULT_255_2_778
10
22.5219573
20
87.8382552
11
23.7218573
21
87.8382552
0
LINE
8
DEFAULT_255_2_778
10
23.7218573
20
87.8382552
11
23.7218573
21
86.4383552
0
LINE
8
DEFAULT_255_2_778
10
23.7218573
20
86.4383552
11
22.5219573
21
86.4383552
0
LINE
8
DEFAULT_255_2_778
10
22.5219573
20
86.4383552
11
22.5219573
21
87.8382552
0
LINE
8
DEFAULT_255_2_778
10
22.5219573
20
90.1382552
11
23.7218573
21
90.1382552
0
LINE
8
DEFAULT_255_2_778
10
23.7218573
20
90.1382552
11
23.7218573
21
88.7383552
0
LINE
8
DEFAULT_255_2_778
10
23.7218573
20
88.7383552
11
22.5219573
21
88.7383552
0
LINE
8
DEFAULT_255_2_778
10
22.5219573
20
88.7383552
11
22.5219573
21
90.1382552
0
LINE
8
DEFAULT_255_2_778
10
22.5219573
20
92.9380552
11
23.7218573
21
92.9380552
0
LINE
8
DEFAULT_255_2_778
10
23.7218573
20
92.9380552
11
23.7218573
21
91.5381552
0
LINE
8
DEFAULT_255_2_778
10
23.7218573
20
91.5381552
11
22.5219573
21
91.5381552
0
LINE
8
DEFAULT_255_2_778
10
22.5219573
20
91.5381552
11
22.5219573
21
92.9380552
0
LINE
8
DEFAULT_255_2_778
10
25.5218573
20
84.1383552
11
25.5218573
21
85.5382552
0
LINE
8
DEFAULT_255_2_778
10
25.5218573
20
85.5382552
11
26.7217573
21
85.5382552
0
LINE
8
DEFAULT_255_2_778
10
26.7217573
20
85.5382552
11
26.7217573
21
84.1383552
0
LINE
8
DEFAULT_255_2_778
10
26.7217573
20
84.1383552
11
25.5218573
21
84.1383552
0
LINE
8
DEFAULT_255_2_778
10
25.5218573
20
86.4383552
11
25.5218573
21
87.8382552
0
LINE
8
DEFAULT_255_2_778
10
25.5218573
20
87.8382552
11
26.7217573
21
87.8382552
0
LINE
8
DEFAULT_255_2_778
10
26.7217573
20
87.8382552
11
26.7217573
21
86.4383552
0
LINE
8
DEFAULT_255_2_778
10
26.7217573
20
86.4383552
11
25.5218573
21
86.4383552
0
LINE
8
DEFAULT_255_2_778
10
26.7217573
20
83.2381552
11
26.7217573
21
81.8382552
0
LINE
8
DEFAULT_255_2_778
10
26.7217573
20
81.8382552
11
25.5218573
21
81.8382552
0
LINE
8
DEFAULT_255_2_778
10
25.5218573
20
81.8382552
11
25.5218573
21
83.2381552
0
LINE
8
DEFAULT_255_2_778
10
25.5218573
20
83.2381552
11
26.7217573
21
83.2381552
0
LINE
8
DEFAULT_255_2_778
10
25.5218573
20
88.7383552
11
25.5218573
21
90.1382552
0
LINE
8
DEFAULT_255_2_778
10
25.5218573
20
90.1382552
11
26.7217573
21
90.1382552
0
LINE
8
DEFAULT_255_2_778
10
26.7217573
20
90.1382552
11
26.7217573
21
88.7383552
0
LINE
8
DEFAULT_255_2_778
10
26.7217573
20
88.7383552
11
25.5218573
21
88.7383552
0
LINE
8
DEFAULT_255_2_778
10
7.5219573
20
81.8382552
11
7.5219573
21
83.2381552
0
LINE
8
DEFAULT_255_2_778
10
7.5219573
20
83.2381552
11
8.7218573
21
83.2381552
0
LINE
8
DEFAULT_255_2_778
10
8.7218573
20
83.2381552
11
8.7218573
21
81.8382552
0
LINE
8
DEFAULT_255_2_778
10
8.7218573
20
81.8382552
11
7.5219573
21
81.8382552
0
LINE
8
DEFAULT_255_2_778
10
8.7218573
20
84.1383666
11
7.5219573
21
84.1383666
0
LINE
8
DEFAULT_255_2_778
10
7.5219573
20
84.1383666
11
7.5219573
21
85.5382666
0
LINE
8
DEFAULT_255_2_778
10
7.5219573
20
85.5382666
11
8.7218573
21
85.5382666
0
LINE
8
DEFAULT_255_2_778
10
8.7218573
20
85.5382666
11
8.7218573
21
84.1383666
0
LINE
8
DEFAULT_255_2_778
10
8.7218573
20
87.8382666
11
8.7218573
21
86.4383666
0
LINE
8
DEFAULT_255_2_778
10
8.7218573
20
86.4383666
11
7.5219573
21
86.4383666
0
LINE
8
DEFAULT_255_2_778
10
7.5219573
20
86.4383666
11
7.5219573
21
87.8382666
0
LINE
8
DEFAULT_255_2_778
10
7.5219573
20
87.8382666
11
8.7218573
21
87.8382666
0
LINE
8
DEFAULT_255_2_778
10
7.5219573
20
88.7383552
11
7.5219573
21
90.1382552
0
LINE
8
DEFAULT_255_2_778
10
7.5219573
20
90.1382552
11
8.7218573
21
90.1382552
0
LINE
8
DEFAULT_255_2_778
10
8.7218573
20
90.1382552
11
8.7218573
21
88.7383552
0
LINE
8
DEFAULT_255_2_778
10
8.7218573
20
88.7383552
11
7.5219573
21
88.7383552
0
LINE
8
DEFAULT_255_2_778
10
10.5218573
20
85.5382552
11
11.7217573
21
85.5382552
0
LINE
8
DEFAULT_255_2_778
10
11.7217573
20
85.5382552
11
11.7217573
21
84.1383552
0
LINE
8
DEFAULT_255_2_778
10
11.7217573
20
84.1383552
11
10.5218573
21
84.1383552
0
LINE
8
DEFAULT_255_2_778
10
10.5218573
20
84.1383552
11
10.5218573
21
85.5382552
0
LINE
8
DEFAULT_255_2_778
10
10.5218573
20
87.8382552
11
11.7217573
21
87.8382552
0
LINE
8
DEFAULT_255_2_778
10
11.7217573
20
87.8382552
11
11.7217573
21
86.4383552
0
LINE
8
DEFAULT_255_2_778
10
11.7217573
20
86.4383552
11
10.5218573
21
86.4383552
0
LINE
8
DEFAULT_255_2_778
10
10.5218573
20
86.4383552
11
10.5218573
21
87.8382552
0
LINE
8
DEFAULT_255_2_778
10
10.5218573
20
90.1382552
11
11.7217573
21
90.1382552
0
LINE
8
DEFAULT_255_2_778
10
11.7217573
20
90.1382552
11
11.7217573
21
88.7383552
0
LINE
8
DEFAULT_255_2_778
10
11.7217573
20
88.7383552
11
10.5218573
21
88.7383552
0
LINE
8
DEFAULT_255_2_778
10
10.5218573
20
88.7383552
11
10.5218573
21
90.1382552
0
LINE
8
DEFAULT_255_2_778
10
10.5218573
20
83.2381552
11
11.7217573
21
83.2381552
0
LINE
8
DEFAULT_255_2_778
10
11.7217573
20
83.2381552
11
11.7217573
21
81.8382552
0
LINE
8
DEFAULT_255_2_778
10
11.7217573
20
81.8382552
11
10.5218573
21
81.8382552
0
LINE
8
DEFAULT_255_2_778
10
10.5218573
20
81.8382552
11
10.5218573
21
83.2381552
0
LINE
8
DEFAULT_255_2_778
10
4.5218573
20
88.7383552
11
4.5218573
21
90.1382552
0
LINE
8
DEFAULT_255_2_778
10
4.5218573
20
90.1382552
11
5.7217573
21
90.1382552
0
LINE
8
DEFAULT_255_2_778
10
5.7217573
20
90.1382552
11
5.7217573
21
88.7383552
0
LINE
8
DEFAULT_255_2_778
10
5.7217573
20
88.7383552
11
4.5218573
21
88.7383552
0
LINE
8
DEFAULT_255_2_778
10
4.5218573
20
86.4383552
11
4.5218573
21
87.8382552
0
LINE
8
DEFAULT_255_2_778
10
4.5218573
20
87.8382552
11
5.7217573
21
87.8382552
0
LINE
8
DEFAULT_255_2_778
10
5.7217573
20
87.8382552
11
5.7217573
21
86.4383552
0
LINE
8
DEFAULT_255_2_778
10
5.7217573
20
86.4383552
11
4.5218573
21
86.4383552
0
LINE
8
DEFAULT_255_2_778
10
4.5218573
20
83.2381552
11
5.7217573
21
83.2381552
0
LINE
8
DEFAULT_255_2_778
10
5.7217573
20
83.2381552
11
5.7217573
21
81.8382552
0
LINE
8
DEFAULT_255_2_778
10
5.7217573
20
81.8382552
11
4.5218573
21
81.8382552
0
LINE
8
DEFAULT_255_2_778
10
4.5218573
20
81.8382552
11
4.5218573
21
83.2381552
0
LINE
8
DEFAULT_255_2_778
10
5.7217573
20
85.5382552
11
5.7217573
21
84.1383552
0
LINE
8
DEFAULT_255_2_778
10
5.7217573
20
84.1383552
11
4.5218573
21
84.1383552
0
LINE
8
DEFAULT_255_2_778
10
4.5218573
20
84.1383552
11
4.5218573
21
85.5382552
0
LINE
8
DEFAULT_255_2_778
10
4.5218573
20
85.5382552
11
5.7217573
21
85.5382552
0
LINE
8
DEFAULT_255_2_778
10
13.5219573
20
90.1382552
11
14.7218573
21
90.1382552
0
LINE
8
DEFAULT_255_2_778
10
14.7218573
20
90.1382552
11
14.7218573
21
88.7383552
0
LINE
8
DEFAULT_255_2_778
10
14.7218573
20
88.7383552
11
13.5219573
21
88.7383552
0
LINE
8
DEFAULT_255_2_778
10
13.5219573
20
88.7383552
11
13.5219573
21
90.1382552
0
LINE
8
DEFAULT_255_2_778
10
13.5219573
20
83.2381552
11
14.7218573
21
83.2381552
0
LINE
8
DEFAULT_255_2_778
10
14.7218573
20
83.2381552
11
14.7218573
21
81.8382552
0
LINE
8
DEFAULT_255_2_778
10
14.7218573
20
81.8382552
11
13.5219573
21
81.8382552
0
LINE
8
DEFAULT_255_2_778
10
13.5219573
20
81.8382552
11
13.5219573
21
83.2381552
0
LINE
8
DEFAULT_255_2_778
10
13.5219573
20
85.5382552
11
14.7218573
21
85.5382552
0
LINE
8
DEFAULT_255_2_778
10
14.7218573
20
85.5382552
11
14.7218573
21
84.1383552
0
LINE
8
DEFAULT_255_2_778
10
14.7218573
20
84.1383552
11
13.5219573
21
84.1383552
0
LINE
8
DEFAULT_255_2_778
10
13.5219573
20
84.1383552
11
13.5219573
21
85.5382552
0
LINE
8
DEFAULT_255_2_778
10
14.7218573
20
86.4383552
11
13.5219573
21
86.4383552
0
LINE
8
DEFAULT_255_2_778
10
13.5219573
20
86.4383552
11
13.5219573
21
87.8382552
0
LINE
8
DEFAULT_255_2_778
10
13.5219573
20
87.8382552
11
14.7218573
21
87.8382552
0
LINE
8
DEFAULT_255_2_778
10
14.7218573
20
87.8382552
11
14.7218573
21
86.4383552
0
LINE
8
DEFAULT_255_2_778
10
19.5218573
20
81.8382552
11
19.5218573
21
83.2381552
0
LINE
8
DEFAULT_255_2_778
10
19.5218573
20
83.2381552
11
20.7217573
21
83.2381552
0
LINE
8
DEFAULT_255_2_778
10
20.7217573
20
83.2381552
11
20.7217573
21
81.8382552
0
LINE
8
DEFAULT_255_2_778
10
20.7217573
20
81.8382552
11
19.5218573
21
81.8382552
0
LINE
8
DEFAULT_255_2_778
10
19.5218573
20
86.4383552
11
19.5218573
21
87.8382552
0
LINE
8
DEFAULT_255_2_778
10
19.5218573
20
87.8382552
11
20.7217573
21
87.8382552
0
LINE
8
DEFAULT_255_2_778
10
20.7217573
20
87.8382552
11
20.7217573
21
86.4383552
0
LINE
8
DEFAULT_255_2_778
10
20.7217573
20
86.4383552
11
19.5218573
21
86.4383552
0
LINE
8
DEFAULT_255_2_778
10
19.5218573
20
88.7383552
11
19.5218573
21
90.1382552
0
LINE
8
DEFAULT_255_2_778
10
19.5218573
20
90.1382552
11
20.7217573
21
90.1382552
0
LINE
8
DEFAULT_255_2_778
10
20.7217573
20
90.1382552
11
20.7217573
21
88.7383552
0
LINE
8
DEFAULT_255_2_778
10
20.7217573
20
88.7383552
11
19.5218573
21
88.7383552
0
LINE
8
DEFAULT_255_2_778
10
19.5218573
20
84.1383552
11
19.5218573
21
85.5382552
0
LINE
8
DEFAULT_255_2_778
10
19.5218573
20
85.5382552
11
20.7217573
21
85.5382552
0
LINE
8
DEFAULT_255_2_778
10
20.7217573
20
85.5382552
11
20.7217573
21
84.1383552
0
LINE
8
DEFAULT_255_2_778
10
20.7217573
20
84.1383552
11
19.5218573
21
84.1383552
0
LINE
8
DEFAULT_255_2_778
10
22.5219573
20
83.2381552
11
23.7218573
21
83.2381552
0
LINE
8
DEFAULT_255_2_778
10
23.7218573
20
83.2381552
11
23.7218573
21
81.8382552
0
LINE
8
DEFAULT_255_2_778
10
23.7218573
20
81.8382552
11
22.5219573
21
81.8382552
0
LINE
8
DEFAULT_255_2_778
10
22.5219573
20
81.8382552
11
22.5219573
21
83.2381552
0
LINE
8
DEFAULT_255_2_778
10
16.5217573
20
83.2381552
11
17.7216573
21
83.2381552
0
LINE
8
DEFAULT_255_2_778
10
17.7216573
20
83.2381552
11
17.7216573
21
81.8382552
0
LINE
8
DEFAULT_255_2_778
10
17.7216573
20
81.8382552
11
16.5217573
21
81.8382552
0
LINE
8
DEFAULT_255_2_778
10
16.5217573
20
81.8382552
11
16.5217573
21
83.2381552
0
LINE
8
DEFAULT_255_2_778
10
16.5217573
20
88.7383552
11
16.5217573
21
90.1382552
0
LINE
8
DEFAULT_255_2_778
10
16.5217573
20
90.1382552
11
17.7216573
21
90.1382552
0
LINE
8
DEFAULT_255_2_778
10
17.7216573
20
90.1382552
11
17.7216573
21
88.7383552
0
LINE
8
DEFAULT_255_2_778
10
17.7216573
20
88.7383552
11
16.5217573
21
88.7383552
0
LINE
8
DEFAULT_255_2_778
10
16.5217573
20
86.4383552
11
16.5217573
21
87.8382552
0
LINE
8
DEFAULT_255_2_778
10
16.5217573
20
87.8382552
11
17.7216573
21
87.8382552
0
LINE
8
DEFAULT_255_2_778
10
17.7216573
20
87.8382552
11
17.7216573
21
86.4383552
0
LINE
8
DEFAULT_255_2_778
10
17.7216573
20
86.4383552
11
16.5217573
21
86.4383552
0
LINE
8
DEFAULT_255_2_778
10
16.5217573
20
84.1383552
11
16.5217573
21
85.5382552
0
LINE
8
DEFAULT_255_2_778
10
16.5217573
20
85.5382552
11
17.7216573
21
85.5382552
0
LINE
8
DEFAULT_255_2_778
10
17.7216573
20
85.5382552
11
17.7216573
21
84.1383552
0
LINE
8
DEFAULT_255_2_778
10
17.7216573
20
84.1383552
11
16.5217573
21
84.1383552
0
LINE
8
DEFAULT_255_2_778
10
30.2219
20
81.0381853
11
30.2219
21
2.2880853
0
LINE
8
DEFAULT_255_2_778
10
30.2219
20
1.3379853
11
30.2219
21
2.2880853
0
LINE
8
DEFAULT_255_2_778
10
30.2218461
20
1.3380208
11
32.3218461
21
1.3380208
0
LINE
8
DEFAULT_255_2_778
10
32.3218461
20
1.3380208
11
32.3218461
21
3.7880208
0
LINE
8
DEFAULT_255_2_778
10
32.3218461
20
3.7880208
11
31.3219461
21
3.7880208
0
LINE
8
DEFAULT_255_2_778
10
31.3219461
20
3.7880208
11
31.3219461
21
2.2881208
0
LINE
8
DEFAULT_255_2_778
10
31.3219461
20
2.2881208
11
30.2221461
21
2.2881208
0
LINE
8
DEFAULT_255_2_778
10
19.3218461
20
1.3382208
11
30.2218461
21
1.3382208
0
LINE
8
DEFAULT_255_2_778
10
19.3220461
20
1.3382208
11
18.2222461
21
1.3382208
0
LINE
8
DEFAULT_255_2_778
10
14.5217461
20
1.3382208
11
18.2216461
21
1.3382208
0
LINE
8
DEFAULT_255_2_778
10
19.3221648
20
1.3383145
11
19.3221648
21
-0.1615855
0
LINE
8
DEFAULT_255_2_778
10
19.3221648
20
-0.1615855
11
18.2222648
21
-0.1615855
0
LINE
8
DEFAULT_255_2_778
10
18.2222648
20
-0.1615855
11
18.2222648
21
1.3383145
0
LINE
8
DEFAULT_255_2_778
10
14.5220648
20
1.3383145
11
13.4219648
21
1.3383145
0
LINE
8
DEFAULT_255_2_778
10
0.2218648
20
81.0382145
11
0.2218648
21
2.4882145
0
LINE
8
DEFAULT_255_2_778
10
0.2218648
20
2.4882145
11
1.1719648
21
2.4882145
0
LINE
8
DEFAULT_255_2_778
10
1.1719648
20
2.4882145
11
1.1719648
21
5.0382145
0
LINE
8
DEFAULT_255_2_778
10
1.1719648
20
5.0382145
11
2.5218648
21
5.0382145
0
LINE
8
DEFAULT_255_2_778
10
2.5218648
20
5.0382145
11
2.5218648
21
1.3383145
0
LINE
8
DEFAULT_255_2_778
10
2.5218648
20
1.3383145
11
13.4219648
21
1.3383145
0
LINE
8
DEFAULT_255_2_778
10
14.5220775
20
1.3382434
11
14.5220775
21
-0.1616566
0
LINE
8
DEFAULT_255_2_778
10
14.5220775
20
-0.1616566
11
13.4219775
21
-0.1616566
0
LINE
8
DEFAULT_255_2_778
10
13.4219775
20
-0.1616566
11
13.4219775
21
1.3382434
0
LINE
8
DEFAULT_255_2_778
10
0.2218775
20
81.2382434
11
0.2218775
21
96.1382434
0
LINE
8
DEFAULT_255_2_778
10
0.2218775
20
96.3382434
11
0.2218775
21
96.1382434
0
LINE
8
DEFAULT_255_2_778
10
30.2218775
20
96.1382434
11
0.2218775
21
96.1382434
0
LINE
8
DEFAULT_255_2_778
10
0.2218775
20
96.3379434
11
0.2218775
21
96.8380434
0
LINE
8
DEFAULT_255_2_778
10
30.2218775
20
96.8380456
11
0.2218775
21
96.8380456
0
LINE
8
DEFAULT_255_2_778
10
12.3717775
20
101.3380456
11
2.5218775
21
101.3380456
0
LINE
8
DEFAULT_255_2_778
10
2.5218775
20
101.3380456
11
2.5218775
21
97.6381456
0
LINE
8
DEFAULT_255_2_778
10
2.5218775
20
97.6381456
11
1.1719775
21
97.6381456
0
LINE
8
DEFAULT_255_2_778
10
1.1719775
20
97.6381456
11
1.1719775
21
99.1880456
0
LINE
8
DEFAULT_255_2_778
10
1.1719775
20
99.1880456
11
0.2218775
21
99.1880456
0
LINE
8
DEFAULT_255_2_778
10
0.2218775
20
99.1880456
11
0.2218775
21
96.8380456
0
LINE
8
DEFAULT_255_2_778
10
30.2218775
20
96.3382456
11
0.2218775
21
96.3382456
0
LINE
8
DEFAULT_255_2_778
10
0.2218775
20
81.2381456
11
0.2218775
21
81.0381456
0
LINE
8
DEFAULT_255_2_778
10
30.2218775
20
81.0381456
11
0.2218775
21
81.0381456
0
LINE
8
DEFAULT_255_2_778
10
30.2218775
20
81.2381331
11
0.2218775
21
81.2381331
0
LINE
8
DEFAULT_255_2_778
10
14.5217775
20
101.3380331
11
16.3217775
21
101.3380331
0
LINE
8
DEFAULT_255_2_778
10
18.2217586
20
101.3381332
11
16.3217586
21
101.3381332
0
LINE
8
DEFAULT_255_2_778
10
16.3217586
20
105.8381332
11
16.3217586
21
101.3381332
0
LINE
8
DEFAULT_255_2_778
10
16.3217586
20
99.0648332
11
16.3217586
21
101.3381332
0
LINE
8
DEFAULT_255_2_778
10
19.3218586
20
101.3381332
11
20.2717586
21
101.3381332
0
LINE
8
DEFAULT_255_2_778
10
30.2218586
20
96.8380332
11
30.2218586
21
99.3881332
0
LINE
8
DEFAULT_255_2_778
10
30.2218586
20
99.3881332
11
31.3217586
21
99.3881332
0
LINE
8
DEFAULT_255_2_778
10
31.3217586
20
99.3881332
11
31.3217586
21
97.8882332
0
LINE
8
DEFAULT_255_2_778
10
31.3217586
20
97.8882332
11
32.3216586
21
97.8882332
0
LINE
8
DEFAULT_255_2_778
10
32.3216586
20
97.8882332
11
32.3216586
21
101.3381332
0
LINE
8
DEFAULT_255_2_778
10
32.3216586
20
101.3381332
11
20.2720586
21
101.3381332
0
LINE
8
DEFAULT_255_2_778
10
16.3217355
20
105.8381166
11
18.7717355
21
105.8381166
0
LINE
8
DEFAULT_255_2_778
10
18.7717355
20
105.8381166
11
20.2716355
21
104.3382166
0
LINE
8
DEFAULT_255_2_778
10
20.2716355
20
104.3382166
11
20.2716355
21
101.3381166
0
LINE
8
DEFAULT_255_2_778
10
13.4218355
20
101.3381166
11
12.3717355
21
101.3381166
0
LINE
8
DEFAULT_255_2_778
10
16.3217355
20
105.8381166
11
13.8716355
21
105.8381166
0
LINE
8
DEFAULT_255_2_778
10
13.8716355
20
105.8381166
11
12.3717355
21
104.3382166
0
LINE
8
DEFAULT_255_2_778
10
12.3717355
20
104.3382166
11
12.3717355
21
101.3381166
0
LINE
8
DEFAULT_255_2_778
10
18.2219355
20
101.3381166
11
19.3218355
21
101.3381166
0
LINE
8
DEFAULT_255_2_778
10
18.2220282
20
101.3383937
11
18.2220282
21
102.8382937
0
LINE
8
DEFAULT_255_2_778
10
18.2220282
20
102.8382937
11
19.3218282
21
102.8382937
0
LINE
8
DEFAULT_255_2_778
10
19.3218282
20
102.8382937
11
19.3218282
21
101.3383937
0
LINE
8
DEFAULT_255_2_778
10
14.5220282
20
101.3380937
11
13.4219282
21
101.3380937
0
LINE
8
DEFAULT_255_2_778
10
14.5220086
20
101.3383894
11
14.5220086
21
102.8382894
0
LINE
8
DEFAULT_255_2_778
10
14.5220086
20
102.8382894
11
13.4219086
21
102.8382894
0
LINE
8
DEFAULT_255_2_778
10
13.4219086
20
102.8382894
11
13.4219086
21
101.3383894
0
LINE
8
DEFAULT_255_2_778
10
30.2219086
20
96.3382894
11
30.2219086
21
96.1382894
0
LINE
8
DEFAULT_255_2_778
10
30.2219086
20
81.2381894
11
30.2219086
21
96.1382894
0
LINE
8
DEFAULT_255_2_778
10
30.2219086
20
96.3379894
11
30.2219086
21
96.8380894
0
LINE
8
DEFAULT_255_2_778
10
30.2219086
20
81.2381894
11
30.2219086
21
81.0381894
0
LINE
8
DEFAULT_255_2_778
10
23.4218086
20
12.5481894
11
22.4318086
21
12.5481894
0
LINE
8
DEFAULT_255_2_778
10
21.8219086
20
11.5482894
11
22.4320086
21
11.5482894
0
LINE
8
DEFAULT_255_2_778
10
23.4218086
20
11.5482894
11
22.4318086
21
11.5482894
0
LINE
8
DEFAULT_255_2_778
10
23.4219168
20
66.1283482
11
22.4318168
21
66.1283482
0
LINE
8
DEFAULT_255_2_778
10
22.4318168
20
66.1283482
11
22.4318168
21
11.5482482
0
LINE
8
DEFAULT_255_2_778
10
15.2219168
20
67.1279482
11
15.2219168
21
66.1283482
0
LINE
8
DEFAULT_255_2_778
10
15.2219168
20
39.3382482
11
15.2219168
21
66.1283482
0
LINE
8
DEFAULT_255_2_778
10
16.2120168
20
39.3382482
11
16.2120168
21
66.1283482
0
LINE
8
DEFAULT_255_2_778
10
16.2120168
20
66.1283482
11
15.2219168
21
66.1283482
0
LINE
8
DEFAULT_255_2_778
10
16.2120168
20
39.3382482
11
16.2120168
21
12.5481482
0
LINE
8
DEFAULT_255_2_778
10
16.2120168
20
11.5482482
11
16.2120168
21
12.5481482
0
LINE
8
DEFAULT_255_2_778
10
15.2219168
20
12.5481482
11
16.2120168
21
12.5481482
0
LINE
8
DEFAULT_255_2_778
10
15.2219168
20
11.5482482
11
16.2120168
21
11.5482482
0
LINE
8
DEFAULT_255_2_778
10
16.8221168
20
11.5482482
11
16.2122168
21
11.5482482
0
LINE
8
DEFAULT_255_2_778
10
15.2219168
20
39.3382482
11
15.2219168
21
12.5481482
0
LINE
8
DEFAULT_255_2_778
10
15.2219168
20
11.5482147
11
15.2219168
21
12.5481147
0
LINE
8
DEFAULT_255_2_778
10
20.8218168
20
4.2881147
11
23.4219168
21
4.2881147
0
LINE
8
DEFAULT_255_2_778
10
23.4219168
20
4.2881147
11
23.4219168
21
74.3881147
0
LINE
8
DEFAULT_255_2_778
10
23.4219168
20
74.3881147
11
19.3219168
21
74.3881147
0
LINE
8
DEFAULT_255_2_778
10
15.2219168
20
70.7279147
11
15.2219168
21
74.3878147
0
LINE
8
DEFAULT_255_2_778
10
15.2219168
20
74.3878147
11
19.3219168
21
74.3878147
0
LINE
8
DEFAULT_255_2_778
10
20.8218168
20
74.2381147
11
19.3219168
21
74.2381147
0
LINE
8
DEFAULT_255_2_778
10
17.8220168
20
74.2381147
11
19.3219168
21
74.2381147
0
LINE
8
DEFAULT_255_2_778
10
21.8219168
20
71.9180147
11
19.3219168
21
71.9180147
0
LINE
8
DEFAULT_255_2_778
10
16.8218168
20
71.9180147
11
19.3219168
21
71.9180147
0
LINE
8
DEFAULT_255_2_778
10
21.8219168
20
69.7780147
11
19.3219168
21
69.7780147
0
LINE
8
DEFAULT_255_2_778
10
16.8218168
20
69.7780147
11
19.3219168
21
69.7780147
0
LINE
8
DEFAULT_255_2_778
10
21.8219168
20
71.2380147
11
19.3219168
21
71.2380147
0
LINE
8
DEFAULT_255_2_778
10
16.8218146
20
71.2379645
11
19.3218146
21
71.2379645
0
LINE
8
DEFAULT_255_2_778
10
17.8219146
20
64.6588645
11
19.3218146
21
64.6588645
0
LINE
8
DEFAULT_255_2_778
10
20.8218146
20
64.6588645
11
19.3218146
21
64.6588645
0
LINE
8
DEFAULT_255_2_778
10
20.8217146
20
64.6588874
11
20.8217146
21
64.5061874
0
LINE
8
DEFAULT_255_2_778
10
20.8217146
20
64.5061874
11
19.3218146
21
64.5061874
0
LINE
8
DEFAULT_255_2_778
10
17.8219146
20
64.6588874
11
17.8219146
21
64.5061874
0
LINE
8
DEFAULT_255_2_778
10
17.8219146
20
64.5061874
11
19.3218146
21
64.5061874
0
LINE
8
DEFAULT_255_2_778
10
21.8219146
20
68.5479874
11
19.3218146
21
68.5479874
0
LINE
8
DEFAULT_255_2_778
10
16.8218146
20
68.5479874
11
19.3218146
21
68.5479874
0
LINE
8
DEFAULT_255_2_778
10
20.8218146
20
73.6565874
11
19.3218146
21
73.6565874
0
LINE
8
DEFAULT_255_2_778
10
17.8219771
20
73.6565669
11
19.3218771
21
73.6565669
0
LINE
8
DEFAULT_255_2_778
10
17.8219771
20
65.2880669
11
19.3218771
21
65.2880669
0
LINE
8
DEFAULT_255_2_778
10
20.8217771
20
65.2880669
11
19.3218771
21
65.2880669
0
LINE
8
DEFAULT_255_2_778
10
17.8219771
20
14.0176669
11
19.3218771
21
14.0176669
0
LINE
8
DEFAULT_255_2_778
10
20.8217771
20
14.0176669
11
19.3218771
21
14.0176669
0
LINE
8
DEFAULT_255_2_778
10
20.8218146
20
14.0175519
11
20.8218146
21
14.1702519
0
LINE
8
DEFAULT_255_2_778
10
20.8218146
20
14.1702519
11
19.3218146
21
14.1702519
0
LINE
8
DEFAULT_255_2_778
10
17.8219146
20
14.0175519
11
17.8219146
21
14.1702519
0
LINE
8
DEFAULT_255_2_778
10
17.8219146
20
14.1702519
11
19.3218146
21
14.1702519
0
LINE
8
DEFAULT_255_2_778
10
17.8219146
20
4.4383519
11
19.3218146
21
4.4383519
0
LINE
8
DEFAULT_255_2_778
10
20.8218146
20
4.4383519
11
19.3218146
21
4.4383519
0
LINE
8
DEFAULT_255_2_778
10
16.8218146
20
6.7582519
11
19.3218146
21
6.7582519
0
LINE
8
DEFAULT_255_2_778
10
21.8219522
20
6.7582395
11
19.3218522
21
6.7582395
0
LINE
8
DEFAULT_255_2_778
10
20.8218522
20
5.0196395
11
19.3218522
21
5.0196395
0
LINE
8
DEFAULT_255_2_778
10
17.8219522
20
5.0196395
11
19.3218522
21
5.0196395
0
LINE
8
DEFAULT_255_2_778
10
17.8219522
20
13.3881395
11
19.3218522
21
13.3881395
0
LINE
8
DEFAULT_255_2_778
10
20.8218522
20
13.3881395
11
19.3218522
21
13.3881395
0
LINE
8
DEFAULT_255_2_778
10
16.8218522
20
10.1282395
11
19.3218522
21
10.1282395
0
LINE
8
DEFAULT_255_2_778
10
21.8219522
20
10.1282395
11
19.3218522
21
10.1282395
0
LINE
8
DEFAULT_255_2_778
10
16.8218522
20
8.8981395
11
19.3218522
21
8.8981395
0
LINE
8
DEFAULT_255_2_778
10
21.8219522
20
8.8981395
11
19.3218522
21
8.8981395
0
LINE
8
DEFAULT_255_2_778
10
16.8218522
20
7.4382395
11
19.3218522
21
7.4382395
0
LINE
8
DEFAULT_255_2_778
10
21.8219522
20
7.4382395
11
19.3218522
21
7.4382395
0
LINE
8
DEFAULT_255_2_778
10
17.8219522
20
4.2880395
11
19.3218522
21
4.2880395
0
LINE
8
DEFAULT_255_2_778
10
20.8218522
20
4.2880395
11
19.3218522
21
4.2880395
0
LINE
8
DEFAULT_255_2_778
10
14.671848
20
39.3383448
11
14.671848
21
3.7883448
0
LINE
8
DEFAULT_255_2_778
10
14.671848
20
3.7883448
11
23.971948
21
3.7883448
0
LINE
8
DEFAULT_255_2_778
10
23.971948
20
3.7883448
11
23.971948
21
39.3383448
0
LINE
8
DEFAULT_255_2_778
10
14.671848
20
39.3383448
11
14.671848
21
74.8882448
0
LINE
8
DEFAULT_255_2_778
10
14.671848
20
74.8882448
11
23.971948
21
74.8882448
0
LINE
8
DEFAULT_255_2_778
10
23.971948
20
74.8882448
11
23.971948
21
39.3383448
0
LINE
8
DEFAULT_255_2_778
10
21.8219323
20
7.9484012
11
23.4218323
21
7.9484012
0
LINE
8
DEFAULT_255_2_778
10
21.8219323
20
70.7282012
11
23.4218323
21
70.7282012
0
LINE
8
DEFAULT_255_2_778
10
21.8219168
20
67.1279152
11
23.4219168
21
67.1279152
0
LINE
8
DEFAULT_255_2_778
10
15.2219168
20
11.5482152
11
15.2219168
21
7.9483152
0
LINE
8
DEFAULT_255_2_778
10
16.8218168
20
7.9483152
11
15.2219168
21
7.9483152
0
LINE
8
DEFAULT_255_2_778
10
17.8220168
20
4.2881152
11
15.2219168
21
4.2881152
0
LINE
8
DEFAULT_255_2_778
10
15.2219168
20
4.2881152
11
15.2219168
21
7.9481152
0
LINE
8
DEFAULT_255_2_778
10
15.2219168
20
67.1282152
11
15.2219168
21
70.7281152
0
LINE
8
DEFAULT_255_2_778
10
16.8218168
20
70.7281152
11
15.2219168
21
70.7281152
0
LINE
8
DEFAULT_255_2_778
10
16.8218168
20
67.1279152
11
15.2219168
21
67.1279152
0
LINE
8
DEFAULT_255_2_778
10
16.3218168
20
108.7879152
11
16.3218168
21
105.8381152
0
LINE
8
DEFAULT_255_2_778
10
16.8218522
20
7.4382395
11
16.8218522
21
7.9480395
0
LINE
8
DEFAULT_255_2_778
10
16.8218522
20
8.8981395
11
16.8218522
21
7.9480395
0
LINE
8
DEFAULT_255_2_778
10
16.8218522
20
10.1282395
11
16.8218522
21
11.5482395
0
LINE
8
DEFAULT_255_2_778
10
17.8219522
20
13.3881395
11
16.8218522
21
13.3881395
0
LINE
8
DEFAULT_255_2_778
10
16.8218522
20
13.3881395
11
16.8218522
21
11.5482395
0
LINE
8
DEFAULT_255_2_778
10
17.8219522
20
4.2880395
11
17.8219522
21
5.0196395
0
LINE
8
DEFAULT_255_2_778
10
16.8218522
20
6.7582395
11
16.8218522
21
5.0196395
0
LINE
8
DEFAULT_255_2_778
10
16.8218522
20
5.0196395
11
17.8219522
21
5.0196395
0
LINE
8
DEFAULT_255_2_778
10
20.8218522
20
4.2880395
11
20.8218522
21
5.0196395
0
LINE
8
DEFAULT_255_2_778
10
21.8216522
20
6.7582395
11
21.8216522
21
5.0196395
0
LINE
8
DEFAULT_255_2_778
10
21.8216522
20
5.0196395
11
20.8218522
21
5.0196395
0
LINE
8
DEFAULT_255_2_778
10
21.8219522
20
8.8981395
11
21.8219522
21
7.9480395
0
LINE
8
DEFAULT_255_2_778
10
21.8219522
20
7.4382395
11
21.8219522
21
7.9480395
0
LINE
8
DEFAULT_255_2_778
10
21.8219522
20
10.1282395
11
21.8219522
21
11.5482395
0
LINE
8
DEFAULT_255_2_778
10
20.8217844
20
13.3882773
11
21.8215844
21
13.3882773
0
LINE
8
DEFAULT_255_2_778
10
21.8215844
20
13.3882773
11
21.8215844
21
11.5482773
0
LINE
8
DEFAULT_255_2_778
10
16.8217844
20
71.2380773
11
16.8217844
21
70.7279773
0
LINE
8
DEFAULT_255_2_778
10
16.8217844
20
69.7780773
11
16.8217844
21
70.7279773
0
LINE
8
DEFAULT_255_2_778
10
16.8217844
20
68.5480773
11
16.8217844
21
67.1279773
0
LINE
8
DEFAULT_255_2_778
10
17.8218844
20
65.2880773
11
16.8217844
21
65.2880773
0
LINE
8
DEFAULT_255_2_778
10
16.8217844
20
65.2880773
11
16.8217844
21
67.1279773
0
LINE
8
DEFAULT_255_2_778
10
20.8217844
20
73.6565773
11
20.8217844
21
74.2381773
0
LINE
8
DEFAULT_255_2_778
10
20.8217844
20
74.3680773
11
20.8217844
21
74.2381773
0
LINE
8
DEFAULT_255_2_778
10
21.8216522
20
71.9179855
11
21.8216522
21
73.6564855
0
LINE
8
DEFAULT_255_2_778
10
21.8216522
20
73.6564855
11
20.8218522
21
73.6564855
0
LINE
8
DEFAULT_255_2_778
10
17.8219522
20
74.3679855
11
17.8219522
21
74.2380855
0
LINE
8
DEFAULT_255_2_778
10
17.8219522
20
73.6564855
11
17.8219522
21
74.2380855
0
LINE
8
DEFAULT_255_2_778
10
16.8218522
20
71.9179855
11
16.8218522
21
73.6564855
0
LINE
8
DEFAULT_255_2_778
10
16.8218522
20
73.6564855
11
17.8219522
21
73.6564855
0
LINE
8
DEFAULT_255_2_778
10
21.8219522
20
69.7779855
11
21.8219522
21
70.7278855
0
LINE
8
DEFAULT_255_2_778
10
21.8219522
20
71.2379855
11
21.8219522
21
70.7278855
0
LINE
8
DEFAULT_255_2_778
10
21.8219522
20
68.5479855
11
21.8219522
21
67.1278855
0
LINE
8
DEFAULT_255_2_778
10
20.8218522
20
65.2879855
11
21.8216522
21
65.2879855
0
LINE
8
DEFAULT_255_2_778
10
21.8216522
20
65.2879855
11
21.8216522
21
67.1278855
0
LINE
8
DEFAULT_255_2_778
10
16.8218522
20
71.2379855
11
16.8218522
21
71.9179855
0
LINE
8
DEFAULT_255_2_778
10
21.8219522
20
71.2379855
11
21.8219522
21
71.9179855
0
LINE
8
DEFAULT_255_2_778
10
16.8218522
20
68.5479855
11
16.8218522
21
69.7779855
0
LINE
8
DEFAULT_255_2_778
10
21.8219522
20
68.5479855
11
21.8219522
21
69.7779855
0
LINE
8
DEFAULT_255_2_778
10
20.8218522
20
65.2879855
11
20.8218522
21
64.6588855
0
LINE
8
DEFAULT_255_2_778
10
17.8219522
20
65.2879855
11
17.8219522
21
64.6588855
0
LINE
8
DEFAULT_255_2_778
10
20.8218522
20
13.3883855
11
20.8218522
21
14.0175855
0
LINE
8
DEFAULT_255_2_778
10
17.8219522
20
13.3883855
11
17.8219522
21
14.0175855
0
LINE
8
DEFAULT_255_2_778
10
21.8219522
20
7.4381855
11
21.8219522
21
6.7581855
0
LINE
8
DEFAULT_255_2_778
10
16.8218522
20
7.4381855
11
16.8218522
21
6.7581855
0
LINE
8
DEFAULT_255_2_778
10
21.8219522
20
8.8981855
11
21.8219522
21
10.1281855
0
LINE
8
DEFAULT_255_2_778
10
16.8218522
20
8.8981855
11
16.8218522
21
10.1281855
0
ENDSEC
0
EOF