0
SECTION
2
HEADER
9
$MEASUREMENT
70
1
0
ENDSEC
0
SECTION
2
TABLES
0
TABLE
2
LTYPE
0
LTYPE
72
65
70
64
2
CONTINUOUS
3
______
73
0
40
0
0
ENDTAB
0
TABLE
2
LAYER
0
LAYER
2
DEFAULT_255_2_778
70
0
62
255
6
CONTINUOUS
0
ENDTAB
0
ENDSEC
0
SECTION
2
ENTITIES
0
LINE
8
DEFAULT_255_2_778
10
74.7232405
20
10.1264031
11
76.7573405
21
10.1264031
0
LINE
8
DEFAULT_255_2_778
10
85.4573405
20
7.5364031
11
76.7573405
21
7.5364031
0
LINE
8
DEFAULT_255_2_778
10
76.7573405
20
7.5364031
11
76.7573405
21
10.1264031
0
LINE
8
DEFAULT_255_2_778
10
76.7573532
20
11.3463969
11
82.2572532
21
11.3463969
0
LINE
8
DEFAULT_255_2_778
10
82.2572532
20
11.3463969
11
82.2572532
21
10.1263969
0
LINE
8
DEFAULT_255_2_778
10
82.2572532
20
10.1263969
11
76.7573532
21
10.1263969
0
LINE
8
DEFAULT_255_2_778
10
85.4573418
20
7.5363832
11
93.2572418
21
7.5363832
0
LINE
8
DEFAULT_255_2_778
10
93.2572418
20
5.7363832
11
93.2572418
21
7.5363832
0
LINE
8
DEFAULT_255_2_778
10
93.2572418
20
13.9363832
11
93.2572418
21
7.5363832
0
LINE
8
DEFAULT_255_2_778
10
85.4573253
20
7.8363613
11
85.4573253
21
7.5363613
0
LINE
8
DEFAULT_255_2_778
10
92.0574253
20
5.7363613
11
77.0573253
21
5.7363613
0
LINE
8
DEFAULT_255_2_778
10
74.7232253
20
10.1263613
11
77.0573253
21
5.7363613
0
LINE
8
DEFAULT_255_2_778
10
68.2573253
20
1.3363613
11
68.2573253
21
-0.2635387
0
LINE
8
DEFAULT_255_2_778
10
68.2573253
20
-0.2635387
11
72.6573253
21
-0.2635387
0
LINE
8
DEFAULT_255_2_778
10
72.6573253
20
-0.2635387
11
80.2572253
21
1.7364613
0
LINE
8
DEFAULT_255_2_778
10
80.2572253
20
1.7364613
11
82.7573253
21
1.7364613
0
LINE
8
DEFAULT_255_2_778
10
82.7573253
20
1.7364613
11
82.7573253
21
4.7365613
0
LINE
8
DEFAULT_255_2_778
10
82.7573253
20
4.7365613
11
77.0573253
21
5.7363613
0
LINE
8
DEFAULT_255_2_778
10
93.2572253
20
5.7363613
11
92.0574253
21
5.7363613
0
LINE
8
DEFAULT_255_2_778
10
93.2572253
20
2.6362613
11
92.0574253
21
2.6362613
0
LINE
8
DEFAULT_255_2_778
10
92.0574253
20
2.6362613
11
92.0574253
21
5.7361613
0
LINE
8
DEFAULT_255_2_778
10
93.2573014
20
2.6363051
11
93.2573014
21
5.7361051
0
LINE
8
DEFAULT_255_2_778
10
69.2572014
20
1.3364051
11
68.2573014
21
1.3364051
0
LINE
8
DEFAULT_255_2_778
10
65.7573014
20
1.3364051
11
68.2573014
21
1.3364051
0
LINE
8
DEFAULT_255_2_778
10
71.2575014
20
10.1264051
11
74.7232014
21
10.1264051
0
LINE
8
DEFAULT_255_2_778
10
71.2575014
20
2.4863051
11
71.2575014
21
10.1264051
0
LINE
8
DEFAULT_255_2_778
10
71.2575014
20
80.5066051
11
71.2575014
21
10.1266051
0
LINE
8
DEFAULT_255_2_778
10
76.7574014
20
11.6464051
11
76.7574014
21
11.3464051
0
LINE
8
DEFAULT_255_2_778
10
76.7573073
20
17.746403
11
74.7573073
21
17.746403
0
LINE
8
DEFAULT_255_2_778
10
74.7573073
20
17.746403
11
74.7573073
21
11.346403
0
LINE
8
DEFAULT_255_2_778
10
74.7573073
20
11.346403
11
76.7573073
21
11.346403
0
LINE
8
DEFAULT_255_2_778
10
76.7573
20
17.4463187
11
76.7573
21
17.7463187
0
LINE
8
DEFAULT_255_2_778
10
76.7573532
20
18.9663969
11
82.2572532
21
18.9663969
0
LINE
8
DEFAULT_255_2_778
10
82.2572532
20
18.9663969
11
82.2572532
21
17.7463969
0
LINE
8
DEFAULT_255_2_778
10
82.2572532
20
17.7463969
11
76.7573532
21
17.7463969
0
LINE
8
DEFAULT_255_2_778
10
76.7573
20
19.2664187
11
76.7573
21
18.9664187
0
LINE
8
DEFAULT_255_2_778
10
76.7573073
20
25.366403
11
74.7573073
21
25.366403
0
LINE
8
DEFAULT_255_2_778
10
74.7573073
20
25.366403
11
74.7573073
21
18.966403
0
LINE
8
DEFAULT_255_2_778
10
74.7573073
20
18.966403
11
76.7573073
21
18.966403
0
LINE
8
DEFAULT_255_2_778
10
76.7573
20
25.0663187
11
76.7573
21
25.3663187
0
LINE
8
DEFAULT_255_2_778
10
76.7573532
20
26.5863969
11
82.2572532
21
26.5863969
0
LINE
8
DEFAULT_255_2_778
10
82.2572532
20
26.5863969
11
82.2572532
21
25.3663969
0
LINE
8
DEFAULT_255_2_778
10
82.2572532
20
25.3663969
11
76.7573532
21
25.3663969
0
LINE
8
DEFAULT_255_2_778
10
76.7573
20
26.8864187
11
76.7573
21
26.5864187
0
LINE
8
DEFAULT_255_2_778
10
76.7573073
20
32.986403
11
74.7573073
21
32.986403
0
LINE
8
DEFAULT_255_2_778
10
74.7573073
20
32.986403
11
74.7573073
21
26.586403
0
LINE
8
DEFAULT_255_2_778
10
74.7573073
20
26.586403
11
76.7573073
21
26.586403
0
LINE
8
DEFAULT_255_2_778
10
76.7573
20
32.6863187
11
76.7573
21
32.9863187
0
LINE
8
DEFAULT_255_2_778
10
76.7573532
20
34.2063969
11
82.2572532
21
34.2063969
0
LINE
8
DEFAULT_255_2_778
10
82.2572532
20
34.2063969
11
82.2572532
21
32.9863969
0
LINE
8
DEFAULT_255_2_778
10
82.2572532
20
32.9863969
11
76.7573532
21
32.9863969
0
LINE
8
DEFAULT_255_2_778
10
76.7573
20
34.5064187
11
76.7573
21
34.2064187
0
LINE
8
DEFAULT_255_2_778
10
76.7573073
20
40.606403
11
74.7573073
21
40.606403
0
LINE
8
DEFAULT_255_2_778
10
74.7573073
20
40.606403
11
74.7573073
21
34.206403
0
LINE
8
DEFAULT_255_2_778
10
74.7573073
20
34.206403
11
76.7573073
21
34.206403
0
LINE
8
DEFAULT_255_2_778
10
76.7573
20
40.3063187
11
76.7573
21
40.6063187
0
LINE
8
DEFAULT_255_2_778
10
76.7573532
20
41.8263969
11
82.2572532
21
41.8263969
0
LINE
8
DEFAULT_255_2_778
10
82.2572532
20
41.8263969
11
82.2572532
21
40.6063969
0
LINE
8
DEFAULT_255_2_778
10
82.2572532
20
40.6063969
11
76.7573532
21
40.6063969
0
LINE
8
DEFAULT_255_2_778
10
76.7573
20
42.1264187
11
76.7573
21
41.8264187
0
LINE
8
DEFAULT_255_2_778
10
76.7573073
20
48.226403
11
74.7573073
21
48.226403
0
LINE
8
DEFAULT_255_2_778
10
74.7573073
20
48.226403
11
74.7573073
21
41.826403
0
LINE
8
DEFAULT_255_2_778
10
74.7573073
20
41.826403
11
76.7573073
21
41.826403
0
LINE
8
DEFAULT_255_2_778
10
76.7573
20
47.9263187
11
76.7573
21
48.2263187
0
LINE
8
DEFAULT_255_2_778
10
76.7573532
20
49.4463969
11
82.2572532
21
49.4463969
0
LINE
8
DEFAULT_255_2_778
10
82.2572532
20
49.4463969
11
82.2572532
21
48.2263969
0
LINE
8
DEFAULT_255_2_778
10
82.2572532
20
48.2263969
11
76.7573532
21
48.2263969
0
LINE
8
DEFAULT_255_2_778
10
76.7573
20
49.7464187
11
76.7573
21
49.4464187
0
LINE
8
DEFAULT_255_2_778
10
76.7573073
20
55.846403
11
74.7573073
21
55.846403
0
LINE
8
DEFAULT_255_2_778
10
74.7573073
20
55.846403
11
74.7573073
21
49.446403
0
LINE
8
DEFAULT_255_2_778
10
74.7573073
20
49.446403
11
76.7573073
21
49.446403
0
LINE
8
DEFAULT_255_2_778
10
76.7573
20
55.5463187
11
76.7573
21
55.8463187
0
LINE
8
DEFAULT_255_2_778
10
76.7573532
20
57.0663969
11
82.2572532
21
57.0663969
0
LINE
8
DEFAULT_255_2_778
10
82.2572532
20
57.0663969
11
82.2572532
21
55.8463969
0
LINE
8
DEFAULT_255_2_778
10
82.2572532
20
55.8463969
11
76.7573532
21
55.8463969
0
LINE
8
DEFAULT_255_2_778
10
76.7573
20
57.3664187
11
76.7573
21
57.0664187
0
LINE
8
DEFAULT_255_2_778
10
76.7573073
20
63.466403
11
74.7573073
21
63.466403
0
LINE
8
DEFAULT_255_2_778
10
74.7573073
20
63.466403
11
74.7573073
21
57.066403
0
LINE
8
DEFAULT_255_2_778
10
74.7573073
20
57.066403
11
76.7573073
21
57.066403
0
LINE
8
DEFAULT_255_2_778
10
76.7573
20
63.1663187
11
76.7573
21
63.4663187
0
LINE
8
DEFAULT_255_2_778
10
76.7573532
20
64.6863969
11
82.2572532
21
64.6863969
0
LINE
8
DEFAULT_255_2_778
10
82.2572532
20
64.6863969
11
82.2572532
21
63.4663969
0
LINE
8
DEFAULT_255_2_778
10
82.2572532
20
63.4663969
11
76.7573532
21
63.4663969
0
LINE
8
DEFAULT_255_2_778
10
76.7573
20
64.9864187
11
76.7573
21
64.6864187
0
LINE
8
DEFAULT_255_2_778
10
76.7573073
20
71.086403
11
74.7573073
21
71.086403
0
LINE
8
DEFAULT_255_2_778
10
74.7573073
20
71.086403
11
74.7573073
21
64.686403
0
LINE
8
DEFAULT_255_2_778
10
74.7573073
20
64.686403
11
76.7573073
21
64.686403
0
LINE
8
DEFAULT_255_2_778
10
76.7573
20
70.7863187
11
76.7573
21
71.0863187
0
LINE
8
DEFAULT_255_2_778
10
76.7573532
20
72.3063969
11
82.2572532
21
72.3063969
0
LINE
8
DEFAULT_255_2_778
10
82.2572532
20
72.3063969
11
82.2572532
21
71.0863969
0
LINE
8
DEFAULT_255_2_778
10
82.2572532
20
71.0863969
11
76.7573532
21
71.0863969
0
LINE
8
DEFAULT_255_2_778
10
76.7573
20
72.6064187
11
76.7573
21
72.3064187
0
LINE
8
DEFAULT_255_2_778
10
76.7573073
20
78.706403
11
74.7573073
21
78.706403
0
LINE
8
DEFAULT_255_2_778
10
74.7573073
20
78.706403
11
74.7573073
21
72.306403
0
LINE
8
DEFAULT_255_2_778
10
74.7573073
20
72.306403
11
76.7573073
21
72.306403
0
LINE
8
DEFAULT_255_2_778
10
76.7573405
20
78.4063156
11
76.7573405
21
78.7064156
0
LINE
8
DEFAULT_255_2_778
10
93.2572405
20
79.5065156
11
80.2572405
21
79.5065156
0
LINE
8
DEFAULT_255_2_778
10
80.2572405
20
79.5065156
11
80.2572405
21
78.7064156
0
LINE
8
DEFAULT_255_2_778
10
80.2572405
20
78.7064156
11
76.7573405
21
78.7064156
0
LINE
8
DEFAULT_255_2_778
10
93.2572405
20
76.1164156
11
93.2572405
21
79.5065156
0
LINE
8
DEFAULT_255_2_778
10
93.2572405
20
80.5066156
11
93.2572405
21
79.5065156
0
LINE
8
DEFAULT_255_2_778
10
93.2573816
20
80.5065041
11
95.2572816
21
80.5065041
0
LINE
8
DEFAULT_255_2_778
10
95.2572816
20
80.5065041
11
95.2572816
21
2.6365041
0
LINE
8
DEFAULT_255_2_778
10
95.2572816
20
2.6365041
11
93.2573816
21
2.6365041
0
LINE
8
DEFAULT_255_2_778
10
71.2574816
20
80.5065041
11
93.2575816
21
80.5065041
0
LINE
8
DEFAULT_255_2_778
10
69.5572816
20
81.0365041
11
69.5572816
21
80.8365041
0
LINE
8
DEFAULT_255_2_778
10
69.5572816
20
80.8365041
11
71.2571816
21
80.8365041
0
LINE
8
DEFAULT_255_2_778
10
71.2571816
20
80.8365041
11
71.2571816
21
80.5065041
0
LINE
8
DEFAULT_255_2_778
10
93.2572418
20
13.9363993
11
93.2572418
21
15.1563993
0
LINE
8
DEFAULT_255_2_778
10
93.2572418
20
21.5563993
11
93.2572418
21
15.1563993
0
LINE
8
DEFAULT_255_2_778
10
85.4573418
20
15.1563993
11
93.2572418
21
15.1563993
0
LINE
8
DEFAULT_255_2_778
10
85.4573418
20
13.9363993
11
93.2572418
21
13.9363993
0
LINE
8
DEFAULT_255_2_778
10
93.2572418
20
65.4803993
11
93.2572418
21
66.2127993
0
LINE
8
DEFAULT_255_2_778
10
93.2572418
20
67.2763993
11
93.2572418
21
66.2127993
0
ARC
8
DEFAULT_255_2_778
10
93.056982
20
65.7072846
40
0.3007617
50
269.9951079
51
304.9344048
0
ARC
8
DEFAULT_255_2_778
10
93.0569649
20
65.7080192
40
0.3014964
50
268.4119549
51
269.9983691
0
ARC
8
DEFAULT_255_2_778
10
93.0569367
20
65.7069043
40
0.3003811
50
245.0672293
51
268.4114413
0
ARC
8
DEFAULT_255_2_778
10
93.0562625
20
65.705733
40
0.2990348
50
184.875503
51
245.0897622
0
ARC
8
DEFAULT_255_2_778
10
93.0591932
20
65.706509
40
0.3020213
50
180.0021026
51
184.9749412
0
ARC
8
DEFAULT_255_2_778
10
93.057317
20
65.7065591
40
0.3001452
50
125.0352374
51
180.0116689
0
ARC
8
DEFAULT_255_2_778
10
93.0571072
20
70.1061172
40
0.3002257
50
55.0232929
51
90.011456
0
ARC
8
DEFAULT_255_2_778
10
93.0570484
20
70.1055397
40
0.3008032
50
90.0002347
51
91.6076228
0
ARC
8
DEFAULT_255_2_778
10
93.0570586
20
70.105709
40
0.3006342
50
91.610477
51
114.9360022
0
ARC
8
DEFAULT_255_2_778
10
93.0562625
20
70.1071025
40
0.2990348
50
114.9102378
51
175.124497
0
ARC
8
DEFAULT_255_2_778
10
93.0591932
20
70.1063264
40
0.3020213
50
175.0250588
51
179.9978974
0
ARC
8
DEFAULT_255_2_778
10
93.057317
20
70.1062764
40
0.3001452
50
179.9883311
51
234.9647626
0
LINE
8
DEFAULT_255_2_778
10
93.2573096
20
65.4803177
11
93.2292096
21
65.4607177
0
LINE
8
DEFAULT_255_2_778
10
92.8850096
20
65.9523177
11
93.2570096
21
66.2129177
0
LINE
8
DEFAULT_255_2_778
10
93.2573096
20
60.8763177
11
93.2573096
21
65.4801177
0
LINE
8
DEFAULT_255_2_778
10
93.2573096
20
68.4963177
11
93.2573096
21
69.6001177
0
LINE
8
DEFAULT_255_2_778
10
93.2573096
20
70.3325177
11
93.2573096
21
69.6001177
0
LINE
8
DEFAULT_255_2_778
10
93.2573096
20
70.3325177
11
93.2292096
21
70.3521177
0
LINE
8
DEFAULT_255_2_778
10
92.8850096
20
69.8605177
11
93.2570096
21
69.5999177
0
LINE
8
DEFAULT_255_2_778
10
93.2573096
20
74.8963177
11
93.2573096
21
70.3325177
0
LINE
8
DEFAULT_255_2_778
10
93.2573096
20
21.5563177
11
93.2573096
21
22.7763177
0
LINE
8
DEFAULT_255_2_778
10
93.2573096
20
29.1763177
11
93.2573096
21
22.7763177
0
LINE
8
DEFAULT_255_2_778
10
85.4574096
20
22.7763177
11
93.2573096
21
22.7763177
0
LINE
8
DEFAULT_255_2_778
10
85.4574096
20
21.5563177
11
93.2573096
21
21.5563177
0
LINE
8
DEFAULT_255_2_778
10
93.2573096
20
29.1763177
11
93.2573096
21
30.3963177
0
LINE
8
DEFAULT_255_2_778
10
93.2573096
20
36.7963177
11
93.2573096
21
30.3963177
0
LINE
8
DEFAULT_255_2_778
10
85.4574096
20
30.3963177
11
93.2573096
21
30.3963177
0
LINE
8
DEFAULT_255_2_778
10
85.4574096
20
29.1763177
11
93.2573096
21
29.1763177
0
LINE
8
DEFAULT_255_2_778
10
93.2573096
20
36.7963177
11
93.2573096
21
38.0163177
0
LINE
8
DEFAULT_255_2_778
10
93.2573096
20
44.4163177
11
93.2573096
21
38.0163177
0
LINE
8
DEFAULT_255_2_778
10
85.4574096
20
38.0163177
11
93.2573096
21
38.0163177
0
LINE
8
DEFAULT_255_2_778
10
85.4574096
20
36.7963177
11
93.2573096
21
36.7963177
0
LINE
8
DEFAULT_255_2_778
10
93.2573096
20
44.4163177
11
93.2573096
21
45.6363177
0
LINE
8
DEFAULT_255_2_778
10
93.2573096
20
52.0363177
11
93.2573096
21
45.6363177
0
LINE
8
DEFAULT_255_2_778
10
85.4574096
20
45.6363177
11
93.2573096
21
45.6363177
0
LINE
8
DEFAULT_255_2_778
10
85.4574096
20
44.4163177
11
93.2573096
21
44.4163177
0
LINE
8
DEFAULT_255_2_778
10
93.2573096
20
52.0363177
11
93.2573096
21
53.2563177
0
LINE
8
DEFAULT_255_2_778
10
93.2573096
20
59.6563177
11
93.2573096
21
53.2563177
0
LINE
8
DEFAULT_255_2_778
10
85.4574096
20
53.2563177
11
93.2573096
21
53.2563177
0
LINE
8
DEFAULT_255_2_778
10
85.4574096
20
52.0363177
11
93.2573096
21
52.0363177
0
LINE
8
DEFAULT_255_2_778
10
93.2573096
20
59.6563177
11
93.2573096
21
60.8763177
0
LINE
8
DEFAULT_255_2_778
10
85.4574096
20
60.8763177
11
93.2573096
21
60.8763177
0
LINE
8
DEFAULT_255_2_778
10
85.4574096
20
59.6563177
11
93.2573096
21
59.6563177
0
LINE
8
DEFAULT_255_2_778
10
93.2573096
20
67.2763177
11
93.2573096
21
68.4963177
0
LINE
8
DEFAULT_255_2_778
10
85.4574096
20
68.4963177
11
93.2573096
21
68.4963177
0
LINE
8
DEFAULT_255_2_778
10
85.4574096
20
67.2763177
11
93.2573096
21
67.2763177
0
LINE
8
DEFAULT_255_2_778
10
93.2573096
20
74.8963177
11
93.2573096
21
76.1163177
0
LINE
8
DEFAULT_255_2_778
10
80.5200096
20
76.1163177
11
93.2573096
21
76.1163177
0
LINE
8
DEFAULT_255_2_778
10
85.4574096
20
74.8963177
11
93.2573096
21
74.8963177
0
LINE
8
DEFAULT_255_2_778
10
16.0574096
20
39.8864177
11
16.0574096
21
50.0165177
0
LINE
8
DEFAULT_255_2_778
10
16.0574096
20
52.3864177
11
16.0574096
21
50.0165177
0
LINE
8
DEFAULT_255_2_778
10
16.0572096
20
39.8864177
11
12.2572096
21
39.8864177
0
LINE
8
DEFAULT_255_2_778
10
12.2572096
20
39.8864177
11
12.2572096
21
50.0165177
0
LINE
8
DEFAULT_255_2_778
10
12.2572096
20
50.0165177
11
16.0572096
21
50.0165177
0
LINE
8
DEFAULT_255_2_778
10
16.0574096
20
38.8863177
11
16.0574096
21
39.8861177
0
LINE
8
DEFAULT_255_2_778
10
71.2574096
20
2.4865177
11
0.2573096
21
2.4865177
0
LINE
8
DEFAULT_255_2_778
10
58.9974291
20
1.336636
11
0.2573291
21
1.336636
0
LINE
8
DEFAULT_255_2_778
10
0.2573291
20
1.336636
11
0.2573291
21
2.486536
0
LINE
8
DEFAULT_255_2_778
10
0.6529291
20
33.182436
11
0.2573291
21
33.136436
0
LINE
8
DEFAULT_255_2_778
10
0.2573291
20
33.136436
11
0.2573291
21
2.486536
0
LINE
8
DEFAULT_255_2_778
10
71.2574291
20
1.336636
11
71.2574291
21
2.486536
0
LINE
8
DEFAULT_255_2_778
10
3.1074291
20
33.467936
11
3.1074291
21
36.142336
0
LINE
8
DEFAULT_255_2_778
10
3.1073519
20
33.4679818
11
0.6528519
21
33.1824818
0
LINE
8
DEFAULT_255_2_778
10
5.2708519
20
33.6364818
11
4.6573519
21
36.9866818
0
LINE
8
DEFAULT_255_2_778
10
4.6573519
20
36.9866818
11
3.8072519
21
36.9866818
0
LINE
8
DEFAULT_255_2_778
10
3.8072519
20
36.9866818
11
0.6528519
21
33.1824818
0
LINE
8
DEFAULT_255_2_778
10
3.1073519
20
33.4679818
11
4.5573519
21
33.6364818
0
LINE
8
DEFAULT_255_2_778
10
4.5573519
20
33.6364818
11
5.2706519
21
33.6364818
0
LINE
8
DEFAULT_255_2_778
10
6.0572519
20
38.6365818
11
6.0572519
21
33.6364818
0
LINE
8
DEFAULT_255_2_778
10
6.0572519
20
33.6364818
11
5.2706519
21
33.6364818
0
LINE
8
DEFAULT_255_2_778
10
58.9974519
20
1.3363818
11
65.7575519
21
1.3363818
0
LINE
8
DEFAULT_255_2_778
10
58.9974291
20
1.3363246
11
58.9974291
21
0.9363246
0
LINE
8
DEFAULT_255_2_778
10
58.9974291
20
0.9363246
11
59.5975291
21
0.9363246
0
LINE
8
DEFAULT_255_2_778
10
59.5975291
20
0.9363246
11
59.5975291
21
0.5362246
0
LINE
8
DEFAULT_255_2_778
10
59.5975291
20
0.5362246
11
60.3976291
21
0.5362246
0
LINE
8
DEFAULT_255_2_778
10
60.3976291
20
0.5362246
11
60.3976291
21
0.1362246
0
LINE
8
DEFAULT_255_2_778
10
60.3976291
20
0.1362246
11
61.1977291
21
0.1362246
0
LINE
8
DEFAULT_255_2_778
10
61.1977291
20
0.1362246
11
61.1977291
21
-0.1637754
0
LINE
8
DEFAULT_255_2_778
10
61.1977291
20
-0.1637754
11
64.2576291
21
-0.1637754
0
LINE
8
DEFAULT_255_2_778
10
64.2576291
20
-0.1637754
11
65.7575291
21
1.3361246
0
LINE
8
DEFAULT_255_2_778
10
68.4074291
20
99.1864246
11
0.2573291
21
99.1864246
0
LINE
8
DEFAULT_255_2_778
10
0.2573291
20
101.3364246
11
0.2573291
21
99.1864246
0
LINE
8
DEFAULT_255_2_778
10
0.4867291
20
69.5097246
11
0.2573291
21
69.5364246
0
LINE
8
DEFAULT_255_2_778
10
0.2573291
20
69.5364246
11
0.2573291
21
99.1864246
0
LINE
8
DEFAULT_255_2_778
10
69.5575291
20
96.1363246
11
69.5575291
21
96.3363246
0
LINE
8
DEFAULT_255_2_778
10
69.5575291
20
96.3363246
11
71.2574291
21
96.3363246
0
LINE
8
DEFAULT_255_2_778
10
71.2574291
20
96.3363246
11
71.2574291
21
96.8364246
0
LINE
8
DEFAULT_255_2_778
10
71.2574291
20
96.8364246
11
70.7574291
21
96.8364246
0
LINE
8
DEFAULT_255_2_778
10
70.7574291
20
96.8364246
11
68.4074291
21
99.1864246
0
LINE
8
DEFAULT_255_2_778
10
65.7573113
20
101.3364818
11
66.2574113
21
101.3364818
0
LINE
8
DEFAULT_255_2_778
10
66.2574113
20
101.3364818
11
68.4074113
21
99.1864818
0
LINE
8
DEFAULT_255_2_778
10
2.9574113
20
66.5305818
11
3.6575113
21
65.6864818
0
LINE
8
DEFAULT_255_2_778
10
3.6575113
20
65.6864818
11
4.4576113
21
65.6864818
0
LINE
8
DEFAULT_255_2_778
10
4.4576113
20
65.6864818
11
5.0709113
21
69.0363818
0
LINE
8
DEFAULT_255_2_778
10
6.0573113
20
64.0362818
11
6.0573113
21
69.0363818
0
LINE
8
DEFAULT_255_2_778
10
6.0573113
20
69.0363818
11
5.0706113
21
69.0363818
0
LINE
8
DEFAULT_255_2_778
10
2.9574469
20
69.2224041
11
4.5573469
21
69.0364041
0
LINE
8
DEFAULT_255_2_778
10
4.5573469
20
69.0364041
11
5.0706469
21
69.0364041
0
LINE
8
DEFAULT_255_2_778
10
0.4867469
20
69.5097041
11
2.9574469
21
66.5305041
0
LINE
8
DEFAULT_255_2_778
10
2.9574469
20
69.2226041
11
2.9574469
21
66.5308041
0
LINE
8
DEFAULT_255_2_778
10
2.9574082
20
69.2224003
11
0.4870082
21
69.5097003
0
LINE
8
DEFAULT_255_2_778
10
4.1573082
20
104.3366003
11
0.2573082
21
104.3366003
0
LINE
8
DEFAULT_255_2_778
10
0.2573082
20
101.3365003
11
0.2573082
21
104.3366003
0
LINE
8
DEFAULT_255_2_778
10
4.1573082
20
104.3366003
11
4.1573082
21
105.8365003
0
LINE
8
DEFAULT_255_2_778
10
4.1573082
20
105.8365003
11
0.2573082
21
105.8365003
0
LINE
8
DEFAULT_255_2_778
10
0.2573082
20
105.8365003
11
0.2573082
21
104.3366003
0
LINE
8
DEFAULT_255_2_778
10
4.1573082
20
101.3365003
11
4.1573082
21
104.3366003
0
LINE
8
DEFAULT_255_2_778
10
16.0574082
20
52.3867003
11
16.0574082
21
91.7866003
0
LINE
8
DEFAULT_255_2_778
10
16.0574082
20
92.7865003
11
16.0574082
21
91.7866003
0
LINE
8
DEFAULT_255_2_778
10
16.0572082
20
52.3867003
11
12.2572082
21
52.3867003
0
LINE
8
DEFAULT_255_2_778
10
12.2572082
20
52.3867003
11
12.2572082
21
91.7866003
0
LINE
8
DEFAULT_255_2_778
10
12.2572082
20
91.7866003
11
16.0572082
21
91.7866003
0
LINE
8
DEFAULT_255_2_778
10
65.7573082
20
101.3365003
11
59.1573082
21
101.3365003
0
LINE
8
DEFAULT_255_2_778
10
4.1573082
20
101.3365003
11
59.1573082
21
101.3365003
0
LINE
8
DEFAULT_255_2_778
10
65.7573118
20
101.3365019
11
64.2574118
21
102.8364019
0
LINE
8
DEFAULT_255_2_778
10
64.2574118
20
102.8364019
11
61.3573118
21
102.8364019
0
LINE
8
DEFAULT_255_2_778
10
61.3573118
20
102.8364019
11
61.3573118
21
102.5364019
0
LINE
8
DEFAULT_255_2_778
10
61.3573118
20
102.5364019
11
60.5572118
21
102.5364019
0
LINE
8
DEFAULT_255_2_778
10
60.5572118
20
102.5364019
11
60.5572118
21
102.1363019
0
LINE
8
DEFAULT_255_2_778
10
60.5572118
20
102.1363019
11
59.7570118
21
102.1363019
0
LINE
8
DEFAULT_255_2_778
10
59.7570118
20
102.1363019
11
59.7570118
21
101.7363019
0
LINE
8
DEFAULT_255_2_778
10
59.7570118
20
101.7363019
11
59.1570118
21
101.7363019
0
LINE
8
DEFAULT_255_2_778
10
59.1570118
20
101.7363019
11
59.1570118
21
101.3362019
0
LINE
8
DEFAULT_255_2_778
10
85.4574118
20
15.1564019
11
80.5200118
21
15.1564019
0
ARC
8
DEFAULT_255_2_778
10
75.5600725
20
14.5472408
40
4.9971744
50
359.9922462
51
7.0048678
0
ARC
8
DEFAULT_255_2_778
10
79.1291879
20
16.3465768
40
1.0000013
50
26.7373124
51
89.9896977
0
ARC
8
DEFAULT_255_2_778
10
75.5630106
20
14.5482498
40
4.9939468
50
6.9967548
51
26.7559182
0
LINE
8
DEFAULT_255_2_778
10
78.1572677
20
17.3465781
11
79.1293677
21
17.3465781
0
LINE
8
DEFAULT_255_2_778
10
85.4574053
20
15.4564156
11
85.4574053
21
15.1564156
0
LINE
8
DEFAULT_255_2_778
10
85.4574053
20
13.9364156
11
80.5200053
21
13.9364156
0
ARC
8
DEFAULT_255_2_778
10
75.5437397
20
14.546444
40
5.0135071
50
359.4629959
51
0.0002347
0
ARC
8
DEFAULT_255_2_778
10
75.5567308
20
14.5459609
40
5.0005122
50
352.9978389
51
359.4671363
0
ARC
8
DEFAULT_255_2_778
10
79.1290754
20
12.7465624
40
1.0001843
50
270.0167494
51
333.2562288
0
ARC
8
DEFAULT_255_2_778
10
75.5630106
20
14.5447064
40
4.9939468
50
333.2440818
51
353.0032452
0
LINE
8
DEFAULT_255_2_778
10
78.1572677
20
11.7463781
11
79.1293677
21
11.7463781
0
LINE
8
DEFAULT_255_2_778
10
85.457425
20
13.636351
11
85.457425
21
13.936351
0
LINE
8
DEFAULT_255_2_778
10
11.757425
20
38.886351
11
11.757425
21
92.786451
0
LINE
8
DEFAULT_255_2_778
10
16.057425
20
92.786451
11
11.757425
21
92.786451
0
LINE
8
DEFAULT_255_2_778
10
11.7573634
20
38.8863258
11
8.7572634
21
38.8863258
0
LINE
8
DEFAULT_255_2_778
10
8.7572634
20
38.8863258
11
8.7572634
21
92.7864258
0
LINE
8
DEFAULT_255_2_778
10
8.7572634
20
92.7864258
11
11.7573634
21
92.7864258
0
LINE
8
DEFAULT_255_2_778
10
16.0573634
20
38.8865258
11
11.7573634
21
38.8865258
0
LINE
8
DEFAULT_255_2_778
10
16.0573634
20
38.8863258
11
19.0574634
21
38.8863258
0
LINE
8
DEFAULT_255_2_778
10
19.0574634
20
38.8863258
11
19.0574634
21
92.7864258
0
LINE
8
DEFAULT_255_2_778
10
19.0574634
20
92.7864258
11
16.0573634
21
92.7864258
0
LINE
8
DEFAULT_255_2_778
10
71.2571634
20
1.3363258
11
69.2571634
21
1.3363258
0
LINE
8
DEFAULT_255_2_778
10
71.2571269
20
1.3362939
11
71.2571269
21
1.1362939
0
LINE
8
DEFAULT_255_2_778
10
71.2571269
20
1.1362939
11
69.2572269
21
1.1362939
0
LINE
8
DEFAULT_255_2_778
10
69.2572269
20
1.1362939
11
69.2572269
21
1.3362939
0
LINE
8
DEFAULT_255_2_778
10
6.0572269
20
54.8363939
11
6.0572269
21
56.3362939
0
LINE
8
DEFAULT_255_2_778
10
6.0572269
20
64.0364939
11
6.0572269
21
56.3365939
0
LINE
8
DEFAULT_255_2_778
10
7.6571269
20
56.3362939
11
6.0572269
21
56.3362939
0
LINE
8
DEFAULT_255_2_778
10
6.0572269
20
38.6364939
11
6.0572269
21
54.8363939
0
LINE
8
DEFAULT_255_2_778
10
7.6571269
20
54.8363939
11
6.0572269
21
54.8363939
0
LINE
8
DEFAULT_255_2_778
10
7.6572291
20
54.8364491
11
7.6572291
21
38.6365491
0
LINE
8
DEFAULT_255_2_778
10
7.6572291
20
38.6365491
11
6.0572291
21
38.6365491
0
LINE
8
DEFAULT_255_2_778
10
7.6572291
20
56.3366491
11
7.6572291
21
64.0365491
0
LINE
8
DEFAULT_255_2_778
10
7.6572291
20
64.0365491
11
6.0572291
21
64.0365491
0
LINE
8
DEFAULT_255_2_778
10
4.1573291
20
101.3364491
11
0.2573291
21
101.3364491
0
LINE
8
DEFAULT_255_2_778
10
69.5572291
20
96.1365491
11
69.5572291
21
81.0365491
0
LINE
8
DEFAULT_255_2_778
10
69.6572291
20
81.0365491
11
69.5572291
21
81.0365491
0
LINE
8
DEFAULT_255_2_778
10
69.6571946
20
96.1365671
11
69.5571946
21
96.1365671
0
LINE
8
DEFAULT_255_2_778
10
7.6573946
20
54.8364671
11
7.6573946
21
56.3363671
0
LINE
8
DEFAULT_255_2_778
10
69.6571946
20
96.1365671
11
69.6571946
21
81.0365671
0
LINE
8
DEFAULT_255_2_778
10
69.6572804
20
96.1365447
11
71.2571804
21
96.1365447
0
LINE
8
DEFAULT_255_2_778
10
71.2571804
20
96.1365447
11
71.2571804
21
81.0365447
0
LINE
8
DEFAULT_255_2_778
10
71.2571804
20
81.0365447
11
69.6572804
21
81.0365447
0
LINE
8
DEFAULT_255_2_778
10
79.4820804
20
16.3464447
11
80.5572804
21
14.5464447
0
LINE
8
DEFAULT_255_2_778
10
79.4820667
20
12.7464802
11
80.5573667
21
14.5464802
0
LINE
8
DEFAULT_255_2_778
10
78.1573
20
17.346553
11
78.1573
21
11.746653
0
LINE
8
DEFAULT_255_2_778
10
76.7573448
20
11.6464062
11
78.1572448
21
11.6464062
0
LINE
8
DEFAULT_255_2_778
10
78.1572448
20
11.6464062
11
78.1572448
21
11.7464062
0
LINE
8
DEFAULT_255_2_778
10
76.7573127
20
17.4465489
11
78.1572127
21
17.4465489
0
LINE
8
DEFAULT_255_2_778
10
78.1572127
20
17.4465489
11
78.1572127
21
17.3465489
0
LINE
8
DEFAULT_255_2_778
10
76.7573127
20
11.6466489
11
76.7573127
21
17.4465489
0
LINE
8
DEFAULT_255_2_778
10
88.1820127
20
12.5364489
11
89.2573127
21
10.7364489
0
LINE
8
DEFAULT_255_2_778
10
88.1820667
20
8.9364802
11
89.2573667
21
10.7364802
0
ARC
8
DEFAULT_255_2_778
10
87.8292025
20
8.9364441
40
1.0000015
50
270.010305
51
333.2626801
0
ARC
8
DEFAULT_255_2_778
10
84.2604455
20
10.7360738
40
4.9968368
50
333.2440592
51
359.9980485
0
LINE
8
DEFAULT_255_2_778
10
89.2572824
20
10.7359036
11
89.2572823
21
10.7365427
0
LINE
8
DEFAULT_255_2_778
10
86.8572823
20
7.9364427
11
87.8293823
21
7.9364427
0
ARC
8
DEFAULT_255_2_778
10
87.8292025
20
12.5365414
40
1.0000013
50
26.7373124
51
89.9896977
0
ARC
8
DEFAULT_255_2_778
10
84.2604455
20
10.7369116
40
4.9968368
50
0.0019515
51
26.7559408
0
LINE
8
DEFAULT_255_2_778
10
89.2572824
20
10.7370818
11
89.2572823
21
10.7364427
0
LINE
8
DEFAULT_255_2_778
10
86.8572823
20
13.5365427
11
87.8293823
21
13.5365427
0
LINE
8
DEFAULT_255_2_778
10
86.8573
20
13.536553
11
86.8573
21
7.936653
0
LINE
8
DEFAULT_255_2_778
10
85.4573448
20
7.8364062
11
86.8572448
21
7.8364062
0
LINE
8
DEFAULT_255_2_778
10
86.8572448
20
7.8364062
11
86.8572448
21
7.9364062
0
LINE
8
DEFAULT_255_2_778
10
85.4573271
20
13.636329
11
86.8572271
21
13.636329
0
LINE
8
DEFAULT_255_2_778
10
86.8572271
20
13.636329
11
86.8572271
21
13.536329
0
LINE
8
DEFAULT_255_2_778
10
85.4573271
20
7.836329
11
85.4573271
21
13.636329
0
LINE
8
DEFAULT_255_2_778
10
88.1820271
20
20.156429
11
89.2572271
21
18.356429
0
LINE
8
DEFAULT_255_2_778
10
88.1820667
20
16.5564802
11
89.2573667
21
18.3564802
0
ARC
8
DEFAULT_255_2_778
10
87.8292025
20
16.5564441
40
1.0000015
50
270.010305
51
333.2626801
0
ARC
8
DEFAULT_255_2_778
10
84.2604455
20
18.3560738
40
4.9968368
50
333.2440592
51
359.9980485
0
LINE
8
DEFAULT_255_2_778
10
89.2572824
20
18.3559036
11
89.2572823
21
18.3565427
0
LINE
8
DEFAULT_255_2_778
10
86.8572823
20
15.5564427
11
87.8293823
21
15.5564427
0
ARC
8
DEFAULT_255_2_778
10
87.8292025
20
20.1565414
40
1.0000013
50
26.7373124
51
89.9896977
0
ARC
8
DEFAULT_255_2_778
10
84.2604455
20
18.3569116
40
4.9968368
50
0.0019515
51
26.7559408
0
LINE
8
DEFAULT_255_2_778
10
89.2572824
20
18.3570818
11
89.2572823
21
18.3564427
0
LINE
8
DEFAULT_255_2_778
10
86.8572823
20
21.1565427
11
87.8293823
21
21.1565427
0
LINE
8
DEFAULT_255_2_778
10
86.8573
20
21.156553
11
86.8573
21
15.556653
0
LINE
8
DEFAULT_255_2_778
10
85.4573448
20
15.4564062
11
86.8572448
21
15.4564062
0
LINE
8
DEFAULT_255_2_778
10
86.8572448
20
15.4564062
11
86.8572448
21
15.5564062
0
LINE
8
DEFAULT_255_2_778
10
85.4573324
20
21.2565967
11
86.8572324
21
21.2565967
0
LINE
8
DEFAULT_255_2_778
10
86.8572324
20
21.2565967
11
86.8572324
21
21.1565967
0
LINE
8
DEFAULT_255_2_778
10
85.4573324
20
21.5563967
11
85.4573324
21
21.2563967
0
LINE
8
DEFAULT_255_2_778
10
85.4573324
20
15.4566967
11
85.4573324
21
21.2565967
0
LINE
8
DEFAULT_255_2_778
10
80.5199324
20
21.5563967
11
85.4573324
21
21.5563967
0
LINE
8
DEFAULT_255_2_778
10
88.1820324
20
27.7764967
11
89.2572324
21
25.9764967
0
LINE
8
DEFAULT_255_2_778
10
88.1820667
20
24.1764802
11
89.2573667
21
25.9764802
0
ARC
8
DEFAULT_255_2_778
10
87.8292025
20
24.1764441
40
1.0000015
50
270.010305
51
333.2626801
0
ARC
8
DEFAULT_255_2_778
10
84.2604455
20
25.9760738
40
4.9968368
50
333.2440592
51
359.9980485
0
LINE
8
DEFAULT_255_2_778
10
89.2572824
20
25.9759036
11
89.2572823
21
25.9765427
0
LINE
8
DEFAULT_255_2_778
10
86.8572823
20
23.1764427
11
87.8293823
21
23.1764427
0
ARC
8
DEFAULT_255_2_778
10
87.8292025
20
27.7765414
40
1.0000013
50
26.7373124
51
89.9896977
0
ARC
8
DEFAULT_255_2_778
10
84.2604455
20
25.9769116
40
4.9968368
50
0.0019515
51
26.7559408
0
LINE
8
DEFAULT_255_2_778
10
89.2572824
20
25.9770818
11
89.2572823
21
25.9764427
0
LINE
8
DEFAULT_255_2_778
10
86.8572823
20
28.7765427
11
87.8293823
21
28.7765427
0
LINE
8
DEFAULT_255_2_778
10
86.8573
20
28.776553
11
86.8573
21
23.176653
0
LINE
8
DEFAULT_255_2_778
10
85.4573448
20
23.0764062
11
86.8572448
21
23.0764062
0
LINE
8
DEFAULT_255_2_778
10
86.8572448
20
23.0764062
11
86.8572448
21
23.1764062
0
LINE
8
DEFAULT_255_2_778
10
85.4573501
20
28.876403
11
86.8572501
21
28.876403
0
LINE
8
DEFAULT_255_2_778
10
86.8572501
20
28.876403
11
86.8572501
21
28.776403
0
LINE
8
DEFAULT_255_2_778
10
85.4573501
20
29.176403
11
85.4573501
21
28.876403
0
LINE
8
DEFAULT_255_2_778
10
85.4573501
20
23.076403
11
85.4573501
21
28.876403
0
LINE
8
DEFAULT_255_2_778
10
85.4573501
20
22.776403
11
85.4573501
21
23.076403
0
LINE
8
DEFAULT_255_2_778
10
80.5199501
20
22.776403
11
85.4573501
21
22.776403
0
LINE
8
DEFAULT_255_2_778
10
80.5199324
20
29.1763447
11
85.4573324
21
29.1763447
0
LINE
8
DEFAULT_255_2_778
10
88.1820324
20
35.3964447
11
89.2572324
21
33.5964447
0
LINE
8
DEFAULT_255_2_778
10
88.1820667
20
31.7964802
11
89.2573667
21
33.5964802
0
ARC
8
DEFAULT_255_2_778
10
87.8292025
20
31.7964441
40
1.0000015
50
270.010305
51
333.2626801
0
ARC
8
DEFAULT_255_2_778
10
84.2604455
20
33.5960738
40
4.9968368
50
333.2440592
51
359.9980485
0
LINE
8
DEFAULT_255_2_778
10
89.2572824
20
33.5959036
11
89.2572823
21
33.5965427
0
LINE
8
DEFAULT_255_2_778
10
86.8572823
20
30.7964427
11
87.8293823
21
30.7964427
0
ARC
8
DEFAULT_255_2_778
10
87.8292025
20
35.3965414
40
1.0000013
50
26.7373124
51
89.9896977
0
ARC
8
DEFAULT_255_2_778
10
84.2604455
20
33.5969116
40
4.9968368
50
0.0019515
51
26.7559408
0
LINE
8
DEFAULT_255_2_778
10
89.2572824
20
33.5970818
11
89.2572823
21
33.5964427
0
LINE
8
DEFAULT_255_2_778
10
86.8572823
20
36.3965427
11
87.8293823
21
36.3965427
0
LINE
8
DEFAULT_255_2_778
10
86.8573
20
36.396553
11
86.8573
21
30.796653
0
LINE
8
DEFAULT_255_2_778
10
85.4573448
20
30.6964062
11
86.8572448
21
30.6964062
0
LINE
8
DEFAULT_255_2_778
10
86.8572448
20
30.6964062
11
86.8572448
21
30.7964062
0
LINE
8
DEFAULT_255_2_778
10
85.4573501
20
36.496403
11
86.8572501
21
36.496403
0
LINE
8
DEFAULT_255_2_778
10
86.8572501
20
36.496403
11
86.8572501
21
36.396403
0
LINE
8
DEFAULT_255_2_778
10
85.4573501
20
36.796403
11
85.4573501
21
36.496403
0
LINE
8
DEFAULT_255_2_778
10
85.4573501
20
30.696403
11
85.4573501
21
36.496403
0
LINE
8
DEFAULT_255_2_778
10
85.4573501
20
30.396403
11
85.4573501
21
30.696403
0
LINE
8
DEFAULT_255_2_778
10
80.5199501
20
30.396403
11
85.4573501
21
30.396403
0
LINE
8
DEFAULT_255_2_778
10
80.5199324
20
36.7963447
11
85.4573324
21
36.7963447
0
LINE
8
DEFAULT_255_2_778
10
88.1820324
20
43.0164447
11
89.2572324
21
41.2164447
0
LINE
8
DEFAULT_255_2_778
10
88.1820667
20
39.4164802
11
89.2573667
21
41.2164802
0
ARC
8
DEFAULT_255_2_778
10
87.8292025
20
39.4164309
40
1.0000015
50
270.010305
51
333.2626801
0
ARC
8
DEFAULT_255_2_778
10
84.2604455
20
41.2160605
40
4.9968368
50
333.2440592
51
359.9980485
0
LINE
8
DEFAULT_255_2_778
10
89.2572824
20
41.2158903
11
89.2572823
21
41.2165294
0
LINE
8
DEFAULT_255_2_778
10
86.8572823
20
38.4164294
11
87.8293823
21
38.4164294
0
ARC
8
DEFAULT_255_2_778
10
87.8292025
20
43.0165414
40
1.0000013
50
26.7373124
51
89.9896977
0
ARC
8
DEFAULT_255_2_778
10
84.2604455
20
41.2169116
40
4.9968368
50
0.0019515
51
26.7559408
0
LINE
8
DEFAULT_255_2_778
10
89.2572824
20
41.2170818
11
89.2572823
21
41.2164427
0
LINE
8
DEFAULT_255_2_778
10
86.8572823
20
44.0165427
11
87.8293823
21
44.0165427
0
LINE
8
DEFAULT_255_2_778
10
86.8573
20
44.016553
11
86.8573
21
38.416653
0
LINE
8
DEFAULT_255_2_778
10
85.4573448
20
38.3164062
11
86.8572448
21
38.3164062
0
LINE
8
DEFAULT_255_2_778
10
86.8572448
20
38.3164062
11
86.8572448
21
38.4164062
0
LINE
8
DEFAULT_255_2_778
10
85.4573501
20
44.116403
11
86.8572501
21
44.116403
0
LINE
8
DEFAULT_255_2_778
10
86.8572501
20
44.116403
11
86.8572501
21
44.016403
0
LINE
8
DEFAULT_255_2_778
10
85.4573501
20
44.416403
11
85.4573501
21
44.116403
0
LINE
8
DEFAULT_255_2_778
10
85.4573501
20
38.316403
11
85.4573501
21
44.116403
0
LINE
8
DEFAULT_255_2_778
10
85.4573501
20
38.016403
11
85.4573501
21
38.316403
0
LINE
8
DEFAULT_255_2_778
10
80.5199501
20
38.016403
11
85.4573501
21
38.016403
0
LINE
8
DEFAULT_255_2_778
10
80.5199324
20
44.4163447
11
85.4573324
21
44.4163447
0
LINE
8
DEFAULT_255_2_778
10
88.1820324
20
50.6364447
11
89.2572324
21
48.8364447
0
LINE
8
DEFAULT_255_2_778
10
88.1820667
20
47.0364802
11
89.2573667
21
48.8364802
0
ARC
8
DEFAULT_255_2_778
10
87.8292025
20
47.0364441
40
1.0000015
50
270.010305
51
333.2626801
0
ARC
8
DEFAULT_255_2_778
10
84.2604455
20
48.8360738
40
4.9968368
50
333.2440592
51
359.9980485
0
LINE
8
DEFAULT_255_2_778
10
89.2572824
20
48.8359036
11
89.2572823
21
48.8365427
0
LINE
8
DEFAULT_255_2_778
10
86.8572823
20
46.0364427
11
87.8293823
21
46.0364427
0
ARC
8
DEFAULT_255_2_778
10
87.8292025
20
50.6365414
40
1.0000013
50
26.7373124
51
89.9896977
0
ARC
8
DEFAULT_255_2_778
10
84.2604455
20
48.8369116
40
4.9968368
50
0.0019515
51
26.7559408
0
LINE
8
DEFAULT_255_2_778
10
89.2572824
20
48.8370818
11
89.2572823
21
48.8364427
0
LINE
8
DEFAULT_255_2_778
10
86.8572823
20
51.6365427
11
87.8293823
21
51.6365427
0
LINE
8
DEFAULT_255_2_778
10
86.8573
20
51.636553
11
86.8573
21
46.036653
0
LINE
8
DEFAULT_255_2_778
10
85.4573448
20
45.9364062
11
86.8572448
21
45.9364062
0
LINE
8
DEFAULT_255_2_778
10
86.8572448
20
45.9364062
11
86.8572448
21
46.0364062
0
LINE
8
DEFAULT_255_2_778
10
85.4573501
20
51.736403
11
86.8572501
21
51.736403
0
LINE
8
DEFAULT_255_2_778
10
86.8572501
20
51.736403
11
86.8572501
21
51.636403
0
LINE
8
DEFAULT_255_2_778
10
85.4573501
20
52.036403
11
85.4573501
21
51.736403
0
LINE
8
DEFAULT_255_2_778
10
85.4573501
20
45.936403
11
85.4573501
21
51.736403
0
LINE
8
DEFAULT_255_2_778
10
85.4573501
20
45.636403
11
85.4573501
21
45.936403
0
LINE
8
DEFAULT_255_2_778
10
80.5199501
20
45.636403
11
85.4573501
21
45.636403
0
LINE
8
DEFAULT_255_2_778
10
80.5199324
20
52.0363447
11
85.4573324
21
52.0363447
0
LINE
8
DEFAULT_255_2_778
10
88.1820324
20
58.2564447
11
89.2572324
21
56.4564447
0
LINE
8
DEFAULT_255_2_778
10
88.1820667
20
54.6564802
11
89.2573667
21
56.4564802
0
ARC
8
DEFAULT_255_2_778
10
87.8292025
20
54.6564441
40
1.0000015
50
270.010305
51
333.2626801
0
ARC
8
DEFAULT_255_2_778
10
84.2604455
20
56.4560738
40
4.9968368
50
333.2440592
51
359.9980485
0
LINE
8
DEFAULT_255_2_778
10
89.2572824
20
56.4559036
11
89.2572823
21
56.4565427
0
LINE
8
DEFAULT_255_2_778
10
86.8572823
20
53.6564427
11
87.8293823
21
53.6564427
0
ARC
8
DEFAULT_255_2_778
10
87.8292025
20
58.2565414
40
1.0000013
50
26.7373124
51
89.9896977
0
ARC
8
DEFAULT_255_2_778
10
84.2604455
20
56.4569116
40
4.9968368
50
0.0019515
51
26.7559408
0
LINE
8
DEFAULT_255_2_778
10
89.2572824
20
56.4570818
11
89.2572823
21
56.4564427
0
LINE
8
DEFAULT_255_2_778
10
86.8572823
20
59.2565427
11
87.8293823
21
59.2565427
0
LINE
8
DEFAULT_255_2_778
10
86.8573
20
59.256553
11
86.8573
21
53.656653
0
LINE
8
DEFAULT_255_2_778
10
85.4573448
20
53.5564062
11
86.8572448
21
53.5564062
0
LINE
8
DEFAULT_255_2_778
10
86.8572448
20
53.5564062
11
86.8572448
21
53.6564062
0
LINE
8
DEFAULT_255_2_778
10
85.4573501
20
59.356403
11
86.8572501
21
59.356403
0
LINE
8
DEFAULT_255_2_778
10
86.8572501
20
59.356403
11
86.8572501
21
59.256403
0
LINE
8
DEFAULT_255_2_778
10
85.4573501
20
59.656403
11
85.4573501
21
59.356403
0
LINE
8
DEFAULT_255_2_778
10
85.4573501
20
53.556403
11
85.4573501
21
59.356403
0
LINE
8
DEFAULT_255_2_778
10
85.4573501
20
53.256403
11
85.4573501
21
53.556403
0
LINE
8
DEFAULT_255_2_778
10
80.5199501
20
53.256403
11
85.4573501
21
53.256403
0
LINE
8
DEFAULT_255_2_778
10
80.5199324
20
59.6563447
11
85.4573324
21
59.6563447
0
LINE
8
DEFAULT_255_2_778
10
88.1820324
20
65.8764447
11
89.2572324
21
64.0764447
0
LINE
8
DEFAULT_255_2_778
10
88.1820667
20
62.2764802
11
89.2573667
21
64.0764802
0
ARC
8
DEFAULT_255_2_778
10
87.8292025
20
62.2764441
40
1.0000015
50
270.010305
51
333.2626801
0
ARC
8
DEFAULT_255_2_778
10
84.2604455
20
64.0760738
40
4.9968368
50
333.2440592
51
359.9980485
0
LINE
8
DEFAULT_255_2_778
10
89.2572824
20
64.0759036
11
89.2572823
21
64.0765427
0
LINE
8
DEFAULT_255_2_778
10
86.8572823
20
61.2764427
11
87.8293823
21
61.2764427
0
ARC
8
DEFAULT_255_2_778
10
87.8292025
20
65.8765414
40
1.0000013
50
26.7373124
51
89.9896977
0
ARC
8
DEFAULT_255_2_778
10
84.2604455
20
64.0769116
40
4.9968368
50
0.0019515
51
26.7559408
0
LINE
8
DEFAULT_255_2_778
10
89.2572824
20
64.0770818
11
89.2572823
21
64.0764427
0
LINE
8
DEFAULT_255_2_778
10
86.8572823
20
66.8765427
11
87.8293823
21
66.8765427
0
LINE
8
DEFAULT_255_2_778
10
86.8573
20
66.876553
11
86.8573
21
61.276653
0
LINE
8
DEFAULT_255_2_778
10
85.4573448
20
61.1764062
11
86.8572448
21
61.1764062
0
LINE
8
DEFAULT_255_2_778
10
86.8572448
20
61.1764062
11
86.8572448
21
61.2764062
0
LINE
8
DEFAULT_255_2_778
10
85.4573501
20
66.976403
11
86.8572501
21
66.976403
0
LINE
8
DEFAULT_255_2_778
10
86.8572501
20
66.976403
11
86.8572501
21
66.876403
0
LINE
8
DEFAULT_255_2_778
10
85.4573501
20
67.276403
11
85.4573501
21
66.976403
0
LINE
8
DEFAULT_255_2_778
10
85.4573501
20
61.176403
11
85.4573501
21
66.976403
0
LINE
8
DEFAULT_255_2_778
10
85.4573501
20
60.876403
11
85.4573501
21
61.176403
0
LINE
8
DEFAULT_255_2_778
10
80.5199501
20
60.876403
11
85.4573501
21
60.876403
0
LINE
8
DEFAULT_255_2_778
10
80.5200053
20
67.2764
11
85.4574053
21
67.2764
0
ARC
8
DEFAULT_255_2_778
10
75.5600725
20
22.1672408
40
4.9971744
50
359.9922462
51
7.0048678
0
ARC
8
DEFAULT_255_2_778
10
79.1291879
20
23.9665768
40
1.0000013
50
26.7373124
51
89.9896977
0
ARC
8
DEFAULT_255_2_778
10
75.5630106
20
22.1682498
40
4.9939468
50
6.9967548
51
26.7559182
0
LINE
8
DEFAULT_255_2_778
10
78.1572677
20
24.9665781
11
79.1293677
21
24.9665781
0
ARC
8
DEFAULT_255_2_778
10
75.5437397
20
22.166444
40
5.0135071
50
359.4629959
51
0.0002347
0
ARC
8
DEFAULT_255_2_778
10
75.5567308
20
22.1659609
40
5.0005122
50
352.9978389
51
359.4671363
0
ARC
8
DEFAULT_255_2_778
10
79.1290754
20
20.3665624
40
1.0001843
50
270.0167494
51
333.2562288
0
ARC
8
DEFAULT_255_2_778
10
75.5630106
20
22.1647064
40
4.9939468
50
333.2440818
51
353.0032452
0
LINE
8
DEFAULT_255_2_778
10
78.1572677
20
19.3663781
11
79.1293677
21
19.3663781
0
LINE
8
DEFAULT_255_2_778
10
78.1573
20
24.966553
11
78.1573
21
19.366653
0
LINE
8
DEFAULT_255_2_778
10
76.7573448
20
19.2664062
11
78.1572448
21
19.2664062
0
LINE
8
DEFAULT_255_2_778
10
78.1572448
20
19.2664062
11
78.1572448
21
19.3664062
0
LINE
8
DEFAULT_255_2_778
10
79.4820667
20
20.3664802
11
80.5573667
21
22.1664802
0
LINE
8
DEFAULT_255_2_778
10
79.4820404
20
23.9664655
11
80.5572404
21
22.1665655
0
LINE
8
DEFAULT_255_2_778
10
76.7573404
20
25.0663655
11
78.1572404
21
25.0663655
0
LINE
8
DEFAULT_255_2_778
10
78.1572404
20
25.0663655
11
78.1572404
21
24.9663655
0
LINE
8
DEFAULT_255_2_778
10
76.7573404
20
19.2664655
11
76.7573404
21
25.0663655
0
ARC
8
DEFAULT_255_2_778
10
75.5600725
20
29.7872408
40
4.9971744
50
359.9922462
51
7.0048678
0
ARC
8
DEFAULT_255_2_778
10
79.1291879
20
31.5865768
40
1.0000013
50
26.7373124
51
89.9896977
0
ARC
8
DEFAULT_255_2_778
10
75.5630106
20
29.7882498
40
4.9939468
50
6.9967548
51
26.7559182
0
LINE
8
DEFAULT_255_2_778
10
78.1572677
20
32.5865781
11
79.1293677
21
32.5865781
0
ARC
8
DEFAULT_255_2_778
10
75.5437397
20
29.786444
40
5.0135071
50
359.4629959
51
0.0002347
0
ARC
8
DEFAULT_255_2_778
10
75.5567308
20
29.7859609
40
5.0005122
50
352.9978389
51
359.4671363
0
ARC
8
DEFAULT_255_2_778
10
79.1290754
20
27.9865624
40
1.0001843
50
270.0167494
51
333.2562288
0
ARC
8
DEFAULT_255_2_778
10
75.5630106
20
29.7847064
40
4.9939468
50
333.2440818
51
353.0032452
0
LINE
8
DEFAULT_255_2_778
10
78.1572677
20
26.9863781
11
79.1293677
21
26.9863781
0
LINE
8
DEFAULT_255_2_778
10
78.1573
20
32.586553
11
78.1573
21
26.986653
0
LINE
8
DEFAULT_255_2_778
10
76.7573448
20
26.8864062
11
78.1572448
21
26.8864062
0
LINE
8
DEFAULT_255_2_778
10
78.1572448
20
26.8864062
11
78.1572448
21
26.9864062
0
LINE
8
DEFAULT_255_2_778
10
79.4820667
20
27.9864802
11
80.5573667
21
29.7864802
0
LINE
8
DEFAULT_255_2_778
10
79.4820404
20
31.5864655
11
80.5572404
21
29.7865655
0
LINE
8
DEFAULT_255_2_778
10
76.7573404
20
32.6863655
11
78.1572404
21
32.6863655
0
LINE
8
DEFAULT_255_2_778
10
78.1572404
20
32.6863655
11
78.1572404
21
32.5863655
0
LINE
8
DEFAULT_255_2_778
10
76.7573404
20
26.8864655
11
76.7573404
21
32.6863655
0
ARC
8
DEFAULT_255_2_778
10
75.5600725
20
37.4072408
40
4.9971744
50
359.9922462
51
7.0048678
0
ARC
8
DEFAULT_255_2_778
10
79.1291879
20
39.2065768
40
1.0000013
50
26.7373124
51
89.9896977
0
ARC
8
DEFAULT_255_2_778
10
75.5630106
20
37.4082498
40
4.9939468
50
6.9967548
51
26.7559182
0
LINE
8
DEFAULT_255_2_778
10
78.1572677
20
40.2065781
11
79.1293677
21
40.2065781
0
ARC
8
DEFAULT_255_2_778
10
75.5437397
20
37.406444
40
5.0135071
50
359.4629959
51
0.0002347
0
ARC
8
DEFAULT_255_2_778
10
75.5567308
20
37.4059609
40
5.0005122
50
352.9978389
51
359.4671363
0
ARC
8
DEFAULT_255_2_778
10
79.1290754
20
35.6065624
40
1.0001843
50
270.0167494
51
333.2562288
0
ARC
8
DEFAULT_255_2_778
10
75.5630106
20
37.4047064
40
4.9939468
50
333.2440818
51
353.0032452
0
LINE
8
DEFAULT_255_2_778
10
78.1572677
20
34.6063781
11
79.1293677
21
34.6063781
0
LINE
8
DEFAULT_255_2_778
10
78.1573
20
40.206553
11
78.1573
21
34.606653
0
LINE
8
DEFAULT_255_2_778
10
76.7573448
20
34.5064062
11
78.1572448
21
34.5064062
0
LINE
8
DEFAULT_255_2_778
10
78.1572448
20
34.5064062
11
78.1572448
21
34.6064062
0
LINE
8
DEFAULT_255_2_778
10
79.4820667
20
35.6064802
11
80.5573667
21
37.4064802
0
LINE
8
DEFAULT_255_2_778
10
79.4820404
20
39.2064655
11
80.5572404
21
37.4065655
0
LINE
8
DEFAULT_255_2_778
10
76.7573404
20
40.3063655
11
78.1572404
21
40.3063655
0
LINE
8
DEFAULT_255_2_778
10
78.1572404
20
40.3063655
11
78.1572404
21
40.2063655
0
LINE
8
DEFAULT_255_2_778
10
76.7573404
20
34.5064655
11
76.7573404
21
40.3063655
0
ARC
8
DEFAULT_255_2_778
10
75.5600725
20
45.0272408
40
4.9971744
50
359.9922462
51
7.0048678
0
ARC
8
DEFAULT_255_2_778
10
79.1291879
20
46.8265768
40
1.0000013
50
26.7373124
51
89.9896977
0
ARC
8
DEFAULT_255_2_778
10
75.5630106
20
45.0282498
40
4.9939468
50
6.9967548
51
26.7559182
0
LINE
8
DEFAULT_255_2_778
10
78.1572677
20
47.8265781
11
79.1293677
21
47.8265781
0
ARC
8
DEFAULT_255_2_778
10
75.5437397
20
45.026444
40
5.0135071
50
359.4629959
51
0.0002347
0
ARC
8
DEFAULT_255_2_778
10
75.5567308
20
45.0259609
40
5.0005122
50
352.9978389
51
359.4671363
0
ARC
8
DEFAULT_255_2_778
10
79.1291878
20
43.2263797
40
1.0000016
50
270.0103072
51
333.2626741
0
ARC
8
DEFAULT_255_2_778
10
75.5630106
20
45.0247064
40
4.9939468
50
333.2440818
51
353.0032452
0
LINE
8
DEFAULT_255_2_778
10
78.1572677
20
42.2263781
11
79.1293677
21
42.2263781
0
LINE
8
DEFAULT_255_2_778
10
78.1573
20
47.826553
11
78.1573
21
42.226653
0
LINE
8
DEFAULT_255_2_778
10
76.7573448
20
42.1264062
11
78.1572448
21
42.1264062
0
LINE
8
DEFAULT_255_2_778
10
78.1572448
20
42.1264062
11
78.1572448
21
42.2264062
0
LINE
8
DEFAULT_255_2_778
10
79.4820667
20
43.2264802
11
80.5573667
21
45.0264802
0
LINE
8
DEFAULT_255_2_778
10
79.4820404
20
46.8264655
11
80.5572404
21
45.0265655
0
LINE
8
DEFAULT_255_2_778
10
76.7573404
20
47.9263655
11
78.1572404
21
47.9263655
0
LINE
8
DEFAULT_255_2_778
10
78.1572404
20
47.9263655
11
78.1572404
21
47.8263655
0
LINE
8
DEFAULT_255_2_778
10
76.7573404
20
42.1264655
11
76.7573404
21
47.9263655
0
ARC
8
DEFAULT_255_2_778
10
75.5600725
20
52.6472408
40
4.9971744
50
359.9922462
51
7.0048678
0
ARC
8
DEFAULT_255_2_778
10
79.1291879
20
54.4465768
40
1.0000013
50
26.7373124
51
89.9896977
0
ARC
8
DEFAULT_255_2_778
10
75.5630106
20
52.6482498
40
4.9939468
50
6.9967548
51
26.7559182
0
LINE
8
DEFAULT_255_2_778
10
78.1572677
20
55.4465781
11
79.1293677
21
55.4465781
0
ARC
8
DEFAULT_255_2_778
10
75.5437397
20
52.646444
40
5.0135071
50
359.4629959
51
0.0002347
0
ARC
8
DEFAULT_255_2_778
10
75.5567308
20
52.6459609
40
5.0005122
50
352.9978389
51
359.4671363
0
ARC
8
DEFAULT_255_2_778
10
79.1290754
20
50.8465624
40
1.0001843
50
270.0167494
51
333.2562288
0
ARC
8
DEFAULT_255_2_778
10
75.5630106
20
52.6447064
40
4.9939468
50
333.2440818
51
353.0032452
0
LINE
8
DEFAULT_255_2_778
10
78.1572677
20
49.8463781
11
79.1293677
21
49.8463781
0
LINE
8
DEFAULT_255_2_778
10
78.1573
20
55.446553
11
78.1573
21
49.846653
0
LINE
8
DEFAULT_255_2_778
10
76.7573448
20
49.7464062
11
78.1572448
21
49.7464062
0
LINE
8
DEFAULT_255_2_778
10
78.1572448
20
49.7464062
11
78.1572448
21
49.8464062
0
LINE
8
DEFAULT_255_2_778
10
79.4820667
20
50.8464802
11
80.5573667
21
52.6464802
0
LINE
8
DEFAULT_255_2_778
10
79.4820404
20
54.4464655
11
80.5572404
21
52.6465655
0
LINE
8
DEFAULT_255_2_778
10
76.7573404
20
55.5463655
11
78.1572404
21
55.5463655
0
LINE
8
DEFAULT_255_2_778
10
78.1572404
20
55.5463655
11
78.1572404
21
55.4463655
0
LINE
8
DEFAULT_255_2_778
10
76.7573404
20
49.7464655
11
76.7573404
21
55.5463655
0
ARC
8
DEFAULT_255_2_778
10
75.5600725
20
60.2672408
40
4.9971744
50
359.9922462
51
7.0048678
0
ARC
8
DEFAULT_255_2_778
10
79.1291879
20
62.0665768
40
1.0000013
50
26.7373124
51
89.9896977
0
ARC
8
DEFAULT_255_2_778
10
75.5630106
20
60.2682498
40
4.9939468
50
6.9967548
51
26.7559182
0
LINE
8
DEFAULT_255_2_778
10
78.1572677
20
63.0665781
11
79.1293677
21
63.0665781
0
ARC
8
DEFAULT_255_2_778
10
75.5437397
20
60.266444
40
5.0135071
50
359.4629959
51
0.0002347
0
ARC
8
DEFAULT_255_2_778
10
75.5567308
20
60.2659609
40
5.0005122
50
352.9978389
51
359.4671363
0
ARC
8
DEFAULT_255_2_778
10
79.1290754
20
58.4665624
40
1.0001843
50
270.0167494
51
333.2562288
0
ARC
8
DEFAULT_255_2_778
10
75.5630106
20
60.2647064
40
4.9939468
50
333.2440818
51
353.0032452
0
LINE
8
DEFAULT_255_2_778
10
78.1572677
20
57.4663781
11
79.1293677
21
57.4663781
0
LINE
8
DEFAULT_255_2_778
10
78.1573
20
63.066553
11
78.1573
21
57.466653
0
LINE
8
DEFAULT_255_2_778
10
76.7573448
20
57.3664062
11
78.1572448
21
57.3664062
0
LINE
8
DEFAULT_255_2_778
10
78.1572448
20
57.3664062
11
78.1572448
21
57.4664062
0
LINE
8
DEFAULT_255_2_778
10
79.4820667
20
58.4664802
11
80.5573667
21
60.2664802
0
LINE
8
DEFAULT_255_2_778
10
79.4820855
20
62.0664811
11
80.5572855
21
60.2664811
0
LINE
8
DEFAULT_255_2_778
10
76.7573855
20
63.1663811
11
78.1572855
21
63.1663811
0
LINE
8
DEFAULT_255_2_778
10
78.1572855
20
63.1663811
11
78.1572855
21
63.0663811
0
LINE
8
DEFAULT_255_2_778
10
76.7573855
20
57.3663811
11
76.7573855
21
63.1663811
0
LINE
8
DEFAULT_255_2_778
10
85.4573855
20
68.4963811
11
80.5199855
21
68.4963811
0
ARC
8
DEFAULT_255_2_778
10
75.5600725
20
67.8872408
40
4.9971744
50
359.9922462
51
7.0048678
0
ARC
8
DEFAULT_255_2_778
10
79.1291879
20
69.6865768
40
1.0000013
50
26.7373124
51
89.9896977
0
ARC
8
DEFAULT_255_2_778
10
75.5630106
20
67.8882498
40
4.9939468
50
6.9967548
51
26.7559182
0
LINE
8
DEFAULT_255_2_778
10
78.1572677
20
70.6865781
11
79.1293677
21
70.6865781
0
LINE
8
DEFAULT_255_2_778
10
85.4574
20
68.7964187
11
85.4574
21
68.4964187
0
ARC
8
DEFAULT_255_2_778
10
75.5437397
20
67.886444
40
5.0135071
50
359.4629959
51
0.0002347
0
ARC
8
DEFAULT_255_2_778
10
75.5567308
20
67.8859609
40
5.0005122
50
352.9978389
51
359.4671363
0
ARC
8
DEFAULT_255_2_778
10
79.1290754
20
66.0865624
40
1.0001843
50
270.0167494
51
333.2562288
0
ARC
8
DEFAULT_255_2_778
10
75.5630106
20
67.8847064
40
4.9939468
50
333.2440818
51
353.0032452
0
LINE
8
DEFAULT_255_2_778
10
78.1572677
20
65.0863781
11
79.1293677
21
65.0863781
0
LINE
8
DEFAULT_255_2_778
10
78.1573
20
70.686553
11
78.1573
21
65.086653
0
LINE
8
DEFAULT_255_2_778
10
76.7573448
20
64.9864062
11
78.1572448
21
64.9864062
0
LINE
8
DEFAULT_255_2_778
10
78.1572448
20
64.9864062
11
78.1572448
21
65.0864062
0
LINE
8
DEFAULT_255_2_778
10
79.4820667
20
66.0864802
11
80.5573667
21
67.8864802
0
LINE
8
DEFAULT_255_2_778
10
79.4820404
20
69.6864655
11
80.5572404
21
67.8865655
0
LINE
8
DEFAULT_255_2_778
10
76.7573404
20
70.7863655
11
78.1572404
21
70.7863655
0
LINE
8
DEFAULT_255_2_778
10
78.1572404
20
70.7863655
11
78.1572404
21
70.6863655
0
LINE
8
DEFAULT_255_2_778
10
76.7573404
20
64.9864655
11
76.7573404
21
70.7863655
0
ARC
8
DEFAULT_255_2_778
10
75.5600725
20
75.5072408
40
4.9971744
50
359.9922462
51
7.0048678
0
ARC
8
DEFAULT_255_2_778
10
79.1291879
20
77.3065768
40
1.0000013
50
26.7373124
51
89.9896977
0
ARC
8
DEFAULT_255_2_778
10
75.5630106
20
75.5082498
40
4.9939468
50
6.9967548
51
26.7559182
0
LINE
8
DEFAULT_255_2_778
10
78.1572677
20
78.3065781
11
79.1293677
21
78.3065781
0
LINE
8
DEFAULT_255_2_778
10
85.4574053
20
74.8964
11
80.5200053
21
74.8964
0
ARC
8
DEFAULT_255_2_778
10
75.5437397
20
75.506444
40
5.0135071
50
359.4629959
51
0.0002347
0
ARC
8
DEFAULT_255_2_778
10
75.5567308
20
75.5059609
40
5.0005122
50
352.9978389
51
359.4671363
0
ARC
8
DEFAULT_255_2_778
10
79.1290754
20
73.7065624
40
1.0001843
50
270.0167494
51
333.2562288
0
ARC
8
DEFAULT_255_2_778
10
75.5630106
20
75.5047064
40
4.9939468
50
333.2440818
51
353.0032452
0
LINE
8
DEFAULT_255_2_778
10
78.1572677
20
72.7063781
11
79.1293677
21
72.7063781
0
LINE
8
DEFAULT_255_2_778
10
85.4573407
20
74.596253
11
85.4573407
21
74.896353
0
LINE
8
DEFAULT_255_2_778
10
78.1572407
20
78.306553
11
78.1572407
21
72.706653
0
LINE
8
DEFAULT_255_2_778
10
76.7573448
20
72.6064062
11
78.1572448
21
72.6064062
0
LINE
8
DEFAULT_255_2_778
10
78.1572448
20
72.6064062
11
78.1572448
21
72.7064062
0
LINE
8
DEFAULT_255_2_778
10
79.4820667
20
73.7064802
11
80.5573667
21
75.5064802
0
ARC
8
DEFAULT_255_2_778
10
84.2594815
20
71.6963269
40
4.9978311
50
333.2467696
51
0.002664
0
ARC
8
DEFAULT_255_2_778
10
87.82914
20
69.8966115
40
1.0001522
50
270.0098912
51
333.2573596
0
LINE
8
DEFAULT_255_2_778
10
79.4820127
20
77.3064592
11
80.5572127
21
75.5065592
0
LINE
8
DEFAULT_255_2_778
10
76.7573127
20
78.4063592
11
78.1572127
21
78.4063592
0
LINE
8
DEFAULT_255_2_778
10
78.1572127
20
78.4063592
11
78.1572127
21
78.3063592
0
LINE
8
DEFAULT_255_2_778
10
76.7573127
20
72.6064592
11
76.7573127
21
78.4063592
0
LINE
8
DEFAULT_255_2_778
10
86.8572127
20
74.4966592
11
86.8572127
21
68.8966592
0
LINE
8
DEFAULT_255_2_778
10
87.8293127
20
68.8964592
11
86.8572127
21
68.8964592
0
LINE
8
DEFAULT_255_2_778
10
85.4573448
20
68.7964062
11
86.8572448
21
68.7964062
0
LINE
8
DEFAULT_255_2_778
10
86.8572448
20
68.7964062
11
86.8572448
21
68.8964062
0
LINE
8
DEFAULT_255_2_778
10
88.1820667
20
73.4964802
11
89.2573667
21
71.6964802
0
LINE
8
DEFAULT_255_2_778
10
88.1820667
20
69.8964802
11
89.2573667
21
71.6964802
0
ARC
8
DEFAULT_255_2_778
10
87.8292025
20
73.4965414
40
1.0000013
50
26.7373124
51
89.9896977
0
ARC
8
DEFAULT_255_2_778
10
84.2604455
20
71.6969116
40
4.9968368
50
0.0019515
51
26.7559408
0
LINE
8
DEFAULT_255_2_778
10
89.2572824
20
71.6970818
11
89.2572823
21
71.6964427
0
LINE
8
DEFAULT_255_2_778
10
86.8572823
20
74.4965427
11
87.8293823
21
74.4965427
0
LINE
8
DEFAULT_255_2_778
10
85.4573448
20
74.5963655
11
86.8572448
21
74.5963655
0
LINE
8
DEFAULT_255_2_778
10
86.8572448
20
74.5963655
11
86.8572448
21
74.4963655
0
LINE
8
DEFAULT_255_2_778
10
85.4573448
20
68.7964655
11
85.4573448
21
74.5963655
0
ENDSEC
0
EOF