0
SECTION
2
HEADER
9
$MEASUREMENT
70
1
0
ENDSEC
0
SECTION
2
TABLES
0
TABLE
2
LTYPE
0
LTYPE
72
65
70
64
2
CONTINUOUS
3
______
73
0
40
0
0
ENDTAB
0
TABLE
2
LAYER
0
LAYER
2
DEFAULT_255_2_778
70
0
62
255
6
CONTINUOUS
0
ENDTAB
0
ENDSEC
0
SECTION
2
ENTITIES
0
ARC
8
DEFAULT_255_2_778
10
75.3921329
20
79.0788317
40
0.3045572
50
85.0432056
51
89.9935717
0
ARC
8
DEFAULT_255_2_778
10
75.3923361
20
79.0834739
40
0.2999152
50
90.0322992
51
175.0313076
0
ARC
8
DEFAULT_255_2_778
10
75.397371
20
79.0832847
40
0.3049476
50
175.0778302
51
179.993952
0
ARC
8
DEFAULT_255_2_778
10
75.3923846
20
79.0833792
40
0.2999613
50
180.011901
51
265.0204711
0
LINE
8
DEFAULT_255_2_778
10
76.584748
20
80.1180499
11
76.784848
21
79.7717499
0
LINE
8
DEFAULT_255_2_778
10
76.784848
20
79.7717499
11
76.019148
21
79.3295499
0
LINE
8
DEFAULT_255_2_778
10
76.019148
20
79.3295499
11
75.418448
21
79.3822499
0
LINE
8
DEFAULT_255_2_778
10
75.366348
20
78.7845499
11
76.180248
21
78.7133499
0
LINE
8
DEFAULT_255_2_778
10
76.180248
20
78.7133499
11
77.184848
21
79.0790499
0
LINE
8
DEFAULT_255_2_778
10
77.184848
20
79.0790499
11
78.484748
21
76.8274499
0
LINE
8
DEFAULT_255_2_778
10
78.484748
20
76.8274499
11
77.665848
21
76.1403499
0
LINE
8
DEFAULT_255_2_778
10
77.665848
20
76.1403499
11
77.655248
21
76.1175499
0
LINE
8
DEFAULT_255_2_778
10
76.155348
20
78.7154499
11
75.482748
21
78.3270499
0
LINE
8
DEFAULT_255_2_778
10
71.938148
20
78.8282499
11
71.258148
21
76.2905499
0
LINE
8
DEFAULT_255_2_778
10
71.258148
20
76.2905499
11
71.216648
21
76.2665499
0
LINE
8
DEFAULT_255_2_778
10
79.1478646
20
76.9790406
11
76.9827646
21
75.7291406
0
LINE
8
DEFAULT_255_2_778
10
76.9827646
20
75.7291406
11
74.9827646
21
79.1933406
0
LINE
8
DEFAULT_255_2_778
10
74.9827646
20
79.1933406
11
77.1478646
21
80.4432406
0
LINE
8
DEFAULT_255_2_778
10
71.8804536
20
80.4281582
11
71.8801727
21
80.4281583
0
ARC
8
DEFAULT_255_2_778
10
71.8802875
20
79.9282947
40
0.4998636
50
90.0131523
51
150.0090354
0
ARC
8
DEFAULT_255_2_778
10
71.8801403
20
79.9282434
40
0.4997617
50
149.9955036
51
180.0111988
0
LINE
8
DEFAULT_255_2_778
10
71.3803786
20
79.9281457
11
71.3803787
21
79.9277845
0
ARC
8
DEFAULT_255_2_778
10
71.8805463
20
79.928082
40
0.5001677
50
180.034089
51
209.9920506
0
LINE
8
DEFAULT_255_2_778
10
71.2166536
20
73.6281582
11
80.2167536
21
73.6281582
0
LINE
8
DEFAULT_255_2_778
10
80.2167536
20
73.6281582
11
80.2167536
21
75.1280582
0
LINE
8
DEFAULT_255_2_778
10
80.2167536
20
75.1280582
11
76.5794536
21
81.4280582
0
LINE
8
DEFAULT_255_2_778
10
76.5794536
20
81.4280582
11
75.0795536
21
81.4280582
0
LINE
8
DEFAULT_255_2_778
10
75.0795536
20
81.4280582
11
74.0794536
21
80.4281582
0
LINE
8
DEFAULT_255_2_778
10
74.0794536
20
80.4281582
11
71.8804536
21
80.4281582
0
LINE
8
DEFAULT_255_2_778
10
71.4473536
20
79.6780582
11
74.9403536
21
73.6281582
0
ARC
8
DEFAULT_255_2_778
10
58.3999535
20
3.3243799
40
1.7954174
50
299.9566853
51
325.6674358
0
ARC
8
DEFAULT_255_2_778
10
58.3931393
20
3.3288818
40
1.8035833
50
325.6714259
51
359.9702961
0
ARC
8
DEFAULT_255_2_778
10
58.4038616
20
3.3279466
40
1.7928608
50
0.0000033
51
7.0116588
0
ARC
8
DEFAULT_255_2_778
10
58.3945467
20
3.326572
40
1.8022737
50
7.0188857
51
16.3321271
0
ARC
8
DEFAULT_255_2_778
10
58.3775087
20
3.3219364
40
1.8199278
50
16.321339
51
17.8543963
0
ARC
8
DEFAULT_255_2_778
10
58.4011941
20
3.3310634
40
1.7945854
50
17.8088836
51
47.279744
0
ARC
8
DEFAULT_255_2_778
10
58.3969404
20
3.3282687
40
1.7995247
50
47.2406101
51
89.9718058
0
ARC
8
DEFAULT_255_2_778
10
58.3979819
20
3.3170639
40
1.8107293
50
90.0049376
51
95.736707
0
LINE
8
DEFAULT_255_2_778
10
74.0167864
20
75.2280246
11
71.2166864
21
75.2280246
0
LINE
8
DEFAULT_255_2_778
10
6.0164864
20
64.0192246
11
7.6164864
21
64.0192246
0
LINE
8
DEFAULT_255_2_778
10
7.6164864
20
64.0192246
11
7.6164864
21
38.6192246
0
LINE
8
DEFAULT_255_2_778
10
7.6164864
20
38.6192246
11
6.0164864
21
38.6192246
0
LINE
8
DEFAULT_255_2_778
10
51.7565864
20
1.3190246
11
51.7565864
21
0.9190246
0
LINE
8
DEFAULT_255_2_778
10
51.7565864
20
0.9190246
11
52.3566864
21
0.9190246
0
LINE
8
DEFAULT_255_2_778
10
52.3566864
20
0.9190246
11
52.3566864
21
0.5189246
0
LINE
8
DEFAULT_255_2_778
10
52.3566864
20
0.5189246
11
53.1567864
21
0.5189246
0
LINE
8
DEFAULT_255_2_778
10
53.1567864
20
0.5189246
11
53.1567864
21
0.1189246
0
LINE
8
DEFAULT_255_2_778
10
53.1567864
20
0.1189246
11
53.9568864
21
0.1189246
0
LINE
8
DEFAULT_255_2_778
10
53.9568864
20
0.1189246
11
53.9568864
21
-0.1810754
0
LINE
8
DEFAULT_255_2_778
10
53.9568864
20
-0.1810754
11
57.0167864
21
-0.1810754
0
LINE
8
DEFAULT_255_2_778
10
57.0167864
20
-0.1810754
11
58.5166864
21
1.3188246
0
LINE
8
DEFAULT_255_2_778
10
58.5166864
20
1.3188246
11
59.2964864
21
1.7688246
0
LINE
8
DEFAULT_255_2_778
10
58.2169864
20
5.1187246
11
58.2169864
21
8.2278246
0
LINE
8
DEFAULT_255_2_778
10
58.2169864
20
8.2278246
11
54.1669864
21
8.2278246
0
LINE
8
DEFAULT_255_2_778
10
54.1669864
20
8.2278246
11
54.1669864
21
70.9280246
0
LINE
8
DEFAULT_255_2_778
10
54.1669864
20
70.9280246
11
58.2169864
21
70.9280246
0
LINE
8
DEFAULT_255_2_778
10
58.2169864
20
70.9280246
11
58.2169864
21
74.3192246
0
LINE
8
DEFAULT_255_2_778
10
58.2169864
20
74.3192246
11
71.2169864
21
74.3192246
0
LINE
8
DEFAULT_255_2_778
10
71.2169864
20
74.3192246
11
71.2169864
21
96.8191246
0
LINE
8
DEFAULT_255_2_778
10
71.2169864
20
96.8191246
11
70.7168864
21
96.8191246
0
LINE
8
DEFAULT_255_2_778
10
70.7168864
20
96.8191246
11
66.2168864
21
101.3191246
0
LINE
8
DEFAULT_255_2_778
10
66.2168864
20
101.3191246
11
4.1165864
21
101.3191246
0
LINE
8
DEFAULT_255_2_778
10
59.9779864
20
2.4692246
11
0.2165864
21
2.4692246
0
LINE
8
DEFAULT_255_2_778
10
68.3666749
20
99.1691074
11
0.2165749
21
99.1691074
0
LINE
8
DEFAULT_255_2_778
10
16.0164749
20
49.9992074
11
12.2164749
21
49.9992074
0
LINE
8
DEFAULT_255_2_778
10
12.2164749
20
49.9992074
11
12.2164749
21
39.8691074
0
LINE
8
DEFAULT_255_2_778
10
12.2164749
20
39.8691074
11
16.0164749
21
39.8691074
0
LINE
8
DEFAULT_255_2_778
10
16.0164749
20
91.7692074
11
12.2164749
21
91.7692074
0
LINE
8
DEFAULT_255_2_778
10
12.2164749
20
91.7692074
11
12.2164749
21
52.3693074
0
LINE
8
DEFAULT_255_2_778
10
12.2164749
20
52.3693074
11
16.0164749
21
52.3693074
0
LINE
8
DEFAULT_255_2_778
10
3.0666749
20
33.4506074
11
3.0666749
21
36.1250074
0
LINE
8
DEFAULT_255_2_778
10
0.6121749
20
33.1651074
11
3.7667749
21
36.9690074
0
LINE
8
DEFAULT_255_2_778
10
3.7667749
20
36.9690074
11
4.6168749
21
36.9690074
0
LINE
8
DEFAULT_255_2_778
10
4.6168749
20
36.9690074
11
5.2301749
21
33.6191074
0
LINE
8
DEFAULT_255_2_778
10
4.7165749
20
48.2191074
11
7.6166749
21
48.2191074
0
LINE
8
DEFAULT_255_2_778
10
6.0164323
20
61.3191602
11
7.6163323
21
61.3191602
0
LINE
8
DEFAULT_255_2_778
10
6.0164323
20
43.4190602
11
7.6163323
21
43.4190602
0
LINE
8
DEFAULT_255_2_778
10
4.1165936
20
99.1691475
11
4.1165936
21
105.8191475
0
LINE
8
DEFAULT_255_2_778
10
4.1165936
20
105.8191475
11
0.2165936
21
105.8191475
0
LINE
8
DEFAULT_255_2_778
10
0.2165936
20
105.8191475
11
0.2165936
21
69.5191475
0
LINE
8
DEFAULT_255_2_778
10
0.2165936
20
69.5191475
11
4.5165936
21
69.0190475
0
LINE
8
DEFAULT_255_2_778
10
4.5165936
20
69.0190475
11
6.0164936
21
69.0190475
0
LINE
8
DEFAULT_255_2_778
10
6.0164936
20
69.0190475
11
6.0164936
21
55.4189475
0
LINE
8
DEFAULT_255_2_778
10
6.0164936
20
55.4189475
11
4.7165936
21
55.4189475
0
LINE
8
DEFAULT_255_2_778
10
4.7165936
20
55.4189475
11
4.7165936
21
47.2189475
0
LINE
8
DEFAULT_255_2_778
10
4.7165936
20
47.2189475
11
6.0164936
21
47.2189475
0
LINE
8
DEFAULT_255_2_778
10
6.0164936
20
47.2189475
11
6.0164936
21
33.6188475
0
LINE
8
DEFAULT_255_2_778
10
6.0164936
20
33.6188475
11
4.5165936
21
33.6188475
0
LINE
8
DEFAULT_255_2_778
10
4.5165936
20
33.6188475
11
0.2165936
21
33.1190475
0
LINE
8
DEFAULT_255_2_778
10
0.2165936
20
33.1190475
11
0.2165936
21
1.3190475
0
LINE
8
DEFAULT_255_2_778
10
0.2165936
20
1.3190475
11
61.7165936
21
1.3190475
0
LINE
8
DEFAULT_255_2_778
10
61.7165936
20
1.3190475
11
61.7165936
21
2.2781475
0
ARC
8
DEFAULT_255_2_778
10
58.2226342
20
3.1301453
40
2.0940596
50
359.9477347
51
23.6158017
0
ARC
8
DEFAULT_255_2_778
10
58.2142558
20
3.1250796
40
2.1037659
50
23.6507999
51
79.9497193
0
ARC
8
DEFAULT_255_2_778
10
58.216836
20
3.1143507
40
2.1138844
50
80.0693296
51
90.0038786
0
LINE
8
DEFAULT_255_2_778
10
60.3134929
20
3.2417351
11
60.1962929
21
3.3187351
0
LINE
8
DEFAULT_255_2_778
10
65.7165929
20
101.3191351
11
64.2165929
21
102.8190351
0
LINE
8
DEFAULT_255_2_778
10
64.2165929
20
102.8190351
11
61.3164929
21
102.8190351
0
LINE
8
DEFAULT_255_2_778
10
61.3164929
20
102.8190351
11
61.3164929
21
102.5190351
0
LINE
8
DEFAULT_255_2_778
10
61.3164929
20
102.5190351
11
60.5163929
21
102.5190351
0
LINE
8
DEFAULT_255_2_778
10
60.5163929
20
102.5190351
11
60.5163929
21
102.1189351
0
LINE
8
DEFAULT_255_2_778
10
60.5163929
20
102.1189351
11
59.7162929
21
102.1189351
0
LINE
8
DEFAULT_255_2_778
10
59.7162929
20
102.1189351
11
59.7162929
21
101.7189351
0
LINE
8
DEFAULT_255_2_778
10
59.7162929
20
101.7189351
11
59.1162929
21
101.7189351
0
LINE
8
DEFAULT_255_2_778
10
59.1162929
20
101.7189351
11
59.1162929
21
101.3188351
0
LINE
8
DEFAULT_255_2_778
10
58.2166929
20
74.1281351
11
71.2166929
21
74.1281351
0
LINE
8
DEFAULT_255_2_778
10
71.2166929
20
74.1281351
11
71.2166929
21
5.7481351
0
LINE
8
DEFAULT_255_2_778
10
71.2166929
20
5.7481351
11
69.9167929
21
5.7481351
0
LINE
8
DEFAULT_255_2_778
10
69.9167929
20
5.7481351
11
69.9167929
21
2.2781351
0
LINE
8
DEFAULT_255_2_778
10
69.9167929
20
2.2781351
11
60.3166929
21
2.2781351
0
LINE
8
DEFAULT_255_2_778
10
60.3166929
20
2.2781351
11
60.3166929
21
3.1282351
0
LINE
8
DEFAULT_255_2_778
10
58.2166929
20
5.2282351
11
58.2166929
21
8.2283351
0
LINE
8
DEFAULT_255_2_778
10
58.2166929
20
8.2283351
11
54.1666929
21
8.2283351
0
LINE
8
DEFAULT_255_2_778
10
54.1666929
20
8.2283351
11
54.1666929
21
70.9280351
0
LINE
8
DEFAULT_255_2_778
10
54.1666929
20
70.9280351
11
58.2166929
21
70.9280351
0
ARC
8
DEFAULT_255_2_778
10
64.4823355
20
3.6578849
40
2.5148426
50
278.7383412
51
279.9966483
0
ARC
8
DEFAULT_255_2_778
10
64.4841337
20
3.6445771
40
2.5014162
50
270.5467269
51
278.7439401
0
ARC
8
DEFAULT_255_2_778
10
64.4843549
20
3.6396429
40
2.49648
50
270.0001292
51
270.5427309
0
ARC
8
DEFAULT_255_2_778
10
64.4850919
20
3.6439114
40
2.5007486
50
214.4745463
51
269.9832427
0
ARC
8
DEFAULT_255_2_778
10
64.4981028
20
3.6524359
40
2.5162997
50
213.1015433
51
214.4668658
0
LINE
8
DEFAULT_255_2_778
10
59.9549885
20
4.2282229
11
60.0052885
21
4.2282229
0
LINE
8
DEFAULT_255_2_778
10
69.2513885
20
2.2782229
11
68.9852885
21
1.8982229
0
LINE
8
DEFAULT_255_2_778
10
68.9852885
20
1.8982229
11
64.9188885
21
1.1812229
0
LINE
8
DEFAULT_255_2_778
10
4.4636885
20
69.0251229
11
4.4162885
21
65.6692229
0
LINE
8
DEFAULT_255_2_778
10
4.4162885
20
65.6692229
11
3.6164885
21
65.6692229
0
LINE
8
DEFAULT_255_2_778
10
3.6164885
20
65.6692229
11
0.4459885
21
69.4924229
0
LINE
8
DEFAULT_255_2_778
10
2.3165388
20
67.236821
11
2.3165388
21
69.274921
0
LINE
8
DEFAULT_255_2_778
10
4.1165388
20
104.319221
11
0.2165388
21
104.319221
0
LINE
8
DEFAULT_255_2_778
10
16.0166388
20
38.869021
11
16.0166388
21
92.769121
0
LINE
8
DEFAULT_255_2_778
10
11.7166388
20
92.769121
11
11.7166388
21
38.869021
0
LINE
8
DEFAULT_255_2_778
10
19.0165179
20
38.8690607
11
8.7165179
21
38.8690607
0
LINE
8
DEFAULT_255_2_778
10
8.7165179
20
38.8690607
11
8.7165179
21
92.7691607
0
LINE
8
DEFAULT_255_2_778
10
8.7165179
20
92.7691607
11
19.0165179
21
92.7691607
0
LINE
8
DEFAULT_255_2_778
10
19.0165179
20
92.7691607
11
19.0165179
21
38.8690607
0
ENDSEC
0
EOF