0
SECTION
2
HEADER
9
$MEASUREMENT
70
1
0
ENDSEC
0
SECTION
2
TABLES
0
TABLE
2
LTYPE
0
LTYPE
72
65
70
64
2
CONTINUOUS
3
______
73
0
40
0
0
ENDTAB
0
TABLE
2
LAYER
0
LAYER
2
DEFAULT_255_2_778
70
0
62
255
6
CONTINUOUS
0
LAYER
2
DEFAULT_255_1_388
70
0
62
255
6
CONTINUOUS
0
LAYER
2
DEFAULT_255_2_778_1
70
0
62
255
6
CONTINUOUS
0
ENDTAB
0
ENDSEC
0
SECTION
2
ENTITIES
0
ARC
8
DEFAULT_255_2_778
10
3.5700693
20
139.3052021
40
0.7914215
50
129.1312896
51
180.1450914
0
ARC
8
DEFAULT_255_2_778
10
3.5703345
20
139.3056893
40
0.7912112
50
89.854026
51
129.1684493
0
ARC
8
DEFAULT_255_2_778
10
25.7993937
20
139.3053758
40
0.7915249
50
39.4792447
51
90.147911
0
ARC
8
DEFAULT_255_2_778
10
25.7999935
20
139.3052224
40
0.7911595
50
359.8533901
51
39.5154338
0
ARC
8
DEFAULT_255_2_778
10
25.7996693
20
-1.9863501
40
0.7914836
50
309.4761667
51
0.1482649
0
ARC
8
DEFAULT_255_2_778
10
25.799398
20
-1.9867812
40
0.7913235
50
269.8517415
51
309.511178
0
ARC
8
DEFAULT_255_2_778
10
3.570342
20
-1.986723
40
0.7913815
50
219.1282118
51
270.1454017
0
ARC
8
DEFAULT_255_2_778
10
3.5700247
20
-1.9863406
40
0.7913769
50
179.8524075
51
219.1641908
0
LINE
8
DEFAULT_255_2_778
10
3.5723503
20
140.096898
11
25.7973503
21
140.096898
0
LINE
8
DEFAULT_255_2_778
10
26.5911503
20
139.303198
11
26.5911503
21
-1.984302
0
LINE
8
DEFAULT_255_2_778
10
25.7973503
20
-2.778102
11
3.5723503
21
-2.778102
0
LINE
8
DEFAULT_255_2_778
10
2.7786503
20
-1.984302
11
2.7786503
21
139.303198
0
LINE
8
DEFAULT_255_1_388
10
10.554991
20
0.6757898
11
10.554991
21
-0.6398
0
LINE
8
DEFAULT_255_1_388
10
10.554991
20
-0.6398
11
10.3806031
21
-0.6398
0
LINE
8
DEFAULT_255_1_388
10
10.3806031
20
-0.6398
11
9.7182903
21
0.3739993
0
LINE
8
DEFAULT_255_1_388
10
9.7182903
20
0.3739993
11
9.7182903
21
-0.6398
0
LINE
8
DEFAULT_255_1_388
10
9.7182903
20
-0.6398
11
9.5439024
21
-0.6398
0
LINE
8
DEFAULT_255_1_388
10
9.5439024
20
-0.6398
11
9.5439024
21
0.6757898
0
LINE
8
DEFAULT_255_1_388
10
9.5439024
20
0.6757898
11
9.7182903
21
0.6757898
0
LINE
8
DEFAULT_255_1_388
10
9.7182903
20
0.6757898
11
10.3824102
21
-0.3425273
0
LINE
8
DEFAULT_255_1_388
10
10.3824102
20
-0.3425273
11
10.3824102
21
0.6757898
0
LINE
8
DEFAULT_255_1_388
10
10.3824102
20
0.6757898
11
10.554991
21
0.6757898
0
LINE
8
DEFAULT_255_1_388
10
10.9905091
20
0.6757898
11
11.3076602
21
0.1716009
0
LINE
8
DEFAULT_255_1_388
10
11.3076602
20
0.1716009
11
11.6230042
21
0.6757898
0
LINE
8
DEFAULT_255_1_388
10
11.6230042
20
0.6757898
11
11.8272098
21
0.6757898
0
LINE
8
DEFAULT_255_1_388
10
11.8272098
20
0.6757898
11
11.4115701
21
0.0234163
0
LINE
8
DEFAULT_255_1_388
10
11.4115701
20
0.0234163
11
11.837149
21
-0.6398
0
LINE
8
DEFAULT_255_1_388
10
11.837149
20
-0.6398
11
11.6311363
21
-0.6398
0
LINE
8
DEFAULT_255_1_388
10
11.6311363
20
-0.6398
11
11.3076602
21
-0.1265754
0
LINE
8
DEFAULT_255_1_388
10
11.3076602
20
-0.1265754
11
10.982377
21
-0.6398
0
LINE
8
DEFAULT_255_1_388
10
10.982377
20
-0.6398
11
10.7772679
21
-0.6398
0
LINE
8
DEFAULT_255_1_388
10
10.7772679
20
-0.6398
11
11.2037503
21
0.0234163
0
LINE
8
DEFAULT_255_1_388
10
11.2037503
20
0.0234163
11
10.7872071
21
0.6757898
0
LINE
8
DEFAULT_255_1_388
10
10.7872071
20
0.6757898
11
10.9905091
21
0.6757898
0
LINE
8
DEFAULT_255_1_388
10
12.3187488
20
-0.0127263
11
12.3187488
21
-0.1491645
0
LINE
8
DEFAULT_255_1_388
10
12.3187488
20
-0.1491645
11
11.8778094
21
-0.1491645
0
LINE
8
DEFAULT_255_1_388
10
11.8778094
20
-0.1491645
11
11.8778094
21
-0.0127263
0
LINE
8
DEFAULT_255_1_388
10
11.8778094
20
-0.0127263
11
12.3187488
21
-0.0127263
0
LINE
8
DEFAULT_255_1_388
10
13.3596551
20
-0.6398
11
13.2340596
21
-0.2964455
0
LINE
8
DEFAULT_255_1_388
10
13.2340596
20
-0.2964455
11
12.6828853
21
-0.2964455
0
LINE
8
DEFAULT_255_1_388
10
12.6828853
20
-0.2964455
11
12.559097
21
-0.6398
0
LINE
8
DEFAULT_255_1_388
10
12.559097
20
-0.6398
11
12.3801912
21
-0.6398
0
LINE
8
DEFAULT_255_1_388
10
12.3801912
20
-0.6398
11
12.882573
21
0.6757898
0
LINE
8
DEFAULT_255_1_388
10
12.882573
20
0.6757898
11
13.0343719
21
0.6757898
0
LINE
8
DEFAULT_255_1_388
10
13.0343719
20
0.6757898
11
13.5376573
21
-0.6398
0
LINE
8
DEFAULT_255_1_388
10
13.5376573
20
-0.6398
11
13.3596551
21
-0.6398
0
LINE
8
DEFAULT_255_1_388
10
12.9584725
20
0.4616451
11
12.735292
21
-0.1536823
0
LINE
8
DEFAULT_255_1_388
10
12.735292
20
-0.1536823
11
13.1825564
21
-0.1536823
0
LINE
8
DEFAULT_255_1_388
10
13.1825564
20
-0.1536823
11
12.9584725
21
0.4616451
0
LINE
8
DEFAULT_255_1_388
10
14.0788924
20
-0.6398
11
13.7147559
21
-0.6398
0
LINE
8
DEFAULT_255_1_388
10
13.7147559
20
-0.6398
11
13.7147559
21
0.6757898
0
LINE
8
DEFAULT_255_1_388
10
13.7147559
20
0.6757898
11
14.0861209
21
0.6757898
0
LINE
8
DEFAULT_255_1_388
10
14.6662093
20
0.0622696
11
14.6662093
21
-0.0217619
0
LINE
8
DEFAULT_255_1_388
10
14.0906387
20
0.5330267
11
13.8882403
21
0.5330267
0
LINE
8
DEFAULT_255_1_388
10
13.8882403
20
0.5330267
11
13.8882403
21
-0.4979404
0
LINE
8
DEFAULT_255_1_388
10
13.8882403
20
-0.4979404
11
14.0707603
21
-0.4979404
0
LINE
8
DEFAULT_255_1_388
10
14.494532
20
-0.0181477
11
14.494532
21
0.0586553
0
ARC
8
DEFAULT_255_1_388
10
14.0905004
20
0.0159436
40
0.6598608
50
75.4100343
51
90.3802731
0
ARC
8
DEFAULT_255_1_388
10
14.1163249
20
0.1235691
40
0.5492049
50
60.1455157
51
75.1889627
0
ARC
8
DEFAULT_255_1_388
10
14.1341841
20
0.1546914
40
0.5133226
50
26.525419
51
60.1451222
0
ARC
8
DEFAULT_255_1_388
10
14.0081627
20
0.0878642
40
0.6559324
50
7.4029944
51
26.832209
0
ARC
8
DEFAULT_255_1_388
10
13.8288024
20
0.0599229
40
0.8374103
50
0.1605597
51
7.7176135
0
ARC
8
DEFAULT_255_1_388
10
13.8472424
20
-0.0260679
40
0.8189782
50
348.7289744
51
0.30125
0
ARC
8
DEFAULT_255_1_388
10
14.0335888
20
-0.0630844
40
0.628991
50
333.0706936
51
348.7181455
0
ARC
8
DEFAULT_255_1_388
10
14.1423517
20
-0.1221551
40
0.5052808
50
299.2531435
51
333.4571133
0
ARC
8
DEFAULT_255_1_388
10
14.1017547
20
-0.0450371
40
0.5924066
50
278.1072193
51
299.0340218
0
ARC
8
DEFAULT_255_1_388
10
14.0729596
20
0.1245979
40
0.7644209
50
270.4446841
51
278.4508355
0
ARC
8
DEFAULT_255_1_388
10
14.075308
20
0.02003
40
0.5179903
50
269.4969684
51
284.0204874
0
ARC
8
DEFAULT_255_1_388
10
14.1152798
20
-0.1335585
40
0.3592968
50
283.7699076
51
318.1557121
0
ARC
8
DEFAULT_255_1_388
10
14.0773343
20
-0.1051601
40
0.4065308
50
318.7417595
51
343.687252
0
ARC
8
DEFAULT_255_1_388
10
13.8743922
20
-0.0417725
40
0.6191194
50
343.3324891
51
355.8548594
0
ARC
8
DEFAULT_255_1_388
10
13.638296
20
-0.0193281
40
0.856237
50
355.4988754
51
0.0789913
0
ARC
8
DEFAULT_255_1_388
10
13.7263759
20
0.063408
40
0.7681709
50
359.6455047
51
9.8607559
0
ARC
8
DEFAULT_255_1_388
10
13.9919482
20
0.1113664
40
0.498312
50
9.6573037
51
26.1931522
0
ARC
8
DEFAULT_255_1_388
10
14.0963557
20
0.1598587
40
0.3832303
50
26.5777895
51
40.1533752
0
ARC
8
DEFAULT_255_1_388
10
14.1251222
20
0.182302
40
0.3467742
50
40.3839958
51
80.1430923
0
ARC
8
DEFAULT_255_1_388
10
14.0883478
20
0.0192486
40
0.5137832
50
79.2153636
51
89.7445174
0
LINE
8
DEFAULT_255_1_388
10
15.5905557
20
0.6757898
11
15.5905557
21
-0.197957
0
LINE
8
DEFAULT_255_1_388
10
15.5905557
20
-0.197957
11
15.7730757
21
-0.197957
0
LINE
8
DEFAULT_255_1_388
10
15.7730757
20
-0.197957
11
15.7730757
21
-0.3343952
0
LINE
8
DEFAULT_255_1_388
10
15.7730757
20
-0.3343952
11
15.5905557
21
-0.3343952
0
LINE
8
DEFAULT_255_1_388
10
15.5905557
20
-0.3343952
11
15.5905557
21
-0.6398
0
LINE
8
DEFAULT_255_1_388
10
15.5905557
20
-0.6398
11
15.4224927
21
-0.6398
0
LINE
8
DEFAULT_255_1_388
10
15.4224927
20
-0.6398
11
15.4224927
21
-0.3343952
0
LINE
8
DEFAULT_255_1_388
10
15.4224927
20
-0.3343952
11
14.8234295
21
-0.3343952
0
LINE
8
DEFAULT_255_1_388
10
14.8234295
20
-0.3343952
11
14.8234295
21
-0.2359067
0
LINE
8
DEFAULT_255_1_388
10
14.8234295
20
-0.2359067
11
15.4125535
21
0.6757898
0
LINE
8
DEFAULT_255_1_388
10
15.4125535
20
0.6757898
11
15.5905557
21
0.6757898
0
LINE
8
DEFAULT_255_1_388
10
15.4026143
20
0.4110455
11
15.013178
21
-0.197957
0
LINE
8
DEFAULT_255_1_388
10
15.013178
20
-0.197957
11
15.4224927
21
-0.197957
0
LINE
8
DEFAULT_255_1_388
10
15.4224927
20
-0.197957
11
15.4224927
21
0.447188
0
LINE
8
DEFAULT_255_1_388
10
15.4224927
20
0.447188
11
15.4026143
21
0.4110455
0
LINE
8
DEFAULT_255_1_388
10
16.5501412
20
0.6766934
11
16.5799588
21
0.6766934
0
LINE
8
DEFAULT_255_1_388
10
16.5799588
20
0.6766934
11
16.5799588
21
0.5348338
0
LINE
8
DEFAULT_255_1_388
10
16.5799588
20
0.5348338
11
16.5492376
21
0.5348338
0
LINE
8
DEFAULT_255_1_388
10
15.9339102
20
-0.1392253
11
15.9339102
21
-0.0750722
0
LINE
8
DEFAULT_255_1_388
10
16.1019732
20
-0.0967578
11
16.1019732
21
-0.1582001
0
ARC
8
DEFAULT_255_1_388
10
16.5551268
20
-0.0274174
40
0.562282
50
90.6001079
51
104.5146616
0
ARC
8
DEFAULT_255_1_388
10
16.5114227
20
0.13511
40
0.3939917
50
104.2855758
51
133.8630124
0
ARC
8
DEFAULT_255_1_388
10
16.529848
20
0.1229243
40
0.4155734
50
134.5304124
51
161.6210222
0
ARC
8
DEFAULT_255_1_388
10
16.7158412
20
0.0573421
40
0.6127682
50
161.2850533
51
174.2074364
0
ARC
8
DEFAULT_255_1_388
10
16.8747979
20
0.0354437
40
0.7731446
50
173.7817938
51
174.9251711
0
ARC
8
DEFAULT_255_1_388
10
16.3622172
20
-0.120073
40
0.3412588
50
95.8332067
51
138.995412
0
ARC
8
DEFAULT_255_1_388
10
16.3873453
20
-0.2639305
40
0.4870358
50
89.8755506
51
97.0540979
0
ARC
8
DEFAULT_255_1_388
10
16.3926842
20
-0.1699159
40
0.3930432
50
71.6407016
51
90.6240821
0
ARC
8
DEFAULT_255_1_388
10
16.4096235
20
-0.1075567
40
0.3285421
50
39.6368051
51
71.0190743
0
ARC
8
DEFAULT_255_1_388
10
16.3380143
20
-0.1694414
40
0.4231706
50
10.6588054
51
39.9044509
0
ARC
8
DEFAULT_255_1_388
10
16.1638688
20
-0.2072777
40
0.60133
50
359.6827842
51
11.1326896
0
ARC
8
DEFAULT_255_1_388
10
16.1594024
20
-0.2152285
40
0.6058047
50
347.2485908
51
0.4371098
0
ARC
8
DEFAULT_255_1_388
10
16.346981
20
-0.2603621
40
0.4128987
50
318.1408565
51
347.6118497
0
ARC
8
DEFAULT_255_1_388
10
16.3835406
20
-0.2904097
40
0.3656244
50
275.6342406
51
317.824739
0
ARC
8
DEFAULT_255_1_388
10
16.3586927
20
-0.1442173
40
0.513655
50
269.8872513
51
276.7916069
0
ARC
8
DEFAULT_255_1_388
10
16.352512
20
-0.2595819
40
0.398323
50
246.9139443
51
270.7436787
0
ARC
8
DEFAULT_255_1_388
10
16.3532316
20
-0.2755956
40
0.3839368
50
218.1665534
51
245.8780431
0
ARC
8
DEFAULT_255_1_388
10
16.4521688
20
-0.1928097
40
0.5128958
50
191.4115343
51
218.6077624
0
ARC
8
DEFAULT_255_1_388
10
16.6702004
20
-0.1439223
40
0.7363054
50
179.6344971
51
191.7836758
0
ARC
8
DEFAULT_255_1_388
10
17.2981879
20
-0.0675505
40
1.3642984
50
171.4523743
51
180.3158856
0
ARC
8
DEFAULT_255_1_388
10
16.8037606
20
0.0093895
40
0.8639311
50
157.9802296
51
171.6246761
0
ARC
8
DEFAULT_255_1_388
10
16.5546956
20
0.1087038
40
0.5958004
50
141.4299236
51
157.8541251
0
ARC
8
DEFAULT_255_1_388
10
16.482504
20
0.1597746
40
0.5075416
50
102.871586
51
140.8564533
0
ARC
8
DEFAULT_255_1_388
10
16.5553592
20
-0.1147057
40
0.7914163
50
90.377773
51
103.5868422
0
ARC
8
DEFAULT_255_1_388
10
16.3598114
20
-0.1827457
40
0.2667015
50
89.8751238
51
126.2072139
0
ARC
8
DEFAULT_255_1_388
10
16.3649585
20
-0.2001153
40
0.2838229
50
124.9742447
51
144.8960197
0
ARC
8
DEFAULT_255_1_388
10
16.345183
20
-0.1840019
40
0.2583845
50
145.2974778
51
160.2660922
0
ARC
8
DEFAULT_255_1_388
10
16.6908318
20
-0.1617849
40
0.5888695
50
179.6512124
51
190.285571
0
ARC
8
DEFAULT_255_1_388
10
16.5002798
20
-0.1977032
40
0.3949683
50
190.0944895
51
207.5099647
0
ARC
8
DEFAULT_255_1_388
10
16.4366379
20
-0.2279823
40
0.3245464
50
207.9585471
51
216.325377
0
ARC
8
DEFAULT_255_1_388
10
16.3984016
20
-0.2594288
40
0.2751259
50
215.7661336
51
232.5457193
0
ARC
8
DEFAULT_255_1_388
10
16.3553132
20
-0.3141727
40
0.2054668
50
232.8005815
51
270.6605497
0
ARC
8
DEFAULT_255_1_388
10
16.3604557
20
-0.2732147
40
0.2464268
50
269.3550767
51
288.474612
0
ARC
8
DEFAULT_255_1_388
10
16.3709064
20
-0.3125279
40
0.2058436
50
289.1831976
51
322.9685307
0
ARC
8
DEFAULT_255_1_388
10
16.3021165
20
-0.2582721
40
0.2934408
50
322.6007085
51
346.5183319
0
ARC
8
DEFAULT_255_1_388
10
16.1718921
20
-0.2250566
40
0.4278249
50
346.2584622
51
358.7739592
0
ARC
8
DEFAULT_255_1_388
10
16.0567497
20
-0.2188171
40
0.5430876
50
358.3757628
51
0.0082477
0
ARC
8
DEFAULT_255_1_388
10
16.1424315
20
-0.2157144
40
0.4574157
50
359.6211417
51
11.28403
0
ARC
8
DEFAULT_255_1_388
10
16.2860921
20
-0.1857465
40
0.3106708
50
11.0483152
51
31.8145585
0
ARC
8
DEFAULT_255_1_388
10
16.3208626
20
-0.1668955
40
0.2711963
50
32.3028554
51
38.0820598
0
ARC
8
DEFAULT_255_1_388
10
16.3681859
20
-0.1240283
40
0.2075566
50
36.8249851
51
85.741667
0
ARC
8
DEFAULT_255_1_388
10
16.3606272
20
-0.1803935
40
0.2643487
50
85.0150021
51
90.050843
0
LINE
8
DEFAULT_255_1_388
10
17.7880245
20
0.138169
11
17.7880245
21
-0.0786865
0
LINE
8
DEFAULT_255_1_388
10
16.9576487
20
-0.1012756
11
16.9576487
21
0.1219048
0
LINE
8
DEFAULT_255_1_388
10
17.620865
20
-0.1238647
11
17.620865
21
0.1499153
0
LINE
8
DEFAULT_255_1_388
10
17.1248082
20
0.1625652
11
17.1248082
21
-0.1048898
0
ARC
8
DEFAULT_255_1_388
10
16.4102579
20
-0.0841882
40
1.3777776
50
353.8440855
51
0.2287917
0
ARC
8
DEFAULT_255_1_388
10
16.9321596
20
-0.1424586
40
0.852639
50
344.4934746
51
353.9763743
0
ARC
8
DEFAULT_255_1_388
10
17.2688403
20
-0.2381809
40
0.5026273
50
329.2803599
51
344.7473406
0
ARC
8
DEFAULT_255_1_388
10
17.3803899
20
-0.2993962
40
0.3754848
50
324.9361395
51
328.6153007
0
ARC
8
DEFAULT_255_1_388
10
17.4229549
20
-0.3291414
40
0.3235566
50
280.5801797
51
324.9173226
0
ARC
8
DEFAULT_255_1_388
10
17.3778177
20
-0.1411764
40
0.5167077
50
269.5979457
51
281.6732777
0
ARC
8
DEFAULT_255_1_388
10
17.3697081
20
-0.1546887
40
0.5032026
50
256.6228565
51
270.5105488
0
ARC
8
DEFAULT_255_1_388
10
17.3244824
20
-0.3288655
40
0.3233092
50
215.8618351
51
257.2787793
0
ARC
8
DEFAULT_255_1_388
10
17.4393531
20
-0.2517894
40
0.4615831
50
197.9695203
51
215.2622745
0
ARC
8
DEFAULT_255_1_388
10
17.7189206
20
-0.1574359
40
0.7566307
50
187.8816486
51
198.2346584
0
ARC
8
DEFAULT_255_1_388
10
18.1642445
20
-0.0931547
40
1.2065653
50
180.8977266
51
188.0054894
0
ARC
8
DEFAULT_255_1_388
10
18.4692658
20
-0.08166
40
1.5117443
50
180.7434591
51
181.152202
0
ARC
8
DEFAULT_255_1_388
10
18.3017654
20
0.1273371
40
1.3441277
50
173.7674302
51
180.2315596
0
ARC
8
DEFAULT_255_1_388
10
17.7935523
20
0.1847779
40
0.8326847
50
164.3058537
51
173.9000553
0
ARC
8
DEFAULT_255_1_388
10
17.4659523
20
0.2791652
40
0.4917711
50
148.7922028
51
164.5682288
0
ARC
8
DEFAULT_255_1_388
10
17.359026
20
0.3388457
40
0.3694204
50
144.5883979
51
148.1161588
0
ARC
8
DEFAULT_255_1_388
10
17.3203006
20
0.3658667
40
0.322202
50
101.6440149
51
144.5142619
0
ARC
8
DEFAULT_255_1_388
10
17.3681198
20
0.1758337
40
0.5180451
50
89.528284
51
102.5820197
0
ARC
8
DEFAULT_255_1_388
10
17.377019
20
0.1714376
40
0.5224441
50
77.0437914
51
90.508231
0
ARC
8
DEFAULT_255_1_388
10
17.4222444
20
0.3562272
40
0.3322297
50
48.2777708
51
77.4996087
0
ARC
8
DEFAULT_255_1_388
10
17.4304184
20
0.3707557
40
0.315966
50
36.3141586
51
47.6307332
0
ARC
8
DEFAULT_255_1_388
10
17.3326906
20
0.3049159
40
0.4337313
50
18.2931065
51
35.6770203
0
ARC
8
DEFAULT_255_1_388
10
17.0465747
20
0.2067107
40
0.7362203
50
8.0246996
51
18.5605636
0
ARC
8
DEFAULT_255_1_388
10
16.5782102
20
0.1375432
40
1.2096583
50
1.127539
51
8.1718423
0
ARC
8
DEFAULT_255_1_388
10
16.2133236
20
0.1232374
40
1.5747719
50
0.5432713
51
1.38669
0
ARC
8
DEFAULT_255_1_388
10
16.4190614
20
0.1539163
40
1.2018103
50
359.8092569
51
4.9408001
0
ARC
8
DEFAULT_255_1_388
10
16.8927196
20
0.19619
40
0.7262727
50
4.8364937
51
12.2906017
0
ARC
8
DEFAULT_255_1_388
10
17.202666
20
0.2652485
40
0.4087324
50
12.0806994
51
23.8171225
0
ARC
8
DEFAULT_255_1_388
10
17.3347056
20
0.3211508
40
0.2653719
50
24.2874621
51
31.3934353
0
ARC
8
DEFAULT_255_1_388
10
17.3937492
20
0.3597822
40
0.1948607
50
30.7407708
51
82.4658033
0
ARC
8
DEFAULT_255_1_388
10
17.3735153
20
0.2604017
40
0.2961198
50
81.1057101
51
90.2187368
0
ARC
8
DEFAULT_255_1_388
10
17.3694965
20
0.2894421
40
0.2670929
50
89.380395
51
105.6763916
0
ARC
8
DEFAULT_255_1_388
10
17.3488687
20
0.364432
40
0.1893189
50
105.7980655
51
149.7387869
0
ARC
8
DEFAULT_255_1_388
10
17.4685827
20
0.2924719
40
0.3289892
50
149.4208441
51
163.628295
0
ARC
8
DEFAULT_255_1_388
10
17.7038057
20
0.2207345
40
0.5749004
50
163.3764549
51
172.141138
0
ARC
8
DEFAULT_255_1_388
10
18.0750778
20
0.1675582
40
0.9499585
50
172.0258462
51
178.0705453
0
ARC
8
DEFAULT_255_1_388
10
18.4172331
20
0.1513682
40
1.2924734
50
177.8639301
51
179.5036263
0
ARC
8
DEFAULT_255_1_388
10
18.295335
20
-0.1089849
40
1.170534
50
179.7995545
51
185.246089
0
ARC
8
DEFAULT_255_1_388
10
17.8404943
20
-0.1520596
40
0.7136613
50
185.1411911
51
193.0082205
0
ARC
8
DEFAULT_255_1_388
10
17.5431203
20
-0.2223559
40
0.4080987
50
192.7897338
51
205.2507384
0
ARC
8
DEFAULT_255_1_388
10
17.4253413
20
-0.2749462
40
0.2791522
50
205.8001921
51
211.2545876
0
ARC
8
DEFAULT_255_1_388
10
17.3664952
20
-0.3143868
40
0.2084074
50
210.3789935
51
238.4007996
0
ARC
8
DEFAULT_255_1_388
10
17.3643038
20
-0.3091214
40
0.2117943
50
239.6521916
51
265.9793852
0
ARC
8
DEFAULT_255_1_388
10
17.3738887
20
-0.2334642
40
0.2879689
50
265.1324455
51
270.0603288
0
ARC
8
DEFAULT_255_1_388
10
17.3771264
20
-0.2699582
40
0.2514919
50
269.3314378
51
287.2180039
0
ARC
8
DEFAULT_255_1_388
10
17.3926347
20
-0.3265709
40
0.1928357
50
287.7957942
51
329.0808983
0
ARC
8
DEFAULT_255_1_388
10
17.2849104
20
-0.2593349
40
0.319808
50
328.6635261
51
343.3325043
0
ARC
8
DEFAULT_255_1_388
10
17.0404562
20
-0.1831805
40
0.5758408
50
343.0498092
51
351.9392499
0
ARC
8
DEFAULT_255_1_388
10
16.6503884
20
-0.1256795
40
0.9701202
50
351.8071632
51
357.7957897
0
ARC
8
DEFAULT_255_1_388
10
16.2869361
20
-0.1068276
40
1.3340376
50
357.5870923
51
359.2682493
0
ARC
8
DEFAULT_255_1_388
10
18.4825198
20
0.329572
40
0.3175098
50
338.8762533
51
0.5167111
0
ARC
8
DEFAULT_255_1_388
10
18.5014791
20
0.32446
40
0.2979894
50
325.8415285
51
338.4793574
0
ARC
8
DEFAULT_255_1_388
10
18.4575425
20
0.3549242
40
0.351452
50
296.7587686
51
325.7536481
0
ARC
8
DEFAULT_255_1_388
10
18.4247053
20
0.4103363
40
0.4157374
50
296.0927901
51
297.3613472
0
ARC
8
DEFAULT_255_1_388
10
18.4541248
20
-0.3279407
40
0.395855
50
47.9007294
51
67.1948823
0
ARC
8
DEFAULT_255_1_388
10
18.476189
20
-0.3002401
40
0.360516
50
35.2363914
51
47.551141
0
ARC
8
DEFAULT_255_1_388
10
18.5056294
20
-0.2805907
40
0.3251343
50
359.2759765
51
35.4014143
0
ARC
8
DEFAULT_255_1_388
10
18.4218221
20
-0.2888213
40
0.4089365
50
343.1293083
51
0.5775513
0
ARC
8
DEFAULT_255_1_388
10
18.5033334
20
-0.3112664
40
0.3244269
50
310.8496669
51
342.7449331
0
ARC
8
DEFAULT_255_1_388
10
18.4563209
20
-0.2576087
40
0.3957651
50
281.5472888
51
310.9170406
0
ARC
8
DEFAULT_255_1_388
10
18.4162083
20
-0.0829186
40
0.5749654
50
269.619248
51
281.9789564
0
ARC
8
DEFAULT_255_1_388
10
18.4080861
20
-0.0828224
40
0.5750649
50
257.4585678
51
270.4285689
0
ARC
8
DEFAULT_255_1_388
10
18.3652381
20
-0.2632259
40
0.389671
50
228.7554326
51
257.8484789
0
ARC
8
DEFAULT_255_1_388
10
18.3303867
20
-0.3051772
40
0.335154
50
184.0104975
51
228.5071184
0
ARC
8
DEFAULT_255_1_388
10
18.4612259
20
-0.285257
40
0.4671891
50
179.9315832
51
185.3253753
0
ARC
8
DEFAULT_255_1_388
10
18.3288772
20
-0.2810408
40
0.33486
50
145.6796023
51
180.6259786
0
ARC
8
DEFAULT_255_1_388
10
18.3472538
20
-0.2938729
40
0.3572723
50
115.5537685
51
145.6415986
0
ARC
8
DEFAULT_255_1_388
10
18.3855581
20
-0.3624913
40
0.4357296
50
113.243307
51
116.2057839
0
ARC
8
DEFAULT_255_1_388
10
18.3684233
20
0.3572379
40
0.3549126
50
222.9549744
51
244.1370481
0
ARC
8
DEFAULT_255_1_388
10
18.3546876
20
0.3418378
40
0.3343711
50
213.3436887
51
222.6274467
0
ARC
8
DEFAULT_255_1_388
10
18.3330946
20
0.3271653
40
0.3082678
50
180.431584
51
213.271499
0
ARC
8
DEFAULT_255_1_388
10
18.3965945
20
0.3324296
40
0.3718363
50
179.9991191
51
181.1690594
0
ARC
8
DEFAULT_255_1_388
10
18.4438401
20
0.3363072
40
0.4190996
50
164.6186169
51
180.529336
0
ARC
8
DEFAULT_255_1_388
10
18.342805
20
0.363478
40
0.3144772
50
132.2455553
51
164.5090724
0
ARC
8
DEFAULT_255_1_388
10
18.3751028
20
0.326907
40
0.3632644
50
100.7053914
51
132.1386381
0
ARC
8
DEFAULT_255_1_388
10
18.4094089
20
0.1719118
40
0.5219578
50
89.6730358
51
101.2451698
0
ARC
8
DEFAULT_255_1_388
10
18.416408
20
0.1915648
40
0.5023124
50
76.287748
51
90.4586006
0
ARC
8
DEFAULT_255_1_388
10
18.4508582
20
0.3290671
40
0.3605639
50
47.8240511
51
76.4266241
0
ARC
8
DEFAULT_255_1_388
10
18.4758966
20
0.3583599
40
0.3220463
50
6.9168387
51
47.6262497
0
ARC
8
DEFAULT_255_1_388
10
18.3424419
20
0.3337004
40
0.4575765
50
359.8415968
51
7.9697453
0
ARC
8
DEFAULT_255_1_388
10
18.3808689
20
-0.2783481
40
0.2827228
50
359.445363
51
16.9256873
0
ARC
8
DEFAULT_255_1_388
10
18.4336123
20
-0.2638219
40
0.2280396
50
17.2920767
51
45.4630727
0
ARC
8
DEFAULT_255_1_388
10
18.4275258
20
-0.2690676
40
0.2360485
50
45.30305
51
83.1920945
0
ARC
8
DEFAULT_255_1_388
10
18.4114003
20
-0.3592527
40
0.3275527
50
82.2612665
51
90.1434275
0
ARC
8
DEFAULT_255_1_388
10
18.4079279
20
-0.3330131
40
0.3013237
50
89.4956434
51
104.8580688
0
ARC
8
DEFAULT_255_1_388
10
18.3880469
20
-0.2576545
40
0.2233867
50
104.8856641
51
135.244616
0
ARC
8
DEFAULT_255_1_388
10
18.3936458
20
-0.2626648
40
0.2308906
50
135.3399546
51
172.1044062
0
ARC
8
DEFAULT_255_1_388
10
18.4843983
20
-0.2800333
40
0.3232034
50
171.2645637
51
180.186429
0
ARC
8
DEFAULT_255_1_388
10
18.4653987
20
-0.2836574
40
0.304213
50
179.5154935
51
193.6464289
0
ARC
8
DEFAULT_255_1_388
10
18.3735663
20
-0.3070527
40
0.209456
50
193.3540274
51
225.8258581
0
ARC
8
DEFAULT_255_1_388
10
18.3781535
20
-0.2990924
40
0.2183738
50
226.4180634
51
255.8552336
0
ARC
8
DEFAULT_255_1_388
10
18.4070002
20
-0.1937479
40
0.3275812
50
255.4654104
51
268.7987425
0
ARC
8
DEFAULT_255_1_388
10
18.4123178
20
-0.0995455
40
0.4218877
50
268.3449238
51
270.0094605
0
ARC
8
DEFAULT_255_1_388
10
18.4149412
20
-0.1763906
40
0.3450519
50
269.5759586
51
282.0820163
0
ARC
8
DEFAULT_255_1_388
10
18.4402448
20
-0.2882637
40
0.2303642
50
281.752014
51
306.6056188
0
ARC
8
DEFAULT_255_1_388
10
18.4513256
20
-0.3064198
40
0.2091906
50
307.1346085
51
314.027845
0
ARC
8
DEFAULT_255_1_388
10
18.4472768
20
-0.3034541
40
0.2141385
50
314.2552483
51
350.1694025
0
ARC
8
DEFAULT_255_1_388
10
18.3515005
20
-0.2826825
40
0.312082
50
349.4140529
51
0.2933014
0
ARC
8
DEFAULT_255_1_388
10
18.4100282
20
0.2976924
40
0.2588377
50
89.477747
51
105.729729
0
ARC
8
DEFAULT_255_1_388
10
18.3947202
20
0.3545367
40
0.1999733
50
105.9233417
51
135.1660906
0
ARC
8
DEFAULT_255_1_388
10
18.3970233
20
0.3529412
40
0.2027322
50
135.3052302
51
168.9883645
0
ARC
8
DEFAULT_255_1_388
10
18.4901249
20
0.3315996
40
0.2982129
50
168.3801673
51
180.3602268
0
ARC
8
DEFAULT_255_1_388
10
18.4644366
20
0.3273622
40
0.2725291
50
179.5033122
51
194.9125571
0
ARC
8
DEFAULT_255_1_388
10
18.3985773
20
0.3100427
40
0.204431
50
194.9720816
51
224.194444
0
ARC
8
DEFAULT_255_1_388
10
18.3954138
20
0.3074635
40
0.2003651
50
224.2962453
51
262.015664
0
ARC
8
DEFAULT_255_1_388
10
18.4114142
20
0.3897315
40
0.2840925
50
261.1245923
51
270.1962896
0
ARC
8
DEFAULT_255_1_388
10
18.4147624
20
0.3686859
40
0.2630559
50
269.4827276
51
285.0987215
0
ARC
8
DEFAULT_255_1_388
10
18.432106
20
0.3036175
40
0.1957162
50
285.1585357
51
315.9484501
0
ARC
8
DEFAULT_255_1_388
10
18.4220933
20
0.3128315
40
0.2093195
50
316.0413965
51
351.916092
0
ARC
8
DEFAULT_255_1_388
10
18.3396308
20
0.3287323
40
0.2932279
50
351.105835
51
0.1939062
0
ARC
8
DEFAULT_255_1_388
10
18.3691942
20
0.3321224
40
0.2636739
50
359.4789618
51
16.0678224
0
ARC
8
DEFAULT_255_1_388
10
18.4227414
20
0.3465721
40
0.2082215
50
16.3252067
51
44.7913869
0
ARC
8
DEFAULT_255_1_388
10
18.4207476
20
0.346632
40
0.2095992
50
44.3957814
51
88.2499162
0
ARC
8
DEFAULT_255_1_388
10
18.412481
20
0.2778006
40
0.2787189
50
86.9833854
51
90.0192215
0
ARC
8
DEFAULT_255_2_778
10
15.0733635
20
137.8607757
40
0.3782991
50
0.3791625
51
91.2888722
0
ARC
8
DEFAULT_255_2_778
10
15.0712556
20
137.8578625
40
0.3804373
50
269.035893
51
0.8157951
0
ARC
8
DEFAULT_255_2_778
10
15.2298414
20
137.8451903
40
0.764498
50
290.7706876
51
357.5425648
0
ARC
8
DEFAULT_255_2_778
10
15.1444777
20
137.863208
40
0.8506767
50
356.5766106
51
0.0047928
0
LINE
8
DEFAULT_255_2_778
10
15.9951543
20
137.8632791
11
15.9951544
21
137.8636491
0
ARC
8
DEFAULT_255_2_778
10
15.1450863
20
137.8644642
40
0.8500685
50
359.9450654
51
50.5390341
0
ARC
8
DEFAULT_255_2_778
10
15.1444941
20
137.8669565
40
0.8485231
50
50.4011998
51
90.0499498
0
ARC
8
DEFAULT_255_2_778
10
19.9749167
20
137.8543388
40
0.3846416
50
1.3318655
51
90.1433517
0
ARC
8
DEFAULT_255_2_778
10
20.032532
20
137.8476399
40
0.8701301
50
359.7589483
51
41.4305054
0
ARC
8
DEFAULT_255_2_778
10
20.0366159
20
137.8494682
40
0.8658593
50
41.5186192
51
87.8931913
0
ARC
8
DEFAULT_255_2_778
10
20.0318882
20
137.8081194
40
0.9073597
50
87.6908463
51
90.0021405
0
ARC
8
DEFAULT_255_2_778
10
12.7283013
20
137.8611978
40
0.3778587
50
0.315598
51
91.1596115
0
ARC
8
DEFAULT_255_2_778
10
12.780832
20
137.8476399
40
0.8701301
50
359.7589483
51
41.4305054
0
ARC
8
DEFAULT_255_2_778
10
12.7849159
20
137.8494682
40
0.8658593
50
41.5186192
51
87.8931913
0
ARC
8
DEFAULT_255_2_778
10
12.7801882
20
137.8081194
40
0.9073597
50
87.6908463
51
90.0021405
0
ARC
8
DEFAULT_255_2_778
10
17.3607953
20
137.4526363
40
1.2832573
50
232.9444752
51
270.0294264
0
ARC
8
DEFAULT_255_2_778
10
17.3747185
20
137.4752392
40
1.309688
50
187.7220619
51
233.0542317
0
ARC
8
DEFAULT_255_2_778
10
17.394046
20
137.4771092
40
1.3290916
50
179.9840519
51
187.6899902
0
ARC
8
DEFAULT_255_2_778
10
17.3607435
20
137.4742375
40
1.2957932
50
146.5712859
51
179.856664
0
ARC
8
DEFAULT_255_2_778
10
17.3664497
20
137.4726083
40
1.3014542
50
96.2202672
51
146.6498182
0
ARC
8
DEFAULT_255_2_778
10
17.366579
20
137.457672
40
1.3163172
50
90.2230618
51
96.1554199
0
ARC
8
DEFAULT_255_2_778
10
17.3635865
20
137.4704986
40
1.3034823
50
58.1053732
51
90.0937227
0
ARC
8
DEFAULT_255_2_778
10
17.3697488
20
137.4737602
40
1.297462
50
3.9625434
51
58.2603135
0
ARC
8
DEFAULT_255_2_778
10
17.3698045
20
137.477556
40
1.2971498
50
359.9966051
51
3.7954532
0
ARC
8
DEFAULT_255_2_778
10
17.3615109
20
137.4748085
40
1.3054462
50
328.1074285
51
0.1172153
0
ARC
8
DEFAULT_255_2_778
10
17.3626009
20
137.4728496
40
1.3034863
50
276.1451864
51
328.1552184
0
ARC
8
DEFAULT_255_2_778
10
17.361704
20
137.4924075
40
1.3230283
50
269.9891883
51
276.0931369
0
ARC
8
DEFAULT_255_2_778
10
17.365616
20
137.47204
40
0.7573723
50
269.6851627
51
316.0204287
0
ARC
8
DEFAULT_255_2_778
10
17.3607868
20
137.4730889
40
0.7615801
50
316.2159375
51
0.3302942
0
ARC
8
DEFAULT_255_2_778
10
17.3696724
20
137.4767627
40
0.7526823
50
0.0545399
51
85.3801077
0
ARC
8
DEFAULT_255_2_778
10
17.3615889
20
137.4363031
40
0.793676
50
85.0337063
51
90.0097107
0
ARC
8
DEFAULT_255_2_778
10
17.3608055
20
137.4776224
40
0.7523571
50
89.950584
51
177.7945888
0
ARC
8
DEFAULT_255_2_778
10
17.3749575
20
137.4775059
40
0.7665032
50
177.8265967
51
180.0019985
0
ARC
8
DEFAULT_255_2_778
10
17.3738539
20
137.4735227
40
0.7654098
50
179.7038321
51
222.1989357
0
ARC
8
DEFAULT_255_2_778
10
17.3596298
20
137.4614205
40
0.7467434
50
222.2441262
51
270.1399959
0
ARC
8
DEFAULT_255_2_778
10
9.3661953
20
137.4526363
40
1.2832573
50
232.9444752
51
270.0294264
0
ARC
8
DEFAULT_255_2_778
10
9.3801185
20
137.4752392
40
1.309688
50
187.7220619
51
233.0542317
0
ARC
8
DEFAULT_255_2_778
10
9.399446
20
137.4771092
40
1.3290916
50
179.9840519
51
187.6899902
0
ARC
8
DEFAULT_255_2_778
10
9.3661435
20
137.4742375
40
1.2957932
50
146.5712859
51
179.856664
0
ARC
8
DEFAULT_255_2_778
10
9.3718497
20
137.4726083
40
1.3014542
50
96.2202672
51
146.6498182
0
ARC
8
DEFAULT_255_2_778
10
9.371979
20
137.457672
40
1.3163172
50
90.2230618
51
96.1554199
0
ARC
8
DEFAULT_255_2_778
10
9.3689712
20
137.4706994
40
1.3032814
50
58.1028503
51
90.093062
0
ARC
8
DEFAULT_255_2_778
10
9.3750118
20
137.473756
40
1.2974994
50
3.9626176
51
58.2579977
0
ARC
8
DEFAULT_255_2_778
10
9.3751045
20
137.477556
40
1.2971498
50
359.9966051
51
3.7954532
0
ARC
8
DEFAULT_255_2_778
10
9.3665167
20
137.4747699
40
1.3057405
50
328.1174595
51
0.118882
0
ARC
8
DEFAULT_255_2_778
10
9.3681374
20
137.4725655
40
1.3032005
50
276.6132577
51
328.1621178
0
ARC
8
DEFAULT_255_2_778
10
9.3671443
20
137.491988
40
1.3226088
50
269.9874371
51
276.559089
0
ARC
8
DEFAULT_255_2_778
10
9.3709855
20
137.4720111
40
0.7573432
50
269.6874622
51
316.2799796
0
ARC
8
DEFAULT_255_2_778
10
9.3661266
20
137.473141
40
0.7616402
50
316.4711746
51
0.3263467
0
ARC
8
DEFAULT_255_2_778
10
9.3747216
20
137.4764636
40
0.7530334
50
0.0772648
51
85.7305483
0
ARC
8
DEFAULT_255_2_778
10
9.3669682
20
137.4369743
40
0.7930048
50
85.3843136
51
90.0082261
0
ARC
8
DEFAULT_255_2_778
10
9.365942
20
137.4778957
40
0.752084
50
89.9304929
51
177.8146271
0
ARC
8
DEFAULT_255_2_778
10
9.3814728
20
137.4775058
40
0.7676183
50
177.8297522
51
180.0019923
0
ARC
8
DEFAULT_255_2_778
10
9.3792877
20
137.4734968
40
0.7654437
50
179.7019109
51
222.1940298
0
ARC
8
DEFAULT_255_2_778
10
9.3649802
20
137.4613879
40
0.746711
50
222.2430072
51
270.143803
0
LINE
8
DEFAULT_255_2_778
10
13.8784543
20
138.6948791
11
13.8784543
21
136.2289791
0
LINE
8
DEFAULT_255_2_778
10
13.8784543
20
136.2289791
11
14.4219543
21
136.2289791
0
LINE
8
DEFAULT_255_2_778
10
14.4219543
20
136.2289791
11
14.4219543
21
138.2389791
0
LINE
8
DEFAULT_255_2_778
10
14.4219543
20
138.2389791
11
15.0648543
21
138.2389791
0
LINE
8
DEFAULT_255_2_778
10
15.0648543
20
137.4774791
11
14.6002543
21
137.4774791
0
LINE
8
DEFAULT_255_2_778
10
14.6002543
20
137.4774791
11
15.4413543
21
136.2289791
0
LINE
8
DEFAULT_255_2_778
10
15.4413543
20
136.2289791
11
16.1142543
21
136.2289791
0
LINE
8
DEFAULT_255_2_778
10
16.1142543
20
136.2289791
11
15.5009543
21
137.1303791
0
LINE
8
DEFAULT_255_2_778
10
15.1437543
20
138.7154791
11
14.4216543
21
138.7154791
0
LINE
8
DEFAULT_255_2_778
10
14.4216543
20
138.7154791
11
13.8782543
21
138.6948791
0
LINE
8
DEFAULT_255_2_778
10
13.8782543
20
138.6948791
11
13.8784543
21
138.6948791
0
LINE
8
DEFAULT_255_2_778
10
18.8158543
20
138.6948791
11
18.8158543
21
136.2289791
0
LINE
8
DEFAULT_255_2_778
10
18.8158543
20
136.2289791
11
19.3593543
21
136.2289791
0
LINE
8
DEFAULT_255_2_778
10
19.3593543
20
136.2289791
11
19.3593543
21
138.2389791
0
LINE
8
DEFAULT_255_2_778
10
19.3593543
20
138.2389791
11
19.9739543
21
138.2389791
0
LINE
8
DEFAULT_255_2_778
10
20.3594543
20
137.8632791
11
20.3594543
21
136.2289791
0
LINE
8
DEFAULT_255_2_778
10
20.3594543
20
136.2289791
11
20.9026543
21
136.2289791
0
LINE
8
DEFAULT_255_2_778
10
20.9026543
20
136.2289791
11
20.9026543
21
137.8439791
0
LINE
8
DEFAULT_255_2_778
10
20.0318543
20
138.7154791
11
19.3590543
21
138.7154791
0
LINE
8
DEFAULT_255_2_778
10
19.3590543
20
138.7154791
11
18.8156543
21
138.6948791
0
LINE
8
DEFAULT_255_2_778
10
18.8156543
20
138.6948791
11
18.8158543
21
138.6948791
0
LINE
8
DEFAULT_255_2_778
10
10.8212543
20
138.6948791
11
10.8212543
21
136.2289791
0
LINE
8
DEFAULT_255_2_778
10
10.8212543
20
136.2289791
11
11.3646543
21
136.2289791
0
LINE
8
DEFAULT_255_2_778
10
11.3646543
20
136.2289791
11
11.3646543
21
138.2389791
0
LINE
8
DEFAULT_255_2_778
10
11.3646543
20
138.2389791
11
11.9689543
21
138.2389791
0
LINE
8
DEFAULT_255_2_778
10
11.9689543
20
138.2389791
11
11.9689543
21
136.2289791
0
LINE
8
DEFAULT_255_2_778
10
11.9689543
20
136.2289791
11
12.5124543
21
136.2289791
0
LINE
8
DEFAULT_255_2_778
10
12.5124543
20
136.2289791
11
12.5124543
21
138.2389791
0
LINE
8
DEFAULT_255_2_778
10
12.5124543
20
138.2389791
11
12.7206543
21
138.2389791
0
LINE
8
DEFAULT_255_2_778
10
13.1061543
20
137.8632791
11
13.1061543
21
136.2289791
0
LINE
8
DEFAULT_255_2_778
10
13.1061543
20
136.2289791
11
13.6509543
21
136.2289791
0
LINE
8
DEFAULT_255_2_778
10
13.6509543
20
136.2289791
11
13.6509543
21
137.8439791
0
LINE
8
DEFAULT_255_2_778
10
12.7801543
20
138.7154791
11
11.3749543
21
138.7154791
0
LINE
8
DEFAULT_255_2_778
10
11.3749543
20
138.7154791
11
10.8212543
21
138.6948791
0
LINE
8
DEFAULT_255_2_778
10
10.8212543
20
138.6948791
11
10.8212543
21
138.6948791
0
LINE
8
DEFAULT_255_2_778
10
17.3614543
20
136.1693791
11
17.3614543
21
136.1693791
0
LINE
8
DEFAULT_255_2_778
10
9.3668543
20
136.1693791
11
9.3668543
21
136.1693791
0
LINE
8
DEFAULT_255_1_388
10
11.299091
20
134.9518898
11
11.299091
21
133.6363
0
LINE
8
DEFAULT_255_1_388
10
11.299091
20
133.6363
11
11.1247031
21
133.6363
0
LINE
8
DEFAULT_255_1_388
10
11.1247031
20
133.6363
11
10.4623903
21
134.6500993
0
LINE
8
DEFAULT_255_1_388
10
10.4623903
20
134.6500993
11
10.4623903
21
133.6363
0
LINE
8
DEFAULT_255_1_388
10
10.4623903
20
133.6363
11
10.2880024
21
133.6363
0
LINE
8
DEFAULT_255_1_388
10
10.2880024
20
133.6363
11
10.2880024
21
134.9518898
0
LINE
8
DEFAULT_255_1_388
10
10.2880024
20
134.9518898
11
10.4623903
21
134.9518898
0
LINE
8
DEFAULT_255_1_388
10
10.4623903
20
134.9518898
11
11.1265102
21
133.9335727
0
LINE
8
DEFAULT_255_1_388
10
11.1265102
20
133.9335727
11
11.1265102
21
134.9518898
0
LINE
8
DEFAULT_255_1_388
10
11.1265102
20
134.9518898
11
11.299091
21
134.9518898
0
LINE
8
DEFAULT_255_1_388
10
11.7346091
20
134.9518898
11
12.0517602
21
134.4477009
0
LINE
8
DEFAULT_255_1_388
10
12.0517602
20
134.4477009
11
12.3671042
21
134.9518898
0
LINE
8
DEFAULT_255_1_388
10
12.3671042
20
134.9518898
11
12.5713098
21
134.9518898
0
LINE
8
DEFAULT_255_1_388
10
12.5713098
20
134.9518898
11
12.1556701
21
134.2995163
0
LINE
8
DEFAULT_255_1_388
10
12.1556701
20
134.2995163
11
12.581249
21
133.6363
0
LINE
8
DEFAULT_255_1_388
10
12.581249
20
133.6363
11
12.3752363
21
133.6363
0
LINE
8
DEFAULT_255_1_388
10
12.3752363
20
133.6363
11
12.0517602
21
134.1495246
0
LINE
8
DEFAULT_255_1_388
10
12.0517602
20
134.1495246
11
11.726477
21
133.6363
0
LINE
8
DEFAULT_255_1_388
10
11.726477
20
133.6363
11
11.5213679
21
133.6363
0
LINE
8
DEFAULT_255_1_388
10
11.5213679
20
133.6363
11
11.9478503
21
134.2995163
0
LINE
8
DEFAULT_255_1_388
10
11.9478503
20
134.2995163
11
11.5313071
21
134.9518898
0
LINE
8
DEFAULT_255_1_388
10
11.5313071
20
134.9518898
11
11.7346091
21
134.9518898
0
LINE
8
DEFAULT_255_1_388
10
13.0628488
20
134.2633737
11
13.0628488
21
134.1269355
0
LINE
8
DEFAULT_255_1_388
10
13.0628488
20
134.1269355
11
12.6219094
21
134.1269355
0
LINE
8
DEFAULT_255_1_388
10
12.6219094
20
134.1269355
11
12.6219094
21
134.2633737
0
LINE
8
DEFAULT_255_1_388
10
12.6219094
20
134.2633737
11
13.0628488
21
134.2633737
0
LINE
8
DEFAULT_255_1_388
10
14.1245371
20
134.5714892
11
13.9501491
21
134.5714892
0
LINE
8
DEFAULT_255_1_388
10
13.1712766
20
134.0176042
11
13.3456645
21
134.0176042
0
ARC
8
DEFAULT_255_1_388
10
14.0242218
20
135.5778821
40
1.4087688
50
248.9196578
51
254.1442424
0
ARC
8
DEFAULT_255_1_388
10
13.8352098
20
135.0912805
40
0.8867498
50
241.6337352
51
249.0064643
0
ARC
8
DEFAULT_255_1_388
10
13.6632412
20
134.7761764
40
0.5277799
50
230.4982261
51
241.8087583
0
ARC
8
DEFAULT_255_1_388
10
13.5750183
20
134.6637686
40
0.3849419
50
227.4062979
51
229.9877433
0
ARC
8
DEFAULT_255_1_388
10
13.5201529
20
134.6102155
40
0.3084129
50
200.6782127
51
228.1765252
0
ARC
8
DEFAULT_255_1_388
10
13.5282898
20
134.6085277
40
0.315461
50
179.506278
51
199.8695278
0
ARC
8
DEFAULT_255_1_388
10
13.5272487
20
134.6168671
40
0.3144584
50
132.4834401
51
181.0242352
0
ARC
8
DEFAULT_255_1_388
10
13.5941691
20
134.5536788
40
0.4063094
50
129.2526113
51
133.4249077
0
ARC
8
DEFAULT_255_1_388
10
13.6107284
20
134.5288619
40
0.436014
50
101.9878945
51
128.8741833
0
ARC
8
DEFAULT_255_1_388
10
13.6555699
20
134.335236
40
0.6347415
50
89.5906376
51
102.3170567
0
ARC
8
DEFAULT_255_1_388
10
13.6635011
20
134.3710586
40
0.5989122
50
77.2359491
51
90.3248968
0
ARC
8
DEFAULT_255_1_388
10
13.6867942
20
134.4798554
40
0.4876594
50
63.8379856
51
77.0808925
0
ARC
8
DEFAULT_255_1_388
10
13.7180475
20
134.5380882
40
0.4216191
50
45.9863127
51
64.1608798
0
ARC
8
DEFAULT_255_1_388
10
13.7473869
20
134.571599
40
0.3771394
50
32.2747934
51
45.6544796
0
ARC
8
DEFAULT_255_1_388
10
13.7548675
20
134.5737426
40
0.3696765
50
359.6507495
51
32.6129943
0
ARC
8
DEFAULT_255_1_388
10
13.6487858
20
134.5742788
40
0.3013762
50
359.469654
51
14.983205
0
ARC
8
DEFAULT_255_1_388
10
13.728111
20
134.5955288
40
0.2192542
50
14.9781954
51
48.2004799
0
ARC
8
DEFAULT_255_1_388
10
13.7096221
20
134.5722937
40
0.2489048
50
48.5926661
51
74.1242559
0
ARC
8
DEFAULT_255_1_388
10
13.6721024
20
134.4484607
40
0.3782845
50
73.7889321
51
86.6653996
0
ARC
8
DEFAULT_255_1_388
10
13.6605838
20
134.3126955
40
0.5145025
50
86.2642725
51
90.0533288
0
ARC
8
DEFAULT_255_1_388
10
13.6573931
20
134.3571376
40
0.4700681
50
89.669455
51
99.2313411
0
ARC
8
DEFAULT_255_1_388
10
13.6301091
20
134.5196401
40
0.3052945
50
99.0695987
51
113.7659242
0
ARC
8
DEFAULT_255_1_388
10
13.5993085
20
134.5922772
40
0.226407
50
114.0402885
51
127.9848946
0
ARC
8
DEFAULT_255_1_388
10
13.5722561
20
134.6255884
40
0.1835045
50
127.7287217
51
176.7106493
0
ARC
8
DEFAULT_255_1_388
10
13.6486226
20
134.614221
40
0.2604907
50
175.1780759
51
180.0581213
0
ARC
8
DEFAULT_255_1_388
10
13.553757
20
134.6128411
40
0.1656287
50
179.6140658
51
228.124674
0
ARC
8
DEFAULT_255_1_388
10
13.6034927
20
134.658894
40
0.2332038
50
226.5785315
51
230.8792476
0
ARC
8
DEFAULT_255_1_388
10
13.6564414
20
134.7291908
40
0.3211664
50
231.4636401
51
241.9261664
0
ARC
8
DEFAULT_255_1_388
10
13.7911197
20
134.9770349
40
0.6032345
50
241.7177136
51
248.3259138
0
ARC
8
DEFAULT_255_1_388
10
13.9469792
20
135.3631771
40
1.0196417
50
248.2007377
51
252.4527713
0
ARC
8
DEFAULT_255_1_388
10
14.0823319
20
135.7816092
40
1.4594143
50
252.3388938
51
254.347037
0
ARC
8
DEFAULT_255_1_388
10
13.2338619
20
132.7468095
40
1.6917621
50
71.0197462
51
74.4085467
0
ARC
8
DEFAULT_255_1_388
10
13.4245707
20
133.2973144
40
1.1091618
50
66.1845203
51
71.086519
0
ARC
8
DEFAULT_255_1_388
10
13.5996256
20
133.6914439
40
0.6779073
50
59.3537334
51
66.269255
0
ARC
8
DEFAULT_255_1_388
10
13.6995982
20
133.8605777
40
0.4814366
50
49.1021732
51
59.3294421
0
ARC
8
DEFAULT_255_1_388
10
13.791697
20
133.9655575
40
0.3417875
50
32.7924183
51
49.2503526
0
ARC
8
DEFAULT_255_1_388
10
13.8266584
20
133.9905311
40
0.2988789
50
31.121225
51
32.3977355
0
ARC
8
DEFAULT_255_1_388
10
13.8178762
20
133.9872728
40
0.3080861
50
8.1116803
51
30.7958224
0
ARC
8
DEFAULT_255_1_388
10
13.7267108
20
133.9717437
40
0.4005385
50
359.8390945
51
8.4707348
0
ARC
8
DEFAULT_255_1_388
10
13.7971156
20
133.9662751
40
0.3301608
50
337.4732479
51
0.7538283
0
ARC
8
DEFAULT_255_1_388
10
13.8172181
20
133.9640554
40
0.3107929
50
307.5917028
51
336.4313755
0
ARC
8
DEFAULT_255_1_388
10
13.7661239
20
134.0208509
40
0.3870096
50
307.6560665
51
308.4561779
0
ARC
8
DEFAULT_255_1_388
10
13.7395455
20
134.0616832
40
0.435591
50
284.3733666
51
307.1426212
0
ARC
8
DEFAULT_255_1_388
10
13.6838349
20
134.2666391
40
0.6479685
50
272.4384566
51
284.6464689
0
ARC
8
DEFAULT_255_1_388
10
13.6695734
20
134.4690434
40
0.8508149
50
269.9708517
51
272.8180721
0
ARC
8
DEFAULT_255_1_388
10
13.6647417
20
134.2398283
40
0.6216151
50
248.2707343
51
270.4054609
0
ARC
8
DEFAULT_255_1_388
10
13.6586288
20
134.2183673
40
0.5994203
50
246.1380358
51
248.054058
0
ARC
8
DEFAULT_255_1_388
10
13.6115431
20
134.1194705
40
0.4899388
50
233.1671897
51
246.4951656
0
ARC
8
DEFAULT_255_1_388
10
13.5492066
20
134.0353137
40
0.3852115
50
215.3403381
51
233.084328
0
ARC
8
DEFAULT_255_1_388
10
13.518543
20
134.0130093
40
0.3472969
50
179.2419235
51
215.2648426
0
ARC
8
DEFAULT_255_1_388
10
13.6048981
20
134.0145979
40
0.259251
50
179.3355796
51
199.1045873
0
ARC
8
DEFAULT_255_1_388
10
13.5675123
20
134.0048223
40
0.2207454
50
199.8830064
51
232.7061328
0
ARC
8
DEFAULT_255_1_388
10
13.6206397
20
134.0716456
40
0.306101
50
232.3736206
51
255.5136621
0
ARC
8
DEFAULT_255_1_388
10
13.6589903
20
134.2116177
40
0.4512213
50
255.2447928
51
267.5318292
0
ARC
8
DEFAULT_255_1_388
10
13.668837
20
134.3502709
40
0.5901825
50
267.1564563
51
270.0294721
0
ARC
8
DEFAULT_255_1_388
10
13.6719695
20
134.3003623
40
0.5402814
50
269.6999944
51
278.1662446
0
ARC
8
DEFAULT_255_1_388
10
13.7007723
20
134.1056974
40
0.3435003
50
278.0229022
51
290.6255326
0
ARC
8
DEFAULT_255_1_388
10
13.7398889
20
134.0013547
40
0.2320666
50
290.6616368
51
307.0374127
0
ARC
8
DEFAULT_255_1_388
10
13.7736789
20
133.959904
40
0.1786372
50
306.3942078
51
355.303191
0
ARC
8
DEFAULT_255_1_388
10
13.7161082
20
133.9685186
40
0.2367516
50
354.3662092
51
0.0709489
0
ARC
8
DEFAULT_255_1_388
10
13.7320951
20
133.9710561
40
0.2207761
50
359.4175379
51
16.1975911
0
ARC
8
DEFAULT_255_1_388
10
13.7833069
20
133.9850954
40
0.1676828
50
16.4721294
51
52.6261798
0
ARC
8
DEFAULT_255_1_388
10
13.6909576
20
133.8631606
40
0.3206412
50
52.7381828
51
62.4979144
0
ARC
8
DEFAULT_255_1_388
10
13.5351329
20
133.5699236
40
0.6527035
50
62.2517425
51
68.1219454
0
ARC
8
DEFAULT_255_1_388
10
13.3416817
20
133.0944951
40
1.1659797
50
68.006043
51
71.8055127
0
ARC
8
DEFAULT_255_1_388
10
13.1396725
20
132.4886723
40
1.8045908
50
71.718361
51
73.9260743
0
LINE
8
DEFAULT_255_1_388
10
14.2808537
20
134.0980214
11
14.2808537
21
134.1287426
0
LINE
8
DEFAULT_255_1_388
10
15.1103259
20
134.1468139
11
15.1103259
21
134.0772395
0
LINE
8
DEFAULT_255_1_388
10
15.1103259
20
134.0772395
11
14.4480131
21
134.0772395
0
LINE
8
DEFAULT_255_1_388
10
14.9955732
20
133.8865874
11
15.097676
21
133.8070737
0
LINE
8
DEFAULT_255_1_388
10
14.4534345
20
134.2145813
11
14.9431665
21
134.2145813
0
LINE
8
DEFAULT_255_1_388
10
14.9431665
20
134.2145813
11
14.9431665
21
134.2272312
0
ARC
8
DEFAULT_255_1_388
10
14.7240298
20
134.110521
40
0.4923176
50
252.326534
51
270.5809615
0
ARC
8
DEFAULT_255_1_388
10
14.7009763
20
134.027194
40
0.4059384
50
223.3000488
51
251.8562489
0
ARC
8
DEFAULT_255_1_388
10
14.7247543
20
134.0502898
40
0.4390832
50
190.9374369
51
223.3654369
0
ARC
8
DEFAULT_255_1_388
10
14.918822
20
134.0941598
40
0.63798
50
179.6531919
51
191.4988561
0
ARC
8
DEFAULT_255_1_388
10
14.9325247
20
134.1323571
40
0.6516811
50
167.4005523
51
180.3177836
0
ARC
8
DEFAULT_255_1_388
10
14.8141919
20
134.1573853
40
0.5307402
50
154.1835149
51
167.2508278
0
ARC
8
DEFAULT_255_1_388
10
14.743151
20
134.1947925
40
0.4505076
50
134.3150225
51
154.5315008
0
ARC
8
DEFAULT_255_1_388
10
14.7186845
20
134.216255
40
0.4180662
50
122.8617482
51
133.9707159
0
ARC
8
DEFAULT_255_1_388
10
14.7070452
20
134.2412882
40
0.3907416
50
89.8248474
51
123.4199325
0
ARC
8
DEFAULT_255_1_388
10
14.712675
20
134.1685352
40
0.4635141
50
74.7874349
51
90.5482648
0
ARC
8
DEFAULT_255_1_388
10
14.7457214
20
134.2905987
40
0.3370565
50
39.8178888
51
74.7634383
0
ARC
8
DEFAULT_255_1_388
10
14.6880456
20
134.2456356
40
0.4101553
50
16.8990848
51
39.4830125
0
ARC
8
DEFAULT_255_1_388
10
14.474907
20
134.1773711
40
0.6339427
50
4.9634768
51
17.2027767
0
ARC
8
DEFAULT_255_1_388
10
14.2028475
20
134.14866
40
0.9074803
50
359.8834402
51
5.2832409
0
ARC
8
DEFAULT_255_1_388
10
14.8820833
20
134.0846981
40
0.4341343
50
180.9844233
51
194.9402766
0
ARC
8
DEFAULT_255_1_388
10
14.7639999
20
134.052417
40
0.3117211
50
194.8030557
51
222.0412897
0
ARC
8
DEFAULT_255_1_388
10
14.7297871
20
134.0184715
40
0.2635903
50
221.541578
51
268.8616004
0
ARC
8
DEFAULT_255_1_388
10
14.7379991
20
134.094528
40
0.3398611
50
267.7321071
51
270.009808
0
ARC
8
DEFAULT_255_1_388
10
14.7400055
20
134.1172178
40
0.3625561
50
269.6921218
51
280.4122297
0
ARC
8
DEFAULT_255_1_388
10
14.7598466
20
134.0138767
40
0.2573323
50
280.2257165
51
298.633539
0
ARC
8
DEFAULT_255_1_388
10
14.772388
20
133.9874578
40
0.2281403
50
299.0485543
51
300.4624141
0
ARC
8
DEFAULT_255_1_388
10
14.696486
20
134.1139796
40
0.3756797
50
300.6578578
51
322.037749
0
ARC
8
DEFAULT_255_1_388
10
14.6594382
20
134.1463266
40
0.4247956
50
321.671786
51
322.3059078
0
ARC
8
DEFAULT_255_1_388
10
14.7617945
20
134.0169267
40
0.3960488
50
276.9729088
51
328.0035579
0
ARC
8
DEFAULT_255_1_388
10
14.7306415
20
134.1834609
40
0.5652345
50
269.8358003
51
278.0581296
0
ARC
8
DEFAULT_255_1_388
10
14.7050714
20
134.267282
40
0.2274263
50
89.2017936
51
117.2852353
0
ARC
8
DEFAULT_255_1_388
10
14.7110465
20
134.2625637
40
0.2343798
50
118.0546404
51
137.4544511
0
ARC
8
DEFAULT_255_1_388
10
14.7532109
20
134.2242556
40
0.2913471
50
137.5109688
51
158.8516701
0
ARC
8
DEFAULT_255_1_388
10
14.8812209
20
134.1725902
40
0.4293804
50
158.5845496
51
170.1719753
0
ARC
8
DEFAULT_255_1_388
10
15.0128545
20
134.1464519
40
0.5635533
50
169.8378964
51
173.0563877
0
ARC
8
DEFAULT_255_1_388
10
14.4843829
20
134.2039187
40
0.4593755
50
2.9089079
51
12.88469
0
ARC
8
DEFAULT_255_1_388
10
14.6385748
20
134.2402082
40
0.3009753
50
12.6957404
51
28.6405841
0
ARC
8
DEFAULT_255_1_388
10
14.6995245
20
134.2717577
40
0.232366
50
29.016559
51
41.1492981
0
ARC
8
DEFAULT_255_1_388
10
14.7223224
20
134.291608
40
0.2021373
50
41.1646967
51
85.001362
0
ARC
8
DEFAULT_255_1_388
10
14.7087228
20
134.2089775
40
0.2857091
50
83.728216
51
90.0968824
0
LINE
8
DEFAULT_255_1_388
10
15.7762529
20
134.6193781
11
15.7762529
21
134.463965
0
LINE
8
DEFAULT_255_1_388
10
15.4708481
20
134.3302375
11
15.4708481
21
133.6363
0
LINE
8
DEFAULT_255_1_388
10
15.4708481
20
133.6363
11
15.3036887
21
133.6363
0
LINE
8
DEFAULT_255_1_388
10
15.3036887
20
133.6363
11
15.3036887
21
134.6139567
0
LINE
8
DEFAULT_255_1_388
10
15.3036887
20
134.6139567
11
15.4663303
21
134.6139567
0
LINE
8
DEFAULT_255_1_388
10
15.4663303
20
134.6139567
11
15.469041
21
134.5010112
0
ARC
8
DEFAULT_255_1_388
10
15.7012689
20
134.0073068
40
0.4627735
50
80.6751522
51
86.893806
0
ARC
8
DEFAULT_255_1_388
10
15.6944518
20
133.8981103
40
0.5721798
50
86.8046851
51
90.0423898
0
ARC
8
DEFAULT_255_1_388
10
15.6902938
20
134.1748197
40
0.2954939
50
89.2758283
51
106.6212906
0
ARC
8
DEFAULT_255_1_388
10
15.6672963
20
134.2584009
40
0.2088351
50
107.1347109
51
157.6456887
0
ARC
8
DEFAULT_255_1_388
10
15.7441025
20
134.2156908
40
0.296292
50
155.6557383
51
157.256838
0
ARC
8
DEFAULT_255_1_388
10
15.7220639
20
134.3467472
40
0.296341
50
127.8167201
51
148.6300223
0
ARC
8
DEFAULT_255_1_388
10
15.6935386
20
134.3760066
40
0.2557782
50
91.3329934
51
126.7875218
0
ARC
8
DEFAULT_255_1_388
10
15.7020774
20
134.2956718
40
0.3363561
50
89.9858247
51
92.4688453
0
ARC
8
DEFAULT_255_1_388
10
15.7030267
20
134.3265114
40
0.3055179
50
85.3587643
51
90.1624243
0
ARC
8
DEFAULT_255_1_388
10
15.7125332
20
134.4394458
40
0.1921848
50
78.4019195
51
85.4592653
0
ARC
8
DEFAULT_255_1_388
10
15.7288393
20
134.5172142
40
0.1127267
50
67.7849217
51
78.573798
0
ARC
8
DEFAULT_255_1_388
10
15.7410027
20
134.5487374
40
0.0789473
50
63.4805074
51
67.3074739
0
LINE
8
DEFAULT_255_1_388
10
16.1114753
20
134.6139567
11
16.1114753
21
133.6363
0
LINE
8
DEFAULT_255_1_388
10
16.1114753
20
133.6363
11
15.9443159
21
133.6363
0
LINE
8
DEFAULT_255_1_388
10
15.9443159
20
133.6363
11
15.9443159
21
134.6139567
0
LINE
8
DEFAULT_255_1_388
10
15.9443159
20
134.6139567
11
16.1114753
21
134.6139567
0
ARC
8
DEFAULT_255_1_388
10
16.0408521
20
134.8743428
40
0.1100948
50
161.4148232
51
180.5532607
0
ARC
8
DEFAULT_255_1_388
10
16.0268831
20
134.8781875
40
0.0956324
50
138.1830164
51
160.9307633
0
ARC
8
DEFAULT_255_1_388
10
16.0145018
20
134.8889313
40
0.0792417
50
104.6371663
51
138.0036136
0
ARC
8
DEFAULT_255_1_388
10
16.0265557
20
134.8476963
40
0.1221906
50
92.0601206
51
105.2198859
0
ARC
8
DEFAULT_255_1_388
10
16.0291921
20
134.8088583
40
0.161103
50
89.9790681
51
92.5006086
0
ARC
8
DEFAULT_255_1_388
10
16.0303097
20
134.8344998
40
0.1354654
50
78.0234649
51
90.4478111
0
ARC
8
DEFAULT_255_1_388
10
16.0406681
20
134.8810203
40
0.0878096
50
55.0521508
51
78.336297
0
ARC
8
DEFAULT_255_1_388
10
16.0463216
20
134.8905168
40
0.0767913
50
42.0506198
51
54.4508489
0
ARC
8
DEFAULT_255_1_388
10
16.0311248
20
134.8765821
40
0.0974091
50
1.7493657
51
42.1498724
0
ARC
8
DEFAULT_255_1_388
10
16.0025154
20
134.8733166
40
0.1261276
50
359.9832635
51
2.8353994
0
ARC
8
DEFAULT_255_1_388
10
16.0211564
20
134.8722412
40
0.1074916
50
342.1062453
51
0.5535864
0
ARC
8
DEFAULT_255_1_388
10
16.0371988
20
134.8678197
40
0.0908695
50
316.7110111
51
341.6513114
0
ARC
8
DEFAULT_255_1_388
10
16.044742
20
134.8610607
40
0.0807447
50
285.4398289
51
316.5320129
0
ARC
8
DEFAULT_255_1_388
10
16.0323591
20
134.9022023
40
0.1237022
50
272.3543902
51
285.8951677
0
ARC
8
DEFAULT_255_1_388
10
16.0293301
20
134.9437742
40
0.1653687
50
269.9725761
51
272.8112722
0
ARC
8
DEFAULT_255_1_388
10
16.0282353
20
134.9186727
40
0.1402709
50
258.8433431
51
270.4148607
0
ARC
8
DEFAULT_255_1_388
10
16.0181133
20
134.8696739
40
0.0902407
50
238.54281
51
259.1289544
0
ARC
8
DEFAULT_255_1_388
10
16.0104454
20
134.8557694
40
0.0743817
50
222.5056676
51
237.9918132
0
ARC
8
DEFAULT_255_1_388
10
16.0248048
20
134.8688295
40
0.0937918
50
184.1070774
51
222.4604165
0
ARC
8
DEFAULT_255_1_388
10
16.0550461
20
134.8731538
40
0.1242838
50
179.9419581
51
185.0970785
0
LINE
8
DEFAULT_255_1_388
10
16.3364628
20
134.0980214
11
16.3364628
21
134.1287426
0
LINE
8
DEFAULT_255_1_388
10
17.165935
20
134.1468139
11
17.165935
21
134.0772395
0
LINE
8
DEFAULT_255_1_388
10
17.165935
20
134.0772395
11
16.5036223
21
134.0772395
0
LINE
8
DEFAULT_255_1_388
10
17.0511823
20
133.8865874
11
17.1532851
21
133.8070737
0
LINE
8
DEFAULT_255_1_388
10
16.5090437
20
134.2145813
11
16.9987756
21
134.2145813
0
LINE
8
DEFAULT_255_1_388
10
16.9987756
20
134.2145813
11
16.9987756
21
134.2272312
0
ARC
8
DEFAULT_255_1_388
10
16.7796389
20
134.110521
40
0.4923176
50
252.326534
51
270.5809615
0
ARC
8
DEFAULT_255_1_388
10
16.7565854
20
134.027194
40
0.4059384
50
223.3000488
51
251.8562489
0
ARC
8
DEFAULT_255_1_388
10
16.7803634
20
134.0502898
40
0.4390832
50
190.9374369
51
223.3654369
0
ARC
8
DEFAULT_255_1_388
10
16.9744312
20
134.0941598
40
0.63798
50
179.6531919
51
191.4988561
0
ARC
8
DEFAULT_255_1_388
10
16.9881339
20
134.1323571
40
0.6516811
50
167.4005523
51
180.3177836
0
ARC
8
DEFAULT_255_1_388
10
16.869801
20
134.1573853
40
0.5307402
50
154.1835149
51
167.2508278
0
ARC
8
DEFAULT_255_1_388
10
16.7987601
20
134.1947925
40
0.4505076
50
134.3150225
51
154.5315008
0
ARC
8
DEFAULT_255_1_388
10
16.7742936
20
134.216255
40
0.4180662
50
122.8617482
51
133.9707159
0
ARC
8
DEFAULT_255_1_388
10
16.7626543
20
134.2412882
40
0.3907416
50
89.8248474
51
123.4199325
0
ARC
8
DEFAULT_255_1_388
10
16.7682841
20
134.1685352
40
0.4635141
50
74.7874349
51
90.5482648
0
ARC
8
DEFAULT_255_1_388
10
16.8013305
20
134.2905987
40
0.3370565
50
39.8178888
51
74.7634383
0
ARC
8
DEFAULT_255_1_388
10
16.7436547
20
134.2456356
40
0.4101553
50
16.8990848
51
39.4830125
0
ARC
8
DEFAULT_255_1_388
10
16.5305162
20
134.1773711
40
0.6339427
50
4.9634768
51
17.2027767
0
ARC
8
DEFAULT_255_1_388
10
16.2584567
20
134.14866
40
0.9074803
50
359.8834402
51
5.2832409
0
ARC
8
DEFAULT_255_1_388
10
16.9376924
20
134.0846981
40
0.4341343
50
180.9844233
51
194.9402766
0
ARC
8
DEFAULT_255_1_388
10
16.819609
20
134.052417
40
0.3117211
50
194.8030557
51
222.0412897
0
ARC
8
DEFAULT_255_1_388
10
16.7853962
20
134.0184715
40
0.2635903
50
221.541578
51
268.8616004
0
ARC
8
DEFAULT_255_1_388
10
16.7936083
20
134.094528
40
0.3398611
50
267.7321071
51
270.009808
0
ARC
8
DEFAULT_255_1_388
10
16.7956146
20
134.1172178
40
0.3625561
50
269.6921218
51
280.4122297
0
ARC
8
DEFAULT_255_1_388
10
16.8154558
20
134.0138767
40
0.2573323
50
280.2257165
51
298.633539
0
ARC
8
DEFAULT_255_1_388
10
16.8279972
20
133.9874578
40
0.2281403
50
299.0485543
51
300.4624141
0
ARC
8
DEFAULT_255_1_388
10
16.7520952
20
134.1139796
40
0.3756797
50
300.6578578
51
322.037749
0
ARC
8
DEFAULT_255_1_388
10
16.7150473
20
134.1463266
40
0.4247956
50
321.671786
51
322.3059078
0
ARC
8
DEFAULT_255_1_388
10
16.8174036
20
134.0169267
40
0.3960488
50
276.9729088
51
328.0035579
0
ARC
8
DEFAULT_255_1_388
10
16.7862507
20
134.1834609
40
0.5652345
50
269.8358003
51
278.0581296
0
ARC
8
DEFAULT_255_1_388
10
16.7606806
20
134.267282
40
0.2274263
50
89.2017936
51
117.2852353
0
ARC
8
DEFAULT_255_1_388
10
16.7666556
20
134.2625637
40
0.2343798
50
118.0546404
51
137.4544511
0
ARC
8
DEFAULT_255_1_388
10
16.80882
20
134.2242556
40
0.2913471
50
137.5109688
51
158.8516701
0
ARC
8
DEFAULT_255_1_388
10
16.9368301
20
134.1725902
40
0.4293804
50
158.5845496
51
170.1719753
0
ARC
8
DEFAULT_255_1_388
10
17.0684636
20
134.1464519
40
0.5635533
50
169.8378964
51
173.0563877
0
ARC
8
DEFAULT_255_1_388
10
16.539992
20
134.2039187
40
0.4593755
50
2.9089079
51
12.88469
0
ARC
8
DEFAULT_255_1_388
10
16.6941839
20
134.2402082
40
0.3009753
50
12.6957404
51
28.6405841
0
ARC
8
DEFAULT_255_1_388
10
16.7551336
20
134.2717577
40
0.232366
50
29.016559
51
41.1492981
0
ARC
8
DEFAULT_255_1_388
10
16.7779315
20
134.291608
40
0.2021373
50
41.1646967
51
85.001362
0
ARC
8
DEFAULT_255_1_388
10
16.7643319
20
134.2089775
40
0.2857091
50
83.728216
51
90.0968824
0
LINE
8
DEFAULT_255_1_388
10
18.0866672
20
134.3266232
11
17.9186042
21
134.3266232
0
LINE
8
DEFAULT_255_1_388
10
17.3186374
20
133.937187
11
17.4857968
21
133.937187
0
ARC
8
DEFAULT_255_1_388
10
17.7849333
20
133.8972935
40
0.1436198
50
359.3335374
51
18.5869869
0
ARC
8
DEFAULT_255_1_388
10
17.8084072
20
133.9035015
40
0.1194022
50
19.3538149
51
54.6486387
0
ARC
8
DEFAULT_255_1_388
10
17.751706
20
133.8253077
40
0.2159877
50
54.3821575
51
65.0627557
0
ARC
8
DEFAULT_255_1_388
10
17.6652407
20
133.6434032
40
0.4173927
50
64.8282172
51
71.4204388
0
ARC
8
DEFAULT_255_1_388
10
17.5637302
20
133.3455782
40
0.7320403
50
71.3166092
51
75.8005927
0
ARC
8
DEFAULT_255_1_388
10
17.4691188
20
132.9810881
40
1.108605
50
75.6810806
51
78.0063886
0
ARC
8
DEFAULT_255_1_388
10
17.9695777
20
135.341253
40
1.3040363
50
254.69024
51
258.0465557
0
ARC
8
DEFAULT_255_1_388
10
17.8527646
20
134.9182742
40
0.8652254
50
249.9010634
51
254.7555005
0
ARC
8
DEFAULT_255_1_388
10
17.7398698
20
134.611668
40
0.5384962
50
243.3097375
51
249.970939
0
ARC
8
DEFAULT_255_1_388
10
17.6691112
20
134.4705721
40
0.380652
50
234.4047808
51
243.2861752
0
ARC
8
DEFAULT_255_1_388
10
17.5990748
20
134.3738645
40
0.2612502
50
220.8665526
51
234.5497192
0
ARC
8
DEFAULT_255_1_388
10
17.5605746
20
134.3388203
40
0.2092097
50
214.3063391
51
220.5075055
0
ARC
8
DEFAULT_255_1_388
10
17.557686
20
134.3353577
40
0.2048755
50
186.9131438
51
213.9617385
0
ARC
8
DEFAULT_255_1_388
10
17.617525
20
134.3450431
40
0.2654563
50
179.8802037
51
187.4338578
0
ARC
8
DEFAULT_255_1_388
10
17.6001215
20
134.3473049
40
0.2480581
50
132.0053393
51
180.3942351
0
ARC
8
DEFAULT_255_1_388
10
17.6740128
20
134.2790997
40
0.3483116
50
129.2317021
51
133.5294826
0
ARC
8
DEFAULT_255_1_388
10
17.6800097
20
134.2685383
40
0.360291
50
100.440976
51
128.9081567
0
ARC
8
DEFAULT_255_1_388
10
17.7108214
20
134.1239357
40
0.5080996
50
89.6985063
51
100.9029043
0
ARC
8
DEFAULT_255_1_388
10
17.7172369
20
134.1058739
40
0.5261675
50
77.6967144
51
90.4074623
0
ARC
8
DEFAULT_255_1_388
10
17.7544721
20
134.2664503
40
0.3613511
50
50.7278431
51
78.0397473
0
ARC
8
DEFAULT_255_1_388
10
17.8044764
20
134.3247173
40
0.2845966
50
25.754382
51
51.0957456
0
ARC
8
DEFAULT_255_1_388
10
17.8046131
20
134.3303311
40
0.2820785
50
359.2468358
51
24.7393861
0
ARC
8
DEFAULT_255_1_388
10
17.7726019
20
134.3271204
40
0.1460032
50
359.8048924
51
45.1543866
0
ARC
8
DEFAULT_255_1_388
10
17.7267752
20
134.2879291
40
0.2061641
50
43.8053172
51
49.625485
0
ARC
8
DEFAULT_255_1_388
10
17.7277195
20
134.2880849
40
0.2054344
50
49.7979696
51
82.121802
0
ARC
8
DEFAULT_255_1_388
10
17.7143278
20
134.2153473
40
0.2793404
50
81.4458692
51
90.1707936
0
ARC
8
DEFAULT_255_1_388
10
17.7115854
20
134.1561478
40
0.3385438
50
89.6768097
51
99.1267111
0
ARC
8
DEFAULT_255_1_388
10
17.6922836
20
134.2724405
40
0.2206627
50
98.9679878
51
113.4573418
0
ARC
8
DEFAULT_255_1_388
10
17.6702517
20
134.3251193
40
0.1635691
50
113.7230234
51
127.4758155
0
ARC
8
DEFAULT_255_1_388
10
17.6513099
20
134.3476433
40
0.1341757
50
126.9086647
51
150.3160891
0
ARC
8
DEFAULT_255_1_388
10
17.645943
20
134.353368
40
0.1266992
50
151.363328
51
180.0701537
0
ARC
8
DEFAULT_255_1_388
10
17.6769651
20
134.351023
40
0.1577364
50
179.2045432
51
180.0012892
0
ARC
8
DEFAULT_255_1_388
10
17.6400762
20
134.3495515
40
0.1208564
50
179.3040542
51
198.4225767
0
ARC
8
DEFAULT_255_1_388
10
17.6184904
20
134.3439337
40
0.0986126
50
199.2893055
51
238.6036855
0
ARC
8
DEFAULT_255_1_388
10
17.6862997
20
134.4503752
40
0.2248082
50
237.9844191
51
246.8751643
0
ARC
8
DEFAULT_255_1_388
10
17.7827857
20
134.6710861
40
0.4656832
50
246.6226408
51
251.8174794
0
ARC
8
DEFAULT_255_1_388
10
17.8988324
20
135.0195909
40
0.8329993
50
251.7140983
51
255.0775146
0
ARC
8
DEFAULT_255_1_388
10
18.0337848
20
135.5222708
40
1.3534786
50
255.0370864
51
257.4701577
0
ARC
8
DEFAULT_255_1_388
10
17.4590393
20
132.9328535
40
1.298957
50
73.6835762
51
77.5015749
0
ARC
8
DEFAULT_255_1_388
10
17.5815307
20
133.3490699
40
0.8650912
50
68.7042835
51
73.7249997
0
ARC
8
DEFAULT_255_1_388
10
17.6830871
20
133.6107853
40
0.584363
50
63.5907059
51
68.6622978
0
ARC
8
DEFAULT_255_1_388
10
17.7698613
20
133.7838157
40
0.3907955
50
54.7106507
51
63.7018033
0
ARC
8
DEFAULT_255_1_388
10
17.8401
20
133.8819287
40
0.2701345
50
41.0624597
51
54.8488532
0
ARC
8
DEFAULT_255_1_388
10
17.8784779
20
133.9171439
40
0.2180695
50
34.4952722
51
40.7097584
0
ARC
8
DEFAULT_255_1_388
10
17.8837744
20
133.9226204
40
0.2106083
50
9.3761233
51
34.0834046
0
ARC
8
DEFAULT_255_1_388
10
17.8102872
20
133.9085174
40
0.2854177
50
359.7695264
51
9.7660556
0
ARC
8
DEFAULT_255_1_388
10
17.8325166
20
133.9036841
40
0.2632121
50
335.8653103
51
0.8022272
0
ARC
8
DEFAULT_255_1_388
10
17.8409571
20
133.9051951
40
0.2561728
50
307.7357819
51
334.7849324
0
ARC
8
DEFAULT_255_1_388
10
17.7964212
20
133.9551553
40
0.3229737
50
307.0217048
51
308.5596894
0
ARC
8
DEFAULT_255_1_388
10
17.7668796
20
133.9993063
40
0.3760237
50
282.9361285
51
306.5649033
0
ARC
8
DEFAULT_255_1_388
10
17.7261858
20
134.1643871
40
0.5460314
50
271.1026197
51
283.2199962
0
ARC
8
DEFAULT_255_1_388
10
17.7190047
20
134.3044744
40
0.6862456
50
269.9926344
51
271.4770056
0
ARC
8
DEFAULT_255_1_388
10
17.7160617
20
134.1827633
40
0.5645418
50
259.0723633
51
270.2897324
0
ARC
8
DEFAULT_255_1_388
10
17.6921841
20
134.0570887
40
0.4366198
50
245.4965026
51
259.0225745
0
ARC
8
DEFAULT_255_1_388
10
17.6609058
20
133.9916491
40
0.3641037
50
228.9686619
51
245.7042678
0
ARC
8
DEFAULT_255_1_388
10
17.6310333
20
133.9548573
40
0.3167435
50
214.4015391
51
228.6759028
0
ARC
8
DEFAULT_255_1_388
10
17.598483
20
133.9370429
40
0.2798456
50
179.9704983
51
215.1574389
0
ARC
8
DEFAULT_255_1_388
10
17.6773042
20
133.9453148
40
0.1916798
50
182.430239
51
203.0329751
0
ARC
8
DEFAULT_255_1_388
10
17.6565638
20
133.9389675
40
0.1701248
50
203.7987464
51
232.5483345
0
ARC
8
DEFAULT_255_1_388
10
17.6876723
20
133.9785049
40
0.2204299
50
232.3784541
51
256.3934343
0
ARC
8
DEFAULT_255_1_388
10
17.713587
20
134.0786359
40
0.3238512
50
256.1048329
51
268.4627478
0
ARC
8
DEFAULT_255_1_388
10
17.7188289
20
134.1690297
40
0.4143627
50
268.0734924
51
270.0121004
0
ARC
8
DEFAULT_255_1_388
10
17.7209008
20
134.1376191
40
0.3829573
50
269.7031202
51
278.8338867
0
ARC
8
DEFAULT_255_1_388
10
17.7413872
20
134.0104553
40
0.2541568
50
278.6727378
51
292.82331
0
ARC
8
DEFAULT_255_1_388
10
17.7639418
20
133.9540546
40
0.1934264
50
293.1457581
51
303.6656964
0
ARC
8
DEFAULT_255_1_388
10
17.7937492
20
133.9117159
40
0.1416713
50
303.1245849
51
321.7434683
0
ARC
8
DEFAULT_255_1_388
10
17.8146573
20
133.893378
40
0.1139081
50
322.4747616
51
1.1293039
0
LINE
8
DEFAULT_255_2_778
10
9.3932417
20
124.2219075
11
10.7161417
21
124.2219075
0
LINE
8
DEFAULT_255_2_778
10
10.7161417
20
124.2219075
11
10.7161417
21
67.3365075
0
LINE
8
DEFAULT_255_2_778
10
9.3932834
20
67.3364333
11
12.0390834
21
67.3364333
0
LINE
8
DEFAULT_255_2_778
10
12.0390834
20
67.3364333
11
12.0390834
21
62.0447333
0
LINE
8
DEFAULT_255_2_778
10
12.0390834
20
62.0447333
11
9.3932834
21
62.0447333
0
LINE
8
DEFAULT_255_2_778
10
9.3932834
20
62.0447333
11
9.3932834
21
67.3364333
0
ARC
8
DEFAULT_255_2_778_1
10
13.1928591
20
62.147177
40
4.816461
50
120.9442904
51
122.351755
0
ARC
8
DEFAULT_255_2_778_1
10
12.7462523
20
62.8508039
40
3.9830657
50
122.3407904
51
124.1946752
0
ARC
8
DEFAULT_255_2_778_1
10
12.3063464
20
63.4973306
40
3.2010724
50
124.1855758
51
126.4338849
0
ARC
8
DEFAULT_255_2_778_1
10
11.9204129
20
64.0200611
40
2.5513094
50
126.4326926
51
128.8877368
0
ARC
8
DEFAULT_255_2_778_1
10
11.5855968
20
64.4344658
40
2.0185498
50
128.8749205
51
131.8726567
0
ARC
8
DEFAULT_255_2_778_1
10
11.2884677
20
64.7654854
40
1.5737356
50
131.8616166
51
135.4168838
0
ARC
8
DEFAULT_255_2_778_1
10
11.025668
20
65.0236765
40
1.2053256
50
135.3893975
51
139.9687014
0
ARC
8
DEFAULT_255_2_778_1
10
10.7927889
20
65.2185102
40
0.9016937
50
139.9301659
51
145.9260426
0
ARC
8
DEFAULT_255_2_778_1
10
10.596654
20
65.3505104
40
0.6652776
50
145.8787362
51
153.8146208
0
ARC
8
DEFAULT_255_2_778_1
10
10.4445553
20
65.4248797
40
0.4959714
50
153.770634
51
164.3484794
0
ARC
8
DEFAULT_255_2_778_1
10
10.3432387
20
65.4530786
40
0.3908039
50
164.3220276
51
179.8083066
0
ARC
8
DEFAULT_255_2_778_1
10
10.3642789
20
65.461215
40
0.4118985
50
180.9499449
51
213.8111542
0
ARC
8
DEFAULT_255_2_778_1
10
10.6401828
20
65.6307896
40
0.73561
50
212.8271214
51
224.258472
0
ARC
8
DEFAULT_255_2_778_1
10
11.0230335
20
66.0001236
40
1.267567
50
224.1376218
51
231.4508261
0
ARC
8
DEFAULT_255_2_778_1
10
11.6657195
20
66.8031168
40
2.2960809
50
231.3955893
51
236.1256478
0
ARC
8
DEFAULT_255_2_778_1
10
13.4980223
20
69.5496293
40
5.5976905
50
236.2233172
51
239.1314682
0
ARC
8
DEFAULT_255_2_778_1
10
25.447927
20
89.2773568
40
28.6623793
50
238.8606853
51
239.0711101
0
ARC
8
DEFAULT_255_2_778_1
10
6.2757281
20
57.1802653
40
8.7248518
50
57.2420924
51
59.4062964
0
ARC
8
DEFAULT_255_2_778_1
10
9.5034241
20
62.2112102
40
2.747542
50
52.8289294
51
57.079028
0
ARC
8
DEFAULT_255_2_778_1
10
10.2780783
20
63.2315488
40
1.466457
50
46.3041868
51
52.8596521
0
ARC
8
DEFAULT_255_2_778_1
10
10.7103073
20
63.6816842
40
0.8424061
50
36.2174211
51
46.4090895
0
ARC
8
DEFAULT_255_2_778_1
10
10.9948088
20
63.8865128
40
0.4918609
50
17.400375
51
36.5489745
0
ARC
8
DEFAULT_255_2_778_1
10
11.1088994
20
63.9263754
40
0.3710912
50
0.0676858
51
16.7951297
0
ARC
8
DEFAULT_255_2_778_1
10
11.0878613
20
63.9282428
40
0.3921317
50
343.8035191
51
359.7912046
0
ARC
8
DEFAULT_255_2_778_1
10
10.9815912
20
63.9587167
40
0.5026844
50
333.2506233
51
343.8465691
0
ARC
8
DEFAULT_255_2_778_1
10
10.8277757
20
64.0354313
40
0.6745679
50
325.6600948
51
333.3122657
0
ARC
8
DEFAULT_255_2_778_1
10
10.6323344
20
64.1682296
40
0.9108568
50
319.7560915
51
325.6976089
0
ARC
8
DEFAULT_255_2_778_1
10
10.404199
20
64.3600002
40
1.2088854
50
315.4577584
51
319.8037947
0
ARC
8
DEFAULT_255_2_778_1
10
10.1408127
20
64.6188507
40
1.5781764
50
311.7298824
51
315.4670864
0
ARC
8
DEFAULT_255_2_778_1
10
9.8317879
20
64.9644074
40
2.0417554
50
308.723055
51
311.7470879
0
ARC
8
DEFAULT_255_2_778_1
10
9.477589
20
65.4056492
40
2.6075745
50
306.1165163
51
308.7300151
0
ARC
8
DEFAULT_255_2_778_1
10
9.0746091
20
65.9569523
40
3.2904564
50
303.9559446
51
306.1266333
0
ARC
8
DEFAULT_255_2_778_1
10
8.6630432
20
66.566215
40
4.0257023
50
302.3733397
51
303.9712246
0
ARC
8
DEFAULT_255_2_778_1
10
8.2434347
20
67.2277058
40
4.8090549
50
300.9434827
51
302.3758078
0
LINE
8
DEFAULT_255_2_778
10
10.7161417
20
62.0448075
11
10.7161417
21
5.1594075
0
LINE
8
DEFAULT_255_2_778
10
10.7161417
20
5.1594075
11
9.3932417
21
5.1594075
0
LINE
8
DEFAULT_255_1_388
10
4.8826318
20
131.7883382
11
4.8826318
21
131.6519
0
LINE
8
DEFAULT_255_1_388
10
4.8826318
20
131.6519
11
4.0206313
21
131.6519
0
LINE
8
DEFAULT_255_1_388
10
4.0206313
20
131.6519
11
4.0206313
21
131.7720741
0
LINE
8
DEFAULT_255_1_388
10
4.0206313
20
131.7720741
11
4.4760278
21
132.2780702
0
LINE
8
DEFAULT_255_1_388
10
4.1624909
20
132.5798607
11
3.9953315
21
132.5798607
0
LINE
8
DEFAULT_255_1_388
10
4.5745163
20
132.170546
11
4.2221262
21
131.7883382
0
LINE
8
DEFAULT_255_1_388
10
4.2221262
20
131.7883382
11
4.8826318
21
131.7883382
0
ARC
8
DEFAULT_255_1_388
10
2.9584337
20
133.6200983
40
2.0258655
50
318.5132526
51
320.7829045
0
ARC
8
DEFAULT_255_1_388
10
3.5532294
20
133.1359929
40
1.2589638
50
320.7372878
51
323.9739031
0
ARC
8
DEFAULT_255_1_388
10
3.9941226
20
132.8165554
40
0.7145141
50
323.8962701
51
328.64194
0
ARC
8
DEFAULT_255_1_388
10
4.2243484
20
132.6745545
40
0.4440242
50
328.8294576
51
331.7891185
0
ARC
8
DEFAULT_255_1_388
10
4.3365804
20
132.6166374
40
0.3177517
50
331.4254512
51
352.9365785
0
ARC
8
DEFAULT_255_1_388
10
4.3518804
20
132.613205
40
0.3021496
50
353.2257659
51
0.0166158
0
ARC
8
DEFAULT_255_1_388
10
4.3755564
20
132.6157894
40
0.2784847
50
359.486299
51
15.9343185
0
ARC
8
DEFAULT_255_1_388
10
4.4325831
20
132.6311269
40
0.2194403
50
16.1712913
51
43.5286088
0
ARC
8
DEFAULT_255_1_388
10
4.4412776
20
132.6398191
40
0.2071504
50
43.4417391
51
83.1661095
0
ARC
8
DEFAULT_255_1_388
10
4.4261937
20
132.5569316
40
0.2912888
50
82.160179
51
90.1505708
0
ARC
8
DEFAULT_255_1_388
10
4.4226418
20
132.4965279
40
0.3517025
50
89.5460741
51
102.5418361
0
ARC
8
DEFAULT_255_1_388
10
4.3953138
20
132.6124933
40
0.2325748
50
102.1738499
51
129.206123
0
ARC
8
DEFAULT_255_1_388
10
4.3864592
20
132.6264664
40
0.2161591
50
129.72865
51
135.753947
0
ARC
8
DEFAULT_255_1_388
10
4.4001074
20
132.6155728
40
0.2335433
50
136.1757367
51
166.3673339
0
ARC
8
DEFAULT_255_1_388
10
4.5133762
20
132.5852148
40
0.3507873
50
165.9090694
51
178.8684636
0
ARC
8
DEFAULT_255_1_388
10
4.6109534
20
132.5799263
40
0.4484624
50
178.4391136
51
180.0083808
0
ARC
8
DEFAULT_255_1_388
10
4.4530235
20
132.5843197
40
0.4577138
50
163.2878482
51
180.5581842
0
ARC
8
DEFAULT_255_1_388
10
4.3628276
20
132.6091393
40
0.3641968
50
133.4540601
51
162.947111
0
ARC
8
DEFAULT_255_1_388
10
4.3829158
20
132.5877789
40
0.3935189
50
100.7869829
51
133.4382499
0
ARC
8
DEFAULT_255_1_388
10
4.4220403
20
132.4135399
40
0.5720313
50
89.660664
51
101.3702276
0
ARC
8
DEFAULT_255_1_388
10
4.4295012
20
132.4204263
40
0.5651495
50
78.2172678
51
90.412935
0
ARC
8
DEFAULT_255_1_388
10
4.4694478
20
132.6031511
40
0.378122
50
55.9269121
51
78.4888449
0
ARC
8
DEFAULT_255_1_388
10
4.4915193
20
132.6412187
40
0.3342379
50
47.929771
51
55.4049217
0
ARC
8
DEFAULT_255_1_388
10
4.5029723
20
132.6528618
40
0.3179217
50
4.334829
51
48.0560205
0
ARC
8
DEFAULT_255_1_388
10
4.3797525
20
132.6337487
40
0.442341
50
359.9251713
51
5.5971671
0
ARC
8
DEFAULT_255_1_388
10
4.427968
20
132.6400728
40
0.3941854
50
337.8914027
51
358.9967534
0
ARC
8
DEFAULT_255_1_388
10
4.122725
20
132.7578295
40
0.7213271
50
326.9132501
51
338.3508308
0
ARC
8
DEFAULT_255_1_388
10
3.6743362
20
133.0452105
40
1.2538973
50
319.6471833
51
327.0959558
0
ARC
8
DEFAULT_255_1_388
10
3.243002
20
133.401005
40
1.8129975
50
317.2588228
51
319.9045804
0
LINE
8
DEFAULT_255_1_388
10
5.7654143
20
132.9674898
11
5.7654143
21
132.093743
0
LINE
8
DEFAULT_255_1_388
10
5.7654143
20
132.093743
11
5.9479343
21
132.093743
0
LINE
8
DEFAULT_255_1_388
10
5.9479343
20
132.093743
11
5.9479343
21
131.9573048
0
LINE
8
DEFAULT_255_1_388
10
5.9479343
20
131.9573048
11
5.7654143
21
131.9573048
0
LINE
8
DEFAULT_255_1_388
10
5.7654143
20
131.9573048
11
5.7654143
21
131.6519
0
LINE
8
DEFAULT_255_1_388
10
5.7654143
20
131.6519
11
5.5973513
21
131.6519
0
LINE
8
DEFAULT_255_1_388
10
5.5973513
20
131.6519
11
5.5973513
21
131.9573048
0
LINE
8
DEFAULT_255_1_388
10
5.5973513
20
131.9573048
11
4.998288
21
131.9573048
0
LINE
8
DEFAULT_255_1_388
10
4.998288
20
131.9573048
11
4.998288
21
132.0557933
0
LINE
8
DEFAULT_255_1_388
10
4.998288
20
132.0557933
11
5.5874121
21
132.9674898
0
LINE
8
DEFAULT_255_1_388
10
5.5874121
20
132.9674898
11
5.7654143
21
132.9674898
0
LINE
8
DEFAULT_255_1_388
10
5.5774729
20
132.7027455
11
5.1880366
21
132.093743
0
LINE
8
DEFAULT_255_1_388
10
5.1880366
20
132.093743
11
5.5973513
21
132.093743
0
LINE
8
DEFAULT_255_1_388
10
5.5973513
20
132.093743
11
5.5973513
21
132.738888
0
LINE
8
DEFAULT_255_1_388
10
5.5973513
20
132.738888
11
5.5774729
21
132.7027455
0
LINE
8
DEFAULT_255_1_388
10
6.203643
20
132.9674898
11
6.5777187
21
131.8823089
0
LINE
8
DEFAULT_255_1_388
10
6.5777187
20
131.8823089
11
6.9536015
21
132.9674898
0
LINE
8
DEFAULT_255_1_388
10
6.9536015
20
132.9674898
11
7.14335
21
132.9674898
0
LINE
8
DEFAULT_255_1_388
10
7.14335
20
132.9674898
11
6.6554252
21
131.6519
0
LINE
8
DEFAULT_255_1_388
10
6.6554252
20
131.6519
11
6.5018193
21
131.6519
0
LINE
8
DEFAULT_255_1_388
10
6.5018193
20
131.6519
11
6.014798
21
132.9674898
0
LINE
8
DEFAULT_255_1_388
10
6.014798
20
132.9674898
11
6.203643
21
132.9674898
0
LINE
8
DEFAULT_255_1_388
10
4.2089367
20
5.9674898
11
4.2089367
21
4.6519
0
LINE
8
DEFAULT_255_1_388
10
4.2089367
20
4.6519
11
4.0354523
21
4.6519
0
LINE
8
DEFAULT_255_1_388
10
4.0354523
20
4.6519
11
4.0354523
21
5.9674898
0
LINE
8
DEFAULT_255_1_388
10
4.0354523
20
5.9674898
11
4.2089367
21
5.9674898
0
LINE
8
DEFAULT_255_1_388
10
5.53808
20
5.3503553
11
5.53808
21
5.2672274
0
LINE
8
DEFAULT_255_1_388
10
4.480006
20
5.2554811
11
4.480006
21
5.3503553
0
LINE
8
DEFAULT_255_1_388
10
5.3654992
20
5.2545775
11
5.3654992
21
5.3521625
0
LINE
8
DEFAULT_255_1_388
10
4.6525868
20
5.3639088
11
4.6525868
21
5.2672274
0
ARC
8
DEFAULT_255_1_388
10
4.5658538
20
5.2627726
40
0.9722364
50
350.4878118
51
0.2625322
0
ARC
8
DEFAULT_255_1_388
10
4.8238498
20
5.2183994
40
0.7104556
50
336.0277991
51
350.5787241
0
ARC
8
DEFAULT_255_1_388
10
4.9751605
20
5.1500243
40
0.544417
50
319.887443
51
336.1331163
0
ARC
8
DEFAULT_255_1_388
10
5.0429417
20
5.0957733
40
0.4576311
50
302.4806296
51
319.6144102
0
ARC
8
DEFAULT_255_1_388
10
5.0300038
20
5.1207067
40
0.4856183
50
275.8196423
51
302.1885521
0
ARC
8
DEFAULT_255_1_388
10
5.01129
20
5.2492466
40
0.6154183
50
269.9169897
51
276.339506
0
ARC
8
DEFAULT_255_1_388
10
5.00625
20
5.172068
40
0.5382553
50
252.5221437
51
270.441579
0
ARC
8
DEFAULT_255_1_388
10
4.9900751
20
5.1114046
40
0.4755426
50
237.5349961
51
252.1858334
0
ARC
8
DEFAULT_255_1_388
10
5.0001127
20
5.124212
40
0.4917393
50
209.0632754
51
237.3492577
0
ARC
8
DEFAULT_255_1_388
10
5.0980453
20
5.1857104
40
0.6072464
50
205.118533
51
209.6465345
0
ARC
8
DEFAULT_255_1_388
10
5.1876455
20
5.2237174
40
0.7045164
50
188.7216633
51
204.8239753
0
ARC
8
DEFAULT_255_1_388
10
5.412323
20
5.2615387
40
0.9323368
50
180.3722704
51
188.9253909
0
ARC
8
DEFAULT_255_1_388
10
5.4092792
20
5.3548416
40
0.929284
50
169.5253055
51
180.2766048
0
ARC
8
DEFAULT_255_1_388
10
5.1952591
20
5.3942024
40
0.7116745
50
155.8314601
51
169.5088611
0
ARC
8
DEFAULT_255_1_388
10
5.0512054
20
5.4610312
40
0.5528904
50
139.6259579
51
156.0379072
0
ARC
8
DEFAULT_255_1_388
10
4.9848588
20
5.5144143
40
0.4677708
50
122.6414784
51
139.3431662
0
ARC
8
DEFAULT_255_1_388
10
4.9961842
20
5.4937787
40
0.4912586
50
93.0224537
51
122.4556091
0
ARC
8
DEFAULT_255_1_388
10
5.0083363
20
5.3851776
40
0.6003837
50
89.9756766
51
93.6340839
0
ARC
8
DEFAULT_255_1_388
10
5.0126961
20
5.4300879
40
0.5554884
50
73.7463329
51
90.4234008
0
ARC
8
DEFAULT_255_1_388
10
5.0324434
20
5.5065772
40
0.4765353
50
57.663051
51
73.4516911
0
ARC
8
DEFAULT_255_1_388
10
5.0315472
20
5.5090108
40
0.4749629
50
29.1441355
51
57.4146687
0
ARC
8
DEFAULT_255_1_388
10
4.9263283
20
5.4433046
40
0.5988917
50
24.0985653
51
29.732054
0
ARC
8
DEFAULT_255_1_388
10
4.8100915
20
5.3951154
40
0.7246823
50
8.6654943
51
23.8241215
0
ARC
8
DEFAULT_255_1_388
10
4.5587333
20
5.3541037
40
0.9793537
50
359.7807044
51
8.8218476
0
ARC
8
DEFAULT_255_1_388
10
4.4297038
20
5.3569731
40
0.9358078
50
359.7054632
51
8.0359751
0
ARC
8
DEFAULT_255_1_388
10
4.7672089
20
5.4061252
40
0.5947474
50
7.8926278
51
20.2962188
0
ARC
8
DEFAULT_255_1_388
10
4.9502939
20
5.4736367
40
0.3996117
50
20.3231056
51
36.4990255
0
ARC
8
DEFAULT_255_1_388
10
5.0274237
20
5.5330399
40
0.3022818
50
36.1436715
51
85.6627846
0
ARC
8
DEFAULT_255_1_388
10
5.0091492
20
5.4160881
40
0.4203853
50
84.3845912
51
90.076054
0
ARC
8
DEFAULT_255_1_388
10
5.0043847
20
5.4903416
40
0.346157
50
89.3037228
51
109.9046209
0
ARC
8
DEFAULT_255_1_388
10
4.993968
20
5.5333379
40
0.3022217
50
110.8229774
51
143.917961
0
ARC
8
DEFAULT_255_1_388
10
5.0990039
20
5.4531455
40
0.434348
50
143.5289166
51
163.2980252
0
ARC
8
DEFAULT_255_1_388
10
5.3136326
20
5.3856685
40
0.659321
50
163.0418884
51
174.3139873
0
ARC
8
DEFAULT_255_1_388
10
5.5841291
20
5.3544378
40
0.9315905
50
174.050934
51
179.4174954
0
ARC
8
DEFAULT_255_1_388
10
5.5273235
20
5.2625382
40
0.8747493
50
179.6928582
51
188.7908948
0
ARC
8
DEFAULT_255_1_388
10
5.2277035
20
5.2146086
40
0.5713262
50
188.6328449
51
202.5630732
0
ARC
8
DEFAULT_255_1_388
10
5.0865872
20
5.1579142
40
0.4192612
50
202.8078931
51
216.1195888
0
ARC
8
DEFAULT_255_1_388
10
4.9955389
20
5.0846479
40
0.3025752
50
215.0755613
51
264.6379773
0
ARC
8
DEFAULT_255_1_388
10
5.0098226
20
5.1781376
40
0.3970284
50
263.8464302
51
270.0830805
0
ARC
8
DEFAULT_255_1_388
10
5.0144771
20
5.1490808
40
0.3679937
50
269.3649295
51
287.5149684
0
ARC
8
DEFAULT_255_1_388
10
5.0345212
20
5.0762714
40
0.2925408
50
288.0629019
51
323.8115617
0
ARC
8
DEFAULT_255_1_388
10
4.9365188
20
5.1493754
40
0.4148018
50
323.6546541
51
342.6591359
0
ARC
8
DEFAULT_255_1_388
10
4.7079846
20
5.223728
40
0.6551163
50
342.4092446
51
353.6451501
0
ARC
8
DEFAULT_255_1_388
10
4.3894639
20
5.2633565
40
0.9760748
50
353.4027553
51
359.4846611
0
LINE
8
DEFAULT_255_1_388
10
6.7696383
20
5.3069842
11
6.7696383
21
4.8244808
0
LINE
8
DEFAULT_255_1_388
10
5.755839
20
5.2464454
11
5.755839
21
5.3611981
0
LINE
8
DEFAULT_255_1_388
10
6.7696383
20
5.5816678
11
6.596154
21
5.5816678
0
LINE
8
DEFAULT_255_1_388
10
5.930227
20
5.3657159
11
5.930227
21
5.2581917
0
LINE
8
DEFAULT_255_1_388
10
6.5970575
20
4.8705626
11
6.5970575
21
5.1660282
0
LINE
8
DEFAULT_255_1_388
10
6.5970575
20
5.1660282
11
6.2925563
21
5.1660282
0
LINE
8
DEFAULT_255_1_388
10
6.2925563
20
5.1660282
11
6.2925563
21
5.3069842
0
LINE
8
DEFAULT_255_1_388
10
6.2925563
20
5.3069842
11
6.7696383
21
5.3069842
0
ARC
8
DEFAULT_255_1_388
10
6.4510984
20
5.0487284
40
0.3895571
50
295.8437277
51
324.8549962
0
ARC
8
DEFAULT_255_1_388
10
6.4043366
20
5.1333619
40
0.4861381
50
291.5691164
51
296.4556269
0
ARC
8
DEFAULT_255_1_388
10
6.3468369
20
5.2869801
40
0.6501442
50
278.6622213
51
291.3047061
0
ARC
8
DEFAULT_255_1_388
10
6.3086401
20
5.5286557
40
0.8948168
50
270.0200506
51
278.7494673
0
ARC
8
DEFAULT_255_1_388
10
6.3042605
20
5.7132453
40
1.0794166
50
270.0022372
51
270.2490917
0
ARC
8
DEFAULT_255_1_388
10
6.3000497
20
5.2173827
40
0.5835695
50
253.5785313
51
270.4175629
0
ARC
8
DEFAULT_255_1_388
10
6.2805493
20
5.1418625
40
0.5056241
50
238.8203954
51
253.2788387
0
ARC
8
DEFAULT_255_1_388
10
6.2783409
20
5.1361224
40
0.4995712
50
206.7883476
51
238.696262
0
ARC
8
DEFAULT_255_1_388
10
6.3658805
20
5.1885847
40
0.6014056
50
206.1137778
51
207.4912776
0
ARC
8
DEFAULT_255_1_388
10
6.4325641
20
5.2169284
40
0.6737692
50
188.6922336
51
205.782076
0
ARC
8
DEFAULT_255_1_388
10
6.6414
20
5.2524455
40
0.8855812
50
180.3881972
51
188.9218085
0
ARC
8
DEFAULT_255_1_388
10
6.7795157
20
5.3675622
40
1.0236965
50
170.2024645
51
180.3561986
0
ARC
8
DEFAULT_255_1_388
10
6.4236307
20
5.4312101
40
0.6621746
50
154.2856519
51
170.3893388
0
ARC
8
DEFAULT_255_1_388
10
6.2794271
20
5.4972192
40
0.5036209
50
139.8400879
51
153.9334639
0
ARC
8
DEFAULT_255_1_388
10
6.2390175
20
5.5295716
40
0.4518751
50
98.4190017
51
139.6707015
0
ARC
8
DEFAULT_255_1_388
10
6.2817142
20
5.3219755
40
0.6635912
50
89.7660128
51
99.4415389
0
ARC
8
DEFAULT_255_1_388
10
6.2890539
20
5.3293517
40
0.6562258
50
78.0552044
51
90.4042252
0
ARC
8
DEFAULT_255_1_388
10
6.3345602
20
5.5339661
40
0.4466287
50
54.6380186
51
78.3338577
0
ARC
8
DEFAULT_255_1_388
10
6.3559901
20
5.5700444
40
0.4048184
50
50.0313964
51
54.1562739
0
ARC
8
DEFAULT_255_1_388
10
6.3438794
20
5.5591798
40
0.4209308
50
18.1092229
51
49.7179911
0
ARC
8
DEFAULT_255_1_388
10
6.1799875
20
5.4991399
40
0.5953982
50
7.967396
51
18.698492
0
ARC
8
DEFAULT_255_1_388
10
6.1969136
20
5.5130236
40
0.4050986
50
9.7558763
51
27.3214087
0
ARC
8
DEFAULT_255_1_388
10
6.32376
20
5.5764087
40
0.2633168
50
27.736147
51
84.5257861
0
ARC
8
DEFAULT_255_1_388
10
6.286901
20
5.3914988
40
0.4513019
50
82.1064239
51
90.1997295
0
ARC
8
DEFAULT_255_1_388
10
6.2813026
20
5.4486501
40
0.3941684
50
89.4148952
51
105.5824837
0
ARC
8
DEFAULT_255_1_388
10
6.2523907
20
5.5539043
40
0.2850167
50
105.6678541
51
144.2649156
0
ARC
8
DEFAULT_255_1_388
10
6.3528799
20
5.4824024
40
0.4083468
50
144.3560675
51
162.8564185
0
ARC
8
DEFAULT_255_1_388
10
6.5873242
20
5.4071083
40
0.6545749
50
162.6076338
51
173.6779811
0
ARC
8
DEFAULT_255_1_388
10
6.9317357
20
5.3652422
40
1.0015089
50
173.4670996
51
179.9729015
0
ARC
8
DEFAULT_255_1_388
10
6.7170228
20
5.2534636
40
0.78681
50
179.6556955
51
190.007958
0
ARC
8
DEFAULT_255_1_388
10
6.4564509
20
5.205666
40
0.5218997
50
189.8117884
51
206.6795375
0
ARC
8
DEFAULT_255_1_388
10
6.3613955
20
5.1613514
40
0.4170788
50
207.1031171
51
217.7074698
0
ARC
8
DEFAULT_255_1_388
10
6.2900386
20
5.0992596
40
0.3226945
50
216.7345117
51
265.6812141
0
ARC
8
DEFAULT_255_1_388
10
6.3047528
20
5.201003
40
0.4253149
50
264.7367524
51
270.0610826
0
ARC
8
DEFAULT_255_1_388
10
6.3073713
20
5.5205173
40
0.7448321
50
269.8334494
51
276.0538364
0
ARC
8
DEFAULT_255_1_388
10
6.3306576
20
5.3065924
40
0.5296446
50
275.9894423
51
284.4615914
0
ARC
8
DEFAULT_255_1_388
10
6.3528089
20
5.213357
40
0.4338353
50
284.7038488
51
286.4938196
0
ARC
8
DEFAULT_255_1_388
10
6.3987238
20
5.0654371
40
0.2789738
50
286.0770429
51
304.2629628
0
ARC
8
DEFAULT_255_1_388
10
6.4137396
20
5.040868
40
0.2502188
50
304.5886247
51
317.1074126
0
LINE
8
DEFAULT_255_1_388
10
4.2089367
20
13.9049898
11
4.2089367
21
12.5894
0
LINE
8
DEFAULT_255_1_388
10
4.2089367
20
12.5894
11
4.0354523
21
12.5894
0
LINE
8
DEFAULT_255_1_388
10
4.0354523
20
12.5894
11
4.0354523
21
13.9049898
0
LINE
8
DEFAULT_255_1_388
10
4.0354523
20
13.9049898
11
4.2089367
21
13.9049898
0
LINE
8
DEFAULT_255_1_388
10
5.53808
20
13.2878553
11
5.53808
21
13.2047274
0
LINE
8
DEFAULT_255_1_388
10
4.480006
20
13.1929811
11
4.480006
21
13.2878553
0
LINE
8
DEFAULT_255_1_388
10
5.3654992
20
13.1920775
11
5.3654992
21
13.2896625
0
LINE
8
DEFAULT_255_1_388
10
4.6525868
20
13.3014088
11
4.6525868
21
13.2047274
0
ARC
8
DEFAULT_255_1_388
10
4.5658538
20
13.2002726
40
0.9722364
50
350.4878118
51
0.2625322
0
ARC
8
DEFAULT_255_1_388
10
4.8238498
20
13.1558994
40
0.7104556
50
336.0277991
51
350.5787241
0
ARC
8
DEFAULT_255_1_388
10
4.9751605
20
13.0875243
40
0.544417
50
319.887443
51
336.1331163
0
ARC
8
DEFAULT_255_1_388
10
5.0429417
20
13.0332733
40
0.4576311
50
302.4806296
51
319.6144102
0
ARC
8
DEFAULT_255_1_388
10
5.0300038
20
13.0582067
40
0.4856183
50
275.8196423
51
302.1885521
0
ARC
8
DEFAULT_255_1_388
10
5.01129
20
13.1867466
40
0.6154183
50
269.9169897
51
276.339506
0
ARC
8
DEFAULT_255_1_388
10
5.00625
20
13.109568
40
0.5382553
50
252.5221437
51
270.441579
0
ARC
8
DEFAULT_255_1_388
10
4.9900751
20
13.0489046
40
0.4755426
50
237.5349961
51
252.1858334
0
ARC
8
DEFAULT_255_1_388
10
5.0001127
20
13.061712
40
0.4917393
50
209.0632754
51
237.3492577
0
ARC
8
DEFAULT_255_1_388
10
5.0980453
20
13.1232104
40
0.6072464
50
205.118533
51
209.6465345
0
ARC
8
DEFAULT_255_1_388
10
5.1876455
20
13.1612174
40
0.7045164
50
188.7216633
51
204.8239753
0
ARC
8
DEFAULT_255_1_388
10
5.412323
20
13.1990387
40
0.9323368
50
180.3722704
51
188.9253909
0
ARC
8
DEFAULT_255_1_388
10
5.4092792
20
13.2923416
40
0.929284
50
169.5253055
51
180.2766048
0
ARC
8
DEFAULT_255_1_388
10
5.1952591
20
13.3317024
40
0.7116745
50
155.8314601
51
169.5088611
0
ARC
8
DEFAULT_255_1_388
10
5.0512054
20
13.3985312
40
0.5528904
50
139.6259579
51
156.0379072
0
ARC
8
DEFAULT_255_1_388
10
4.9848588
20
13.4519143
40
0.4677708
50
122.6414784
51
139.3431662
0
ARC
8
DEFAULT_255_1_388
10
4.9961842
20
13.4312787
40
0.4912586
50
93.0224537
51
122.4556091
0
ARC
8
DEFAULT_255_1_388
10
5.0083363
20
13.3226776
40
0.6003837
50
89.9756766
51
93.6340839
0
ARC
8
DEFAULT_255_1_388
10
5.0126961
20
13.3675879
40
0.5554884
50
73.7463329
51
90.4234008
0
ARC
8
DEFAULT_255_1_388
10
5.0324434
20
13.4440772
40
0.4765353
50
57.663051
51
73.4516911
0
ARC
8
DEFAULT_255_1_388
10
5.0315472
20
13.4465108
40
0.4749629
50
29.1441355
51
57.4146687
0
ARC
8
DEFAULT_255_1_388
10
4.9263283
20
13.3808046
40
0.5988917
50
24.0985653
51
29.732054
0
ARC
8
DEFAULT_255_1_388
10
4.8100915
20
13.3326154
40
0.7246823
50
8.6654943
51
23.8241215
0
ARC
8
DEFAULT_255_1_388
10
4.5587333
20
13.2916037
40
0.9793537
50
359.7807044
51
8.8218476
0
ARC
8
DEFAULT_255_1_388
10
4.4297038
20
13.2944731
40
0.9358078
50
359.7054632
51
8.0359751
0
ARC
8
DEFAULT_255_1_388
10
4.7672089
20
13.3436252
40
0.5947474
50
7.8926278
51
20.2962188
0
ARC
8
DEFAULT_255_1_388
10
4.9502939
20
13.4111367
40
0.3996117
50
20.3231056
51
36.4990255
0
ARC
8
DEFAULT_255_1_388
10
5.0274237
20
13.4705399
40
0.3022818
50
36.1436715
51
85.6627846
0
ARC
8
DEFAULT_255_1_388
10
5.0091492
20
13.3535881
40
0.4203853
50
84.3845912
51
90.076054
0
ARC
8
DEFAULT_255_1_388
10
5.0043847
20
13.4278416
40
0.346157
50
89.3037228
51
109.9046209
0
ARC
8
DEFAULT_255_1_388
10
4.993968
20
13.4708379
40
0.3022217
50
110.8229774
51
143.917961
0
ARC
8
DEFAULT_255_1_388
10
5.0990039
20
13.3906455
40
0.434348
50
143.5289166
51
163.2980252
0
ARC
8
DEFAULT_255_1_388
10
5.3136326
20
13.3231685
40
0.659321
50
163.0418884
51
174.3139873
0
ARC
8
DEFAULT_255_1_388
10
5.5841291
20
13.2919378
40
0.9315905
50
174.050934
51
179.4174954
0
ARC
8
DEFAULT_255_1_388
10
5.5273235
20
13.2000382
40
0.8747493
50
179.6928582
51
188.7908948
0
ARC
8
DEFAULT_255_1_388
10
5.2277035
20
13.1521086
40
0.5713262
50
188.6328449
51
202.5630732
0
ARC
8
DEFAULT_255_1_388
10
5.0865872
20
13.0954142
40
0.4192612
50
202.8078931
51
216.1195888
0
ARC
8
DEFAULT_255_1_388
10
4.9955389
20
13.0221479
40
0.3025752
50
215.0755613
51
264.6379773
0
ARC
8
DEFAULT_255_1_388
10
5.0098226
20
13.1156376
40
0.3970284
50
263.8464302
51
270.0830805
0
ARC
8
DEFAULT_255_1_388
10
5.0144771
20
13.0865808
40
0.3679937
50
269.3649295
51
287.5149684
0
ARC
8
DEFAULT_255_1_388
10
5.0345212
20
13.0137714
40
0.2925408
50
288.0629019
51
323.8115617
0
ARC
8
DEFAULT_255_1_388
10
4.9365188
20
13.0868754
40
0.4148018
50
323.6546541
51
342.6591359
0
ARC
8
DEFAULT_255_1_388
10
4.7079846
20
13.161228
40
0.6551163
50
342.4092446
51
353.6451501
0
ARC
8
DEFAULT_255_1_388
10
4.3894639
20
13.2008565
40
0.9760748
50
353.4027553
51
359.4846611
0
LINE
8
DEFAULT_255_1_388
10
6.7696383
20
13.2444842
11
6.7696383
21
12.7619808
0
LINE
8
DEFAULT_255_1_388
10
5.755839
20
13.1839454
11
5.755839
21
13.2986981
0
LINE
8
DEFAULT_255_1_388
10
6.7696383
20
13.5191678
11
6.596154
21
13.5191678
0
LINE
8
DEFAULT_255_1_388
10
5.930227
20
13.3032159
11
5.930227
21
13.1956917
0
LINE
8
DEFAULT_255_1_388
10
6.5970575
20
12.8080626
11
6.5970575
21
13.1035282
0
LINE
8
DEFAULT_255_1_388
10
6.5970575
20
13.1035282
11
6.2925563
21
13.1035282
0
LINE
8
DEFAULT_255_1_388
10
6.2925563
20
13.1035282
11
6.2925563
21
13.2444842
0
LINE
8
DEFAULT_255_1_388
10
6.2925563
20
13.2444842
11
6.7696383
21
13.2444842
0
ARC
8
DEFAULT_255_1_388
10
6.4510984
20
12.9862284
40
0.3895571
50
295.8437277
51
324.8549962
0
ARC
8
DEFAULT_255_1_388
10
6.4043366
20
13.0708619
40
0.4861381
50
291.5691164
51
296.4556269
0
ARC
8
DEFAULT_255_1_388
10
6.3468369
20
13.2244801
40
0.6501442
50
278.6622213
51
291.3047061
0
ARC
8
DEFAULT_255_1_388
10
6.3086401
20
13.4661557
40
0.8948168
50
270.0200506
51
278.7494673
0
ARC
8
DEFAULT_255_1_388
10
6.3042605
20
13.6507453
40
1.0794166
50
270.0022372
51
270.2490917
0
ARC
8
DEFAULT_255_1_388
10
6.3000497
20
13.1548827
40
0.5835695
50
253.5785313
51
270.4175629
0
ARC
8
DEFAULT_255_1_388
10
6.2805493
20
13.0793625
40
0.5056241
50
238.8203954
51
253.2788387
0
ARC
8
DEFAULT_255_1_388
10
6.2783409
20
13.0736224
40
0.4995712
50
206.7883476
51
238.696262
0
ARC
8
DEFAULT_255_1_388
10
6.3658805
20
13.1260847
40
0.6014056
50
206.1137778
51
207.4912776
0
ARC
8
DEFAULT_255_1_388
10
6.4325641
20
13.1544284
40
0.6737692
50
188.6922336
51
205.782076
0
ARC
8
DEFAULT_255_1_388
10
6.6414
20
13.1899455
40
0.8855812
50
180.3881972
51
188.9218085
0
ARC
8
DEFAULT_255_1_388
10
6.7795157
20
13.3050622
40
1.0236965
50
170.2024645
51
180.3561986
0
ARC
8
DEFAULT_255_1_388
10
6.4236307
20
13.3687101
40
0.6621746
50
154.2856519
51
170.3893388
0
ARC
8
DEFAULT_255_1_388
10
6.2794271
20
13.4347192
40
0.5036209
50
139.8400879
51
153.9334639
0
ARC
8
DEFAULT_255_1_388
10
6.2390175
20
13.4670716
40
0.4518751
50
98.4190017
51
139.6707015
0
ARC
8
DEFAULT_255_1_388
10
6.2817142
20
13.2594755
40
0.6635912
50
89.7660128
51
99.4415389
0
ARC
8
DEFAULT_255_1_388
10
6.2890539
20
13.2668517
40
0.6562258
50
78.0552044
51
90.4042252
0
ARC
8
DEFAULT_255_1_388
10
6.3345602
20
13.4714661
40
0.4466287
50
54.6380186
51
78.3338577
0
ARC
8
DEFAULT_255_1_388
10
6.3559901
20
13.5075444
40
0.4048184
50
50.0313964
51
54.1562739
0
ARC
8
DEFAULT_255_1_388
10
6.3438794
20
13.4966798
40
0.4209308
50
18.1092229
51
49.7179911
0
ARC
8
DEFAULT_255_1_388
10
6.1799875
20
13.4366399
40
0.5953982
50
7.967396
51
18.698492
0
ARC
8
DEFAULT_255_1_388
10
6.1969136
20
13.4505236
40
0.4050986
50
9.7558763
51
27.3214087
0
ARC
8
DEFAULT_255_1_388
10
6.32376
20
13.5139087
40
0.2633168
50
27.736147
51
84.5257861
0
ARC
8
DEFAULT_255_1_388
10
6.286901
20
13.3289988
40
0.4513019
50
82.1064239
51
90.1997295
0
ARC
8
DEFAULT_255_1_388
10
6.2813026
20
13.3861501
40
0.3941684
50
89.4148952
51
105.5824837
0
ARC
8
DEFAULT_255_1_388
10
6.2523907
20
13.4914043
40
0.2850167
50
105.6678541
51
144.2649156
0
ARC
8
DEFAULT_255_1_388
10
6.3528799
20
13.4199024
40
0.4083468
50
144.3560675
51
162.8564185
0
ARC
8
DEFAULT_255_1_388
10
6.5873242
20
13.3446083
40
0.6545749
50
162.6076338
51
173.6779811
0
ARC
8
DEFAULT_255_1_388
10
6.9317357
20
13.3027422
40
1.0015089
50
173.4670996
51
179.9729015
0
ARC
8
DEFAULT_255_1_388
10
6.7170228
20
13.1909636
40
0.78681
50
179.6556955
51
190.007958
0
ARC
8
DEFAULT_255_1_388
10
6.4564509
20
13.143166
40
0.5218997
50
189.8117884
51
206.6795375
0
ARC
8
DEFAULT_255_1_388
10
6.3613955
20
13.0988514
40
0.4170788
50
207.1031171
51
217.7074698
0
ARC
8
DEFAULT_255_1_388
10
6.2900386
20
13.0367596
40
0.3226945
50
216.7345117
51
265.6812141
0
ARC
8
DEFAULT_255_1_388
10
6.3047528
20
13.138503
40
0.4253149
50
264.7367524
51
270.0610826
0
ARC
8
DEFAULT_255_1_388
10
6.3073713
20
13.4580173
40
0.7448321
50
269.8334494
51
276.0538364
0
ARC
8
DEFAULT_255_1_388
10
6.3306576
20
13.2440924
40
0.5296446
50
275.9894423
51
284.4615914
0
ARC
8
DEFAULT_255_1_388
10
6.3528089
20
13.150857
40
0.4338353
50
284.7038488
51
286.4938196
0
ARC
8
DEFAULT_255_1_388
10
6.3987238
20
13.0029371
40
0.2789738
50
286.0770429
51
304.2629628
0
ARC
8
DEFAULT_255_1_388
10
6.4137396
20
12.978368
40
0.2502188
50
304.5886247
51
317.1074126
0
LINE
8
DEFAULT_255_1_388
10
4.1804367
20
21.8424898
11
4.1804367
21
20.5269
0
LINE
8
DEFAULT_255_1_388
10
4.1804367
20
20.5269
11
4.0069523
21
20.5269
0
LINE
8
DEFAULT_255_1_388
10
4.0069523
20
20.5269
11
4.0069523
21
21.8424898
0
LINE
8
DEFAULT_255_1_388
10
4.0069523
20
21.8424898
11
4.1804367
21
21.8424898
0
ARC
8
DEFAULT_255_1_388
10
4.9345672
20
21.496272
40
0.3175098
50
338.8762533
51
0.5167111
0
ARC
8
DEFAULT_255_1_388
10
4.9535266
20
21.49116
40
0.2979894
50
325.8415285
51
338.4793574
0
ARC
8
DEFAULT_255_1_388
10
4.90959
20
21.5216242
40
0.351452
50
296.7587686
51
325.7536481
0
ARC
8
DEFAULT_255_1_388
10
4.8767527
20
21.5770363
40
0.4157374
50
296.0927901
51
297.3613472
0
ARC
8
DEFAULT_255_1_388
10
4.9061723
20
20.8387593
40
0.395855
50
47.9007294
51
67.1948823
0
ARC
8
DEFAULT_255_1_388
10
4.9282365
20
20.8664599
40
0.360516
50
35.2363914
51
47.551141
0
ARC
8
DEFAULT_255_1_388
10
4.9576769
20
20.8861093
40
0.3251343
50
359.2759765
51
35.4014143
0
ARC
8
DEFAULT_255_1_388
10
4.8738695
20
20.8778787
40
0.4089365
50
343.1293083
51
0.5775513
0
ARC
8
DEFAULT_255_1_388
10
4.9553809
20
20.8554336
40
0.3244269
50
310.8496669
51
342.7449331
0
ARC
8
DEFAULT_255_1_388
10
4.9083683
20
20.9090913
40
0.3957651
50
281.5472888
51
310.9170406
0
ARC
8
DEFAULT_255_1_388
10
4.8682558
20
21.0837814
40
0.5749654
50
269.619248
51
281.9789564
0
ARC
8
DEFAULT_255_1_388
10
4.8601336
20
21.0838776
40
0.5750649
50
257.4585678
51
270.4285689
0
ARC
8
DEFAULT_255_1_388
10
4.8172856
20
20.9034741
40
0.389671
50
228.7554326
51
257.8484789
0
ARC
8
DEFAULT_255_1_388
10
4.7824341
20
20.8615228
40
0.335154
50
184.0104975
51
228.5071184
0
ARC
8
DEFAULT_255_1_388
10
4.9132734
20
20.881443
40
0.4671891
50
179.9315832
51
185.3253753
0
ARC
8
DEFAULT_255_1_388
10
4.7809246
20
20.8856592
40
0.33486
50
145.6796023
51
180.6259786
0
ARC
8
DEFAULT_255_1_388
10
4.7993012
20
20.8728271
40
0.3572723
50
115.5537685
51
145.6415986
0
ARC
8
DEFAULT_255_1_388
10
4.8376056
20
20.8042087
40
0.4357296
50
113.243307
51
116.2057839
0
ARC
8
DEFAULT_255_1_388
10
4.8204708
20
21.5239379
40
0.3549126
50
222.9549744
51
244.1370481
0
ARC
8
DEFAULT_255_1_388
10
4.8067351
20
21.5085378
40
0.3343711
50
213.3436887
51
222.6274467
0
ARC
8
DEFAULT_255_1_388
10
4.785142
20
21.4938653
40
0.3082678
50
180.431584
51
213.271499
0
ARC
8
DEFAULT_255_1_388
10
4.8486419
20
21.4991296
40
0.3718363
50
179.9991191
51
181.1690594
0
ARC
8
DEFAULT_255_1_388
10
4.8958875
20
21.5030072
40
0.4190996
50
164.6186169
51
180.529336
0
ARC
8
DEFAULT_255_1_388
10
4.7948524
20
21.530178
40
0.3144772
50
132.2455553
51
164.5090724
0
ARC
8
DEFAULT_255_1_388
10
4.8271503
20
21.493607
40
0.3632644
50
100.7053914
51
132.1386381
0
ARC
8
DEFAULT_255_1_388
10
4.8614564
20
21.3386118
40
0.5219578
50
89.6730358
51
101.2451698
0
ARC
8
DEFAULT_255_1_388
10
4.8684555
20
21.3582648
40
0.5023124
50
76.287748
51
90.4586006
0
ARC
8
DEFAULT_255_1_388
10
4.9029057
20
21.4957671
40
0.3605639
50
47.8240511
51
76.4266241
0
ARC
8
DEFAULT_255_1_388
10
4.9279441
20
21.5250599
40
0.3220463
50
6.9168387
51
47.6262497
0
ARC
8
DEFAULT_255_1_388
10
4.7944894
20
21.5004004
40
0.4575765
50
359.8415968
51
7.9697453
0
ARC
8
DEFAULT_255_1_388
10
4.8329164
20
20.8883519
40
0.2827228
50
359.445363
51
16.9256873
0
ARC
8
DEFAULT_255_1_388
10
4.8856598
20
20.9028781
40
0.2280396
50
17.2920767
51
45.4630727
0
ARC
8
DEFAULT_255_1_388
10
4.8795733
20
20.8976324
40
0.2360485
50
45.30305
51
83.1920945
0
ARC
8
DEFAULT_255_1_388
10
4.8634478
20
20.8074473
40
0.3275527
50
82.2612665
51
90.1434275
0
ARC
8
DEFAULT_255_1_388
10
4.8599754
20
20.8336869
40
0.3013237
50
89.4956434
51
104.8580688
0
ARC
8
DEFAULT_255_1_388
10
4.8400944
20
20.9090455
40
0.2233867
50
104.8856641
51
135.244616
0
ARC
8
DEFAULT_255_1_388
10
4.8456933
20
20.9040352
40
0.2308906
50
135.3399546
51
172.1044062
0
ARC
8
DEFAULT_255_1_388
10
4.9364457
20
20.8866667
40
0.3232034
50
171.2645637
51
180.186429
0
ARC
8
DEFAULT_255_1_388
10
4.9174462
20
20.8830426
40
0.304213
50
179.5154935
51
193.6464289
0
ARC
8
DEFAULT_255_1_388
10
4.8256138
20
20.8596473
40
0.209456
50
193.3540274
51
225.8258581
0
ARC
8
DEFAULT_255_1_388
10
4.830201
20
20.8676076
40
0.2183738
50
226.4180634
51
255.8552336
0
ARC
8
DEFAULT_255_1_388
10
4.8590477
20
20.9729521
40
0.3275812
50
255.4654104
51
268.7987425
0
ARC
8
DEFAULT_255_1_388
10
4.8643653
20
21.0671545
40
0.4218877
50
268.3449238
51
270.0094605
0
ARC
8
DEFAULT_255_1_388
10
4.8669886
20
20.9903094
40
0.3450519
50
269.5759586
51
282.0820163
0
ARC
8
DEFAULT_255_1_388
10
4.8922923
20
20.8784363
40
0.2303642
50
281.752014
51
306.6056188
0
ARC
8
DEFAULT_255_1_388
10
4.9033731
20
20.8602802
40
0.2091906
50
307.1346085
51
314.027845
0
ARC
8
DEFAULT_255_1_388
10
4.8993243
20
20.8632459
40
0.2141385
50
314.2552483
51
350.1694025
0
ARC
8
DEFAULT_255_1_388
10
4.803548
20
20.8840175
40
0.312082
50
349.4140529
51
0.2933014
0
ARC
8
DEFAULT_255_1_388
10
4.8620757
20
21.4643924
40
0.2588377
50
89.477747
51
105.729729
0
ARC
8
DEFAULT_255_1_388
10
4.8467677
20
21.5212367
40
0.1999733
50
105.9233417
51
135.1660906
0
ARC
8
DEFAULT_255_1_388
10
4.8490708
20
21.5196412
40
0.2027322
50
135.3052302
51
168.9883645
0
ARC
8
DEFAULT_255_1_388
10
4.9421724
20
21.4982996
40
0.2982129
50
168.3801673
51
180.3602268
0
ARC
8
DEFAULT_255_1_388
10
4.9164841
20
21.4940622
40
0.2725291
50
179.5033122
51
194.9125571
0
ARC
8
DEFAULT_255_1_388
10
4.8506248
20
21.4767427
40
0.204431
50
194.9720816
51
224.194444
0
ARC
8
DEFAULT_255_1_388
10
4.8474613
20
21.4741635
40
0.2003651
50
224.2962453
51
262.015664
0
ARC
8
DEFAULT_255_1_388
10
4.8634617
20
21.5564315
40
0.2840925
50
261.1245923
51
270.1962896
0
ARC
8
DEFAULT_255_1_388
10
4.8668098
20
21.5353859
40
0.2630559
50
269.4827276
51
285.0987215
0
ARC
8
DEFAULT_255_1_388
10
4.8841534
20
21.4703175
40
0.1957162
50
285.1585357
51
315.9484501
0
ARC
8
DEFAULT_255_1_388
10
4.8741408
20
21.4795315
40
0.2093195
50
316.0413965
51
351.916092
0
ARC
8
DEFAULT_255_1_388
10
4.7916782
20
21.4954323
40
0.2932279
50
351.105835
51
0.1939062
0
ARC
8
DEFAULT_255_1_388
10
4.8212416
20
21.4988224
40
0.2636739
50
359.4789618
51
16.0678224
0
ARC
8
DEFAULT_255_1_388
10
4.8747888
20
21.5132721
40
0.2082215
50
16.3252067
51
44.7913869
0
ARC
8
DEFAULT_255_1_388
10
4.872795
20
21.513332
40
0.2095992
50
44.3957814
51
88.2499162
0
ARC
8
DEFAULT_255_1_388
10
4.8645285
20
21.4445006
40
0.2787189
50
86.9833854
51
90.0192215
0
LINE
8
DEFAULT_255_1_388
10
5.9893727
20
21.6165987
11
5.9893727
21
21.2325838
0
LINE
8
DEFAULT_255_1_388
10
5.9893727
20
21.2325838
11
6.3562199
21
21.2325838
0
LINE
8
DEFAULT_255_1_388
10
6.3562199
20
21.2325838
11
6.3562199
21
21.0744601
0
LINE
8
DEFAULT_255_1_388
10
6.3562199
20
21.0744601
11
5.9893727
21
21.0744601
0
LINE
8
DEFAULT_255_1_388
10
5.9893727
20
21.0744601
11
5.9893727
21
20.6588204
0
LINE
8
DEFAULT_255_1_388
10
5.9893727
20
20.6588204
11
5.8213097
21
20.6588204
0
LINE
8
DEFAULT_255_1_388
10
5.8213097
20
20.6588204
11
5.8213097
21
21.0744601
0
LINE
8
DEFAULT_255_1_388
10
5.8213097
20
21.0744601
11
5.4544625
21
21.0744601
0
LINE
8
DEFAULT_255_1_388
10
5.4544625
20
21.0744601
11
5.4544625
21
21.2325838
0
LINE
8
DEFAULT_255_1_388
10
5.4544625
20
21.2325838
11
5.8213097
21
21.2325838
0
LINE
8
DEFAULT_255_1_388
10
5.8213097
20
21.2325838
11
5.8213097
21
21.6165987
0
LINE
8
DEFAULT_255_1_388
10
5.8213097
20
21.6165987
11
5.9893727
21
21.6165987
0
LINE
8
DEFAULT_255_1_388
10
4.1804367
20
29.7799898
11
4.1804367
21
28.4644
0
LINE
8
DEFAULT_255_1_388
10
4.1804367
20
28.4644
11
4.0069523
21
28.4644
0
LINE
8
DEFAULT_255_1_388
10
4.0069523
20
28.4644
11
4.0069523
21
29.7799898
0
LINE
8
DEFAULT_255_1_388
10
4.0069523
20
29.7799898
11
4.1804367
21
29.7799898
0
LINE
8
DEFAULT_255_1_388
10
5.3035673
20
29.7799898
11
5.3035673
21
29.6860191
0
LINE
8
DEFAULT_255_1_388
10
5.3035673
20
29.6860191
11
4.7587179
21
28.4644
0
LINE
8
DEFAULT_255_1_388
10
4.7587179
20
28.4644
11
4.5834264
21
28.4644
0
LINE
8
DEFAULT_255_1_388
10
4.5834264
20
28.4644
11
5.1264687
21
29.642648
0
LINE
8
DEFAULT_255_1_388
10
5.1264687
20
29.642648
11
4.4144599
21
29.642648
0
LINE
8
DEFAULT_255_1_388
10
4.4144599
20
29.642648
11
4.4144599
21
29.7799898
0
LINE
8
DEFAULT_255_1_388
10
4.4144599
20
29.7799898
11
5.3035673
21
29.7799898
0
LINE
8
DEFAULT_255_1_388
10
5.9893727
20
29.5540987
11
5.9893727
21
29.1700838
0
LINE
8
DEFAULT_255_1_388
10
5.9893727
20
29.1700838
11
6.3562199
21
29.1700838
0
LINE
8
DEFAULT_255_1_388
10
6.3562199
20
29.1700838
11
6.3562199
21
29.0119601
0
LINE
8
DEFAULT_255_1_388
10
6.3562199
20
29.0119601
11
5.9893727
21
29.0119601
0
LINE
8
DEFAULT_255_1_388
10
5.9893727
20
29.0119601
11
5.9893727
21
28.5963204
0
LINE
8
DEFAULT_255_1_388
10
5.9893727
20
28.5963204
11
5.8213097
21
28.5963204
0
LINE
8
DEFAULT_255_1_388
10
5.8213097
20
28.5963204
11
5.8213097
21
29.0119601
0
LINE
8
DEFAULT_255_1_388
10
5.8213097
20
29.0119601
11
5.4544625
21
29.0119601
0
LINE
8
DEFAULT_255_1_388
10
5.4544625
20
29.0119601
11
5.4544625
21
29.1700838
0
LINE
8
DEFAULT_255_1_388
10
5.4544625
20
29.1700838
11
5.8213097
21
29.1700838
0
LINE
8
DEFAULT_255_1_388
10
5.8213097
20
29.1700838
11
5.8213097
21
29.5540987
0
LINE
8
DEFAULT_255_1_388
10
5.8213097
20
29.5540987
11
5.9893727
21
29.5540987
0
LINE
8
DEFAULT_255_1_388
10
4.2089367
20
37.7174898
11
4.2089367
21
36.4019
0
LINE
8
DEFAULT_255_1_388
10
4.2089367
20
36.4019
11
4.0354523
21
36.4019
0
LINE
8
DEFAULT_255_1_388
10
4.0354523
20
36.4019
11
4.0354523
21
37.7174898
0
LINE
8
DEFAULT_255_1_388
10
4.0354523
20
37.7174898
11
4.2089367
21
37.7174898
0
LINE
8
DEFAULT_255_1_388
10
5.53808
20
37.1003553
11
5.53808
21
37.0172274
0
LINE
8
DEFAULT_255_1_388
10
4.480006
20
37.0054811
11
4.480006
21
37.1003553
0
LINE
8
DEFAULT_255_1_388
10
5.3654992
20
37.0045775
11
5.3654992
21
37.1021625
0
LINE
8
DEFAULT_255_1_388
10
4.6525868
20
37.1139088
11
4.6525868
21
37.0172274
0
ARC
8
DEFAULT_255_1_388
10
4.5658538
20
37.0127726
40
0.9722364
50
350.4878118
51
0.2625322
0
ARC
8
DEFAULT_255_1_388
10
4.8238498
20
36.9683994
40
0.7104556
50
336.0277991
51
350.5787241
0
ARC
8
DEFAULT_255_1_388
10
4.9751605
20
36.9000243
40
0.544417
50
319.887443
51
336.1331163
0
ARC
8
DEFAULT_255_1_388
10
5.0429417
20
36.8457733
40
0.4576311
50
302.4806296
51
319.6144102
0
ARC
8
DEFAULT_255_1_388
10
5.0300038
20
36.8707067
40
0.4856183
50
275.8196423
51
302.1885521
0
ARC
8
DEFAULT_255_1_388
10
5.01129
20
36.9992466
40
0.6154183
50
269.9169897
51
276.339506
0
ARC
8
DEFAULT_255_1_388
10
5.00625
20
36.922068
40
0.5382553
50
252.5221437
51
270.441579
0
ARC
8
DEFAULT_255_1_388
10
4.9900751
20
36.8614046
40
0.4755426
50
237.5349961
51
252.1858334
0
ARC
8
DEFAULT_255_1_388
10
5.0001127
20
36.874212
40
0.4917393
50
209.0632754
51
237.3492577
0
ARC
8
DEFAULT_255_1_388
10
5.0980453
20
36.9357104
40
0.6072464
50
205.118533
51
209.6465345
0
ARC
8
DEFAULT_255_1_388
10
5.1876455
20
36.9737174
40
0.7045164
50
188.7216633
51
204.8239753
0
ARC
8
DEFAULT_255_1_388
10
5.412323
20
37.0115387
40
0.9323368
50
180.3722704
51
188.9253909
0
ARC
8
DEFAULT_255_1_388
10
5.4092792
20
37.1048416
40
0.929284
50
169.5253055
51
180.2766048
0
ARC
8
DEFAULT_255_1_388
10
5.1952591
20
37.1442024
40
0.7116745
50
155.8314601
51
169.5088611
0
ARC
8
DEFAULT_255_1_388
10
5.0512054
20
37.2110312
40
0.5528904
50
139.6259579
51
156.0379072
0
ARC
8
DEFAULT_255_1_388
10
4.9848588
20
37.2644143
40
0.4677708
50
122.6414784
51
139.3431662
0
ARC
8
DEFAULT_255_1_388
10
4.9961842
20
37.2437787
40
0.4912586
50
93.0224537
51
122.4556091
0
ARC
8
DEFAULT_255_1_388
10
5.0083363
20
37.1351776
40
0.6003837
50
89.9756766
51
93.6340839
0
ARC
8
DEFAULT_255_1_388
10
5.0126961
20
37.1800879
40
0.5554884
50
73.7463329
51
90.4234008
0
ARC
8
DEFAULT_255_1_388
10
5.0324434
20
37.2565772
40
0.4765353
50
57.663051
51
73.4516911
0
ARC
8
DEFAULT_255_1_388
10
5.0315472
20
37.2590108
40
0.4749629
50
29.1441355
51
57.4146687
0
ARC
8
DEFAULT_255_1_388
10
4.9263283
20
37.1933046
40
0.5988917
50
24.0985653
51
29.732054
0
ARC
8
DEFAULT_255_1_388
10
4.8100915
20
37.1451154
40
0.7246823
50
8.6654943
51
23.8241215
0
ARC
8
DEFAULT_255_1_388
10
4.5587333
20
37.1041037
40
0.9793537
50
359.7807044
51
8.8218476
0
ARC
8
DEFAULT_255_1_388
10
4.4297038
20
37.1069731
40
0.9358078
50
359.7054632
51
8.0359751
0
ARC
8
DEFAULT_255_1_388
10
4.7672089
20
37.1561252
40
0.5947474
50
7.8926278
51
20.2962188
0
ARC
8
DEFAULT_255_1_388
10
4.9502939
20
37.2236367
40
0.3996117
50
20.3231056
51
36.4990255
0
ARC
8
DEFAULT_255_1_388
10
5.0274237
20
37.2830399
40
0.3022818
50
36.1436715
51
85.6627846
0
ARC
8
DEFAULT_255_1_388
10
5.0091492
20
37.1660881
40
0.4203853
50
84.3845912
51
90.076054
0
ARC
8
DEFAULT_255_1_388
10
5.0043847
20
37.2403416
40
0.346157
50
89.3037228
51
109.9046209
0
ARC
8
DEFAULT_255_1_388
10
4.993968
20
37.2833379
40
0.3022217
50
110.8229774
51
143.917961
0
ARC
8
DEFAULT_255_1_388
10
5.0990039
20
37.2031455
40
0.434348
50
143.5289166
51
163.2980252
0
ARC
8
DEFAULT_255_1_388
10
5.3136326
20
37.1356685
40
0.659321
50
163.0418884
51
174.3139873
0
ARC
8
DEFAULT_255_1_388
10
5.5841291
20
37.1044378
40
0.9315905
50
174.050934
51
179.4174954
0
ARC
8
DEFAULT_255_1_388
10
5.5273235
20
37.0125382
40
0.8747493
50
179.6928582
51
188.7908948
0
ARC
8
DEFAULT_255_1_388
10
5.2277035
20
36.9646086
40
0.5713262
50
188.6328449
51
202.5630732
0
ARC
8
DEFAULT_255_1_388
10
5.0865872
20
36.9079142
40
0.4192612
50
202.8078931
51
216.1195888
0
ARC
8
DEFAULT_255_1_388
10
4.9955389
20
36.8346479
40
0.3025752
50
215.0755613
51
264.6379773
0
ARC
8
DEFAULT_255_1_388
10
5.0098226
20
36.9281376
40
0.3970284
50
263.8464302
51
270.0830805
0
ARC
8
DEFAULT_255_1_388
10
5.0144771
20
36.8990808
40
0.3679937
50
269.3649295
51
287.5149684
0
ARC
8
DEFAULT_255_1_388
10
5.0345212
20
36.8262714
40
0.2925408
50
288.0629019
51
323.8115617
0
ARC
8
DEFAULT_255_1_388
10
4.9365188
20
36.8993754
40
0.4148018
50
323.6546541
51
342.6591359
0
ARC
8
DEFAULT_255_1_388
10
4.7079846
20
36.973728
40
0.6551163
50
342.4092446
51
353.6451501
0
ARC
8
DEFAULT_255_1_388
10
4.3894639
20
37.0133565
40
0.9760748
50
353.4027553
51
359.4846611
0
LINE
8
DEFAULT_255_1_388
10
6.7696383
20
37.0569842
11
6.7696383
21
36.5744808
0
LINE
8
DEFAULT_255_1_388
10
5.755839
20
36.9964454
11
5.755839
21
37.1111981
0
LINE
8
DEFAULT_255_1_388
10
6.7696383
20
37.3316678
11
6.596154
21
37.3316678
0
LINE
8
DEFAULT_255_1_388
10
5.930227
20
37.1157159
11
5.930227
21
37.0081917
0
LINE
8
DEFAULT_255_1_388
10
6.5970575
20
36.6205626
11
6.5970575
21
36.9160282
0
LINE
8
DEFAULT_255_1_388
10
6.5970575
20
36.9160282
11
6.2925563
21
36.9160282
0
LINE
8
DEFAULT_255_1_388
10
6.2925563
20
36.9160282
11
6.2925563
21
37.0569842
0
LINE
8
DEFAULT_255_1_388
10
6.2925563
20
37.0569842
11
6.7696383
21
37.0569842
0
ARC
8
DEFAULT_255_1_388
10
6.4510984
20
36.7987284
40
0.3895571
50
295.8437277
51
324.8549962
0
ARC
8
DEFAULT_255_1_388
10
6.4043366
20
36.8833619
40
0.4861381
50
291.5691164
51
296.4556269
0
ARC
8
DEFAULT_255_1_388
10
6.3468369
20
37.0369801
40
0.6501442
50
278.6622213
51
291.3047061
0
ARC
8
DEFAULT_255_1_388
10
6.3086401
20
37.2786557
40
0.8948168
50
270.0200506
51
278.7494673
0
ARC
8
DEFAULT_255_1_388
10
6.3042605
20
37.4632453
40
1.0794166
50
270.0022372
51
270.2490917
0
ARC
8
DEFAULT_255_1_388
10
6.3000497
20
36.9673827
40
0.5835695
50
253.5785313
51
270.4175629
0
ARC
8
DEFAULT_255_1_388
10
6.2805493
20
36.8918625
40
0.5056241
50
238.8203954
51
253.2788387
0
ARC
8
DEFAULT_255_1_388
10
6.2783409
20
36.8861224
40
0.4995712
50
206.7883476
51
238.696262
0
ARC
8
DEFAULT_255_1_388
10
6.3658805
20
36.9385847
40
0.6014056
50
206.1137778
51
207.4912776
0
ARC
8
DEFAULT_255_1_388
10
6.4325641
20
36.9669284
40
0.6737692
50
188.6922336
51
205.782076
0
ARC
8
DEFAULT_255_1_388
10
6.6414
20
37.0024455
40
0.8855812
50
180.3881972
51
188.9218085
0
ARC
8
DEFAULT_255_1_388
10
6.7795157
20
37.1175622
40
1.0236965
50
170.2024645
51
180.3561986
0
ARC
8
DEFAULT_255_1_388
10
6.4236307
20
37.1812101
40
0.6621746
50
154.2856519
51
170.3893388
0
ARC
8
DEFAULT_255_1_388
10
6.2794271
20
37.2472192
40
0.5036209
50
139.8400879
51
153.9334639
0
ARC
8
DEFAULT_255_1_388
10
6.2390175
20
37.2795716
40
0.4518751
50
98.4190017
51
139.6707015
0
ARC
8
DEFAULT_255_1_388
10
6.2817142
20
37.0719755
40
0.6635912
50
89.7660128
51
99.4415389
0
ARC
8
DEFAULT_255_1_388
10
6.2890539
20
37.0793517
40
0.6562258
50
78.0552044
51
90.4042252
0
ARC
8
DEFAULT_255_1_388
10
6.3345602
20
37.2839661
40
0.4466287
50
54.6380186
51
78.3338577
0
ARC
8
DEFAULT_255_1_388
10
6.3559901
20
37.3200444
40
0.4048184
50
50.0313964
51
54.1562739
0
ARC
8
DEFAULT_255_1_388
10
6.3438794
20
37.3091798
40
0.4209308
50
18.1092229
51
49.7179911
0
ARC
8
DEFAULT_255_1_388
10
6.1799875
20
37.2491399
40
0.5953982
50
7.967396
51
18.698492
0
ARC
8
DEFAULT_255_1_388
10
6.1969136
20
37.2630236
40
0.4050986
50
9.7558763
51
27.3214087
0
ARC
8
DEFAULT_255_1_388
10
6.32376
20
37.3264087
40
0.2633168
50
27.736147
51
84.5257861
0
ARC
8
DEFAULT_255_1_388
10
6.286901
20
37.1414988
40
0.4513019
50
82.1064239
51
90.1997295
0
ARC
8
DEFAULT_255_1_388
10
6.2813026
20
37.1986501
40
0.3941684
50
89.4148952
51
105.5824837
0
ARC
8
DEFAULT_255_1_388
10
6.2523907
20
37.3039043
40
0.2850167
50
105.6678541
51
144.2649156
0
ARC
8
DEFAULT_255_1_388
10
6.3528799
20
37.2324024
40
0.4083468
50
144.3560675
51
162.8564185
0
ARC
8
DEFAULT_255_1_388
10
6.5873242
20
37.1571083
40
0.6545749
50
162.6076338
51
173.6779811
0
ARC
8
DEFAULT_255_1_388
10
6.9317357
20
37.1152422
40
1.0015089
50
173.4670996
51
179.9729015
0
ARC
8
DEFAULT_255_1_388
10
6.7170228
20
37.0034636
40
0.78681
50
179.6556955
51
190.007958
0
ARC
8
DEFAULT_255_1_388
10
6.4564509
20
36.955666
40
0.5218997
50
189.8117884
51
206.6795375
0
ARC
8
DEFAULT_255_1_388
10
6.3613955
20
36.9113514
40
0.4170788
50
207.1031171
51
217.7074698
0
ARC
8
DEFAULT_255_1_388
10
6.2900386
20
36.8492596
40
0.3226945
50
216.7345117
51
265.6812141
0
ARC
8
DEFAULT_255_1_388
10
6.3047528
20
36.951003
40
0.4253149
50
264.7367524
51
270.0610826
0
ARC
8
DEFAULT_255_1_388
10
6.3073713
20
37.2705173
40
0.7448321
50
269.8334494
51
276.0538364
0
ARC
8
DEFAULT_255_1_388
10
6.3306576
20
37.0565924
40
0.5296446
50
275.9894423
51
284.4615914
0
ARC
8
DEFAULT_255_1_388
10
6.3528089
20
36.963357
40
0.4338353
50
284.7038488
51
286.4938196
0
ARC
8
DEFAULT_255_1_388
10
6.3987238
20
36.8154371
40
0.2789738
50
286.0770429
51
304.2629628
0
ARC
8
DEFAULT_255_1_388
10
6.4137396
20
36.790868
40
0.2502188
50
304.5886247
51
317.1074126
0
LINE
8
DEFAULT_255_1_388
10
4.2089367
20
45.6549898
11
4.2089367
21
44.3394
0
LINE
8
DEFAULT_255_1_388
10
4.2089367
20
44.3394
11
4.0354523
21
44.3394
0
LINE
8
DEFAULT_255_1_388
10
4.0354523
20
44.3394
11
4.0354523
21
45.6549898
0
LINE
8
DEFAULT_255_1_388
10
4.0354523
20
45.6549898
11
4.2089367
21
45.6549898
0
LINE
8
DEFAULT_255_1_388
10
5.53808
20
45.0378553
11
5.53808
21
44.9547274
0
LINE
8
DEFAULT_255_1_388
10
4.480006
20
44.9429811
11
4.480006
21
45.0378553
0
LINE
8
DEFAULT_255_1_388
10
5.3654992
20
44.9420775
11
5.3654992
21
45.0396625
0
LINE
8
DEFAULT_255_1_388
10
4.6525868
20
45.0514088
11
4.6525868
21
44.9547274
0
ARC
8
DEFAULT_255_1_388
10
4.5658538
20
44.9502726
40
0.9722364
50
350.4878118
51
0.2625322
0
ARC
8
DEFAULT_255_1_388
10
4.8238498
20
44.9058994
40
0.7104556
50
336.0277991
51
350.5787241
0
ARC
8
DEFAULT_255_1_388
10
4.9751605
20
44.8375243
40
0.544417
50
319.887443
51
336.1331163
0
ARC
8
DEFAULT_255_1_388
10
5.0429417
20
44.7832733
40
0.4576311
50
302.4806296
51
319.6144102
0
ARC
8
DEFAULT_255_1_388
10
5.0300038
20
44.8082067
40
0.4856183
50
275.8196423
51
302.1885521
0
ARC
8
DEFAULT_255_1_388
10
5.01129
20
44.9367466
40
0.6154183
50
269.9169897
51
276.339506
0
ARC
8
DEFAULT_255_1_388
10
5.00625
20
44.859568
40
0.5382553
50
252.5221437
51
270.441579
0
ARC
8
DEFAULT_255_1_388
10
4.9900751
20
44.7989046
40
0.4755426
50
237.5349961
51
252.1858334
0
ARC
8
DEFAULT_255_1_388
10
5.0001127
20
44.811712
40
0.4917393
50
209.0632754
51
237.3492577
0
ARC
8
DEFAULT_255_1_388
10
5.0980453
20
44.8732104
40
0.6072464
50
205.118533
51
209.6465345
0
ARC
8
DEFAULT_255_1_388
10
5.1876455
20
44.9112174
40
0.7045164
50
188.7216633
51
204.8239753
0
ARC
8
DEFAULT_255_1_388
10
5.412323
20
44.9490387
40
0.9323368
50
180.3722704
51
188.9253909
0
ARC
8
DEFAULT_255_1_388
10
5.4092792
20
45.0423416
40
0.929284
50
169.5253055
51
180.2766048
0
ARC
8
DEFAULT_255_1_388
10
5.1952591
20
45.0817024
40
0.7116745
50
155.8314601
51
169.5088611
0
ARC
8
DEFAULT_255_1_388
10
5.0512054
20
45.1485312
40
0.5528904
50
139.6259579
51
156.0379072
0
ARC
8
DEFAULT_255_1_388
10
4.9848588
20
45.2019143
40
0.4677708
50
122.6414784
51
139.3431662
0
ARC
8
DEFAULT_255_1_388
10
4.9961842
20
45.1812787
40
0.4912586
50
93.0224537
51
122.4556091
0
ARC
8
DEFAULT_255_1_388
10
5.0083363
20
45.0726776
40
0.6003837
50
89.9756766
51
93.6340839
0
ARC
8
DEFAULT_255_1_388
10
5.0126961
20
45.1175879
40
0.5554884
50
73.7463329
51
90.4234008
0
ARC
8
DEFAULT_255_1_388
10
5.0324434
20
45.1940772
40
0.4765353
50
57.663051
51
73.4516911
0
ARC
8
DEFAULT_255_1_388
10
5.0315472
20
45.1965108
40
0.4749629
50
29.1441355
51
57.4146687
0
ARC
8
DEFAULT_255_1_388
10
4.9263283
20
45.1308046
40
0.5988917
50
24.0985653
51
29.732054
0
ARC
8
DEFAULT_255_1_388
10
4.8100915
20
45.0826154
40
0.7246823
50
8.6654943
51
23.8241215
0
ARC
8
DEFAULT_255_1_388
10
4.5587333
20
45.0416037
40
0.9793537
50
359.7807044
51
8.8218476
0
ARC
8
DEFAULT_255_1_388
10
4.4297038
20
45.0444731
40
0.9358078
50
359.7054632
51
8.0359751
0
ARC
8
DEFAULT_255_1_388
10
4.7672089
20
45.0936252
40
0.5947474
50
7.8926278
51
20.2962188
0
ARC
8
DEFAULT_255_1_388
10
4.9502939
20
45.1611367
40
0.3996117
50
20.3231056
51
36.4990255
0
ARC
8
DEFAULT_255_1_388
10
5.0274237
20
45.2205399
40
0.3022818
50
36.1436715
51
85.6627846
0
ARC
8
DEFAULT_255_1_388
10
5.0091492
20
45.1035881
40
0.4203853
50
84.3845912
51
90.076054
0
ARC
8
DEFAULT_255_1_388
10
5.0043847
20
45.1778416
40
0.346157
50
89.3037228
51
109.9046209
0
ARC
8
DEFAULT_255_1_388
10
4.993968
20
45.2208379
40
0.3022217
50
110.8229774
51
143.917961
0
ARC
8
DEFAULT_255_1_388
10
5.0990039
20
45.1406455
40
0.434348
50
143.5289166
51
163.2980252
0
ARC
8
DEFAULT_255_1_388
10
5.3136326
20
45.0731685
40
0.659321
50
163.0418884
51
174.3139873
0
ARC
8
DEFAULT_255_1_388
10
5.5841291
20
45.0419378
40
0.9315905
50
174.050934
51
179.4174954
0
ARC
8
DEFAULT_255_1_388
10
5.5273235
20
44.9500382
40
0.8747493
50
179.6928582
51
188.7908948
0
ARC
8
DEFAULT_255_1_388
10
5.2277035
20
44.9021086
40
0.5713262
50
188.6328449
51
202.5630732
0
ARC
8
DEFAULT_255_1_388
10
5.0865872
20
44.8454142
40
0.4192612
50
202.8078931
51
216.1195888
0
ARC
8
DEFAULT_255_1_388
10
4.9955389
20
44.7721479
40
0.3025752
50
215.0755613
51
264.6379773
0
ARC
8
DEFAULT_255_1_388
10
5.0098226
20
44.8656376
40
0.3970284
50
263.8464302
51
270.0830805
0
ARC
8
DEFAULT_255_1_388
10
5.0144771
20
44.8365808
40
0.3679937
50
269.3649295
51
287.5149684
0
ARC
8
DEFAULT_255_1_388
10
5.0345212
20
44.7637714
40
0.2925408
50
288.0629019
51
323.8115617
0
ARC
8
DEFAULT_255_1_388
10
4.9365188
20
44.8368754
40
0.4148018
50
323.6546541
51
342.6591359
0
ARC
8
DEFAULT_255_1_388
10
4.7079846
20
44.911228
40
0.6551163
50
342.4092446
51
353.6451501
0
ARC
8
DEFAULT_255_1_388
10
4.3894639
20
44.9508565
40
0.9760748
50
353.4027553
51
359.4846611
0
LINE
8
DEFAULT_255_1_388
10
6.7696383
20
44.9944842
11
6.7696383
21
44.5119808
0
LINE
8
DEFAULT_255_1_388
10
5.755839
20
44.9339454
11
5.755839
21
45.0486981
0
LINE
8
DEFAULT_255_1_388
10
6.7696383
20
45.2691678
11
6.596154
21
45.2691678
0
LINE
8
DEFAULT_255_1_388
10
5.930227
20
45.0532159
11
5.930227
21
44.9456917
0
LINE
8
DEFAULT_255_1_388
10
6.5970575
20
44.5580626
11
6.5970575
21
44.8535282
0
LINE
8
DEFAULT_255_1_388
10
6.5970575
20
44.8535282
11
6.2925563
21
44.8535282
0
LINE
8
DEFAULT_255_1_388
10
6.2925563
20
44.8535282
11
6.2925563
21
44.9944842
0
LINE
8
DEFAULT_255_1_388
10
6.2925563
20
44.9944842
11
6.7696383
21
44.9944842
0
ARC
8
DEFAULT_255_1_388
10
6.4510984
20
44.7362284
40
0.3895571
50
295.8437277
51
324.8549962
0
ARC
8
DEFAULT_255_1_388
10
6.4043366
20
44.8208619
40
0.4861381
50
291.5691164
51
296.4556269
0
ARC
8
DEFAULT_255_1_388
10
6.3468369
20
44.9744801
40
0.6501442
50
278.6622213
51
291.3047061
0
ARC
8
DEFAULT_255_1_388
10
6.3086401
20
45.2161557
40
0.8948168
50
270.0200506
51
278.7494673
0
ARC
8
DEFAULT_255_1_388
10
6.3042605
20
45.4007453
40
1.0794166
50
270.0022372
51
270.2490917
0
ARC
8
DEFAULT_255_1_388
10
6.3000497
20
44.9048827
40
0.5835695
50
253.5785313
51
270.4175629
0
ARC
8
DEFAULT_255_1_388
10
6.2805493
20
44.8293625
40
0.5056241
50
238.8203954
51
253.2788387
0
ARC
8
DEFAULT_255_1_388
10
6.2783409
20
44.8236224
40
0.4995712
50
206.7883476
51
238.696262
0
ARC
8
DEFAULT_255_1_388
10
6.3658805
20
44.8760847
40
0.6014056
50
206.1137778
51
207.4912776
0
ARC
8
DEFAULT_255_1_388
10
6.4325641
20
44.9044284
40
0.6737692
50
188.6922336
51
205.782076
0
ARC
8
DEFAULT_255_1_388
10
6.6414
20
44.9399455
40
0.8855812
50
180.3881972
51
188.9218085
0
ARC
8
DEFAULT_255_1_388
10
6.7795157
20
45.0550622
40
1.0236965
50
170.2024645
51
180.3561986
0
ARC
8
DEFAULT_255_1_388
10
6.4236307
20
45.1187101
40
0.6621746
50
154.2856519
51
170.3893388
0
ARC
8
DEFAULT_255_1_388
10
6.2794271
20
45.1847192
40
0.5036209
50
139.8400879
51
153.9334639
0
ARC
8
DEFAULT_255_1_388
10
6.2390175
20
45.2170716
40
0.4518751
50
98.4190017
51
139.6707015
0
ARC
8
DEFAULT_255_1_388
10
6.2817142
20
45.0094755
40
0.6635912
50
89.7660128
51
99.4415389
0
ARC
8
DEFAULT_255_1_388
10
6.2890539
20
45.0168517
40
0.6562258
50
78.0552044
51
90.4042252
0
ARC
8
DEFAULT_255_1_388
10
6.3345602
20
45.2214661
40
0.4466287
50
54.6380186
51
78.3338577
0
ARC
8
DEFAULT_255_1_388
10
6.3559901
20
45.2575444
40
0.4048184
50
50.0313964
51
54.1562739
0
ARC
8
DEFAULT_255_1_388
10
6.3438794
20
45.2466798
40
0.4209308
50
18.1092229
51
49.7179911
0
ARC
8
DEFAULT_255_1_388
10
6.1799875
20
45.1866399
40
0.5953982
50
7.967396
51
18.698492
0
ARC
8
DEFAULT_255_1_388
10
6.1969136
20
45.2005236
40
0.4050986
50
9.7558763
51
27.3214087
0
ARC
8
DEFAULT_255_1_388
10
6.32376
20
45.2639087
40
0.2633168
50
27.736147
51
84.5257861
0
ARC
8
DEFAULT_255_1_388
10
6.286901
20
45.0789988
40
0.4513019
50
82.1064239
51
90.1997295
0
ARC
8
DEFAULT_255_1_388
10
6.2813026
20
45.1361501
40
0.3941684
50
89.4148952
51
105.5824837
0
ARC
8
DEFAULT_255_1_388
10
6.2523907
20
45.2414043
40
0.2850167
50
105.6678541
51
144.2649156
0
ARC
8
DEFAULT_255_1_388
10
6.3528799
20
45.1699024
40
0.4083468
50
144.3560675
51
162.8564185
0
ARC
8
DEFAULT_255_1_388
10
6.5873242
20
45.0946083
40
0.6545749
50
162.6076338
51
173.6779811
0
ARC
8
DEFAULT_255_1_388
10
6.9317357
20
45.0527422
40
1.0015089
50
173.4670996
51
179.9729015
0
ARC
8
DEFAULT_255_1_388
10
6.7170228
20
44.9409636
40
0.78681
50
179.6556955
51
190.007958
0
ARC
8
DEFAULT_255_1_388
10
6.4564509
20
44.893166
40
0.5218997
50
189.8117884
51
206.6795375
0
ARC
8
DEFAULT_255_1_388
10
6.3613955
20
44.8488514
40
0.4170788
50
207.1031171
51
217.7074698
0
ARC
8
DEFAULT_255_1_388
10
6.2900386
20
44.7867596
40
0.3226945
50
216.7345117
51
265.6812141
0
ARC
8
DEFAULT_255_1_388
10
6.3047528
20
44.888503
40
0.4253149
50
264.7367524
51
270.0610826
0
ARC
8
DEFAULT_255_1_388
10
6.3073713
20
45.2080173
40
0.7448321
50
269.8334494
51
276.0538364
0
ARC
8
DEFAULT_255_1_388
10
6.3306576
20
44.9940924
40
0.5296446
50
275.9894423
51
284.4615914
0
ARC
8
DEFAULT_255_1_388
10
6.3528089
20
44.900857
40
0.4338353
50
284.7038488
51
286.4938196
0
ARC
8
DEFAULT_255_1_388
10
6.3987238
20
44.7529371
40
0.2789738
50
286.0770429
51
304.2629628
0
ARC
8
DEFAULT_255_1_388
10
6.4137396
20
44.728368
40
0.2502188
50
304.5886247
51
317.1074126
0
LINE
8
DEFAULT_255_1_388
10
4.1804367
20
53.5924898
11
4.1804367
21
52.2769
0
LINE
8
DEFAULT_255_1_388
10
4.1804367
20
52.2769
11
4.0069523
21
52.2769
0
LINE
8
DEFAULT_255_1_388
10
4.0069523
20
52.2769
11
4.0069523
21
53.5924898
0
LINE
8
DEFAULT_255_1_388
10
4.0069523
20
53.5924898
11
4.1804367
21
53.5924898
0
LINE
8
DEFAULT_255_1_388
10
5.0803869
20
53.5933934
11
5.1102045
21
53.5933934
0
LINE
8
DEFAULT_255_1_388
10
5.1102045
20
53.5933934
11
5.1102045
21
53.4515338
0
LINE
8
DEFAULT_255_1_388
10
5.1102045
20
53.4515338
11
5.0794833
21
53.4515338
0
LINE
8
DEFAULT_255_1_388
10
4.4641559
20
52.7774747
11
4.4641559
21
52.8416278
0
LINE
8
DEFAULT_255_1_388
10
4.6322189
20
52.8199422
11
4.6322189
21
52.7584999
0
ARC
8
DEFAULT_255_1_388
10
5.0853725
20
52.8892826
40
0.562282
50
90.6001079
51
104.5146616
0
ARC
8
DEFAULT_255_1_388
10
5.0416684
20
53.05181
40
0.3939917
50
104.2855758
51
133.8630124
0
ARC
8
DEFAULT_255_1_388
10
5.0600937
20
53.0396243
40
0.4155734
50
134.5304124
51
161.6210222
0
ARC
8
DEFAULT_255_1_388
10
5.2460869
20
52.9740421
40
0.6127682
50
161.2850533
51
174.2074364
0
ARC
8
DEFAULT_255_1_388
10
5.4050436
20
52.9521437
40
0.7731446
50
173.7817938
51
174.9251711
0
ARC
8
DEFAULT_255_1_388
10
4.8924629
20
52.796627
40
0.3412588
50
95.8332067
51
138.995412
0
ARC
8
DEFAULT_255_1_388
10
4.917591
20
52.6527695
40
0.4870358
50
89.8755506
51
97.0540979
0
ARC
8
DEFAULT_255_1_388
10
4.9229299
20
52.7467841
40
0.3930432
50
71.6407016
51
90.6240821
0
ARC
8
DEFAULT_255_1_388
10
4.9398692
20
52.8091433
40
0.3285421
50
39.6368051
51
71.0190743
0
ARC
8
DEFAULT_255_1_388
10
4.86826
20
52.7472586
40
0.4231706
50
10.6588054
51
39.9044509
0
ARC
8
DEFAULT_255_1_388
10
4.6941145
20
52.7094223
40
0.60133
50
359.6827842
51
11.1326896
0
ARC
8
DEFAULT_255_1_388
10
4.6896481
20
52.7014715
40
0.6058047
50
347.2485908
51
0.4371098
0
ARC
8
DEFAULT_255_1_388
10
4.8772267
20
52.6563379
40
0.4128987
50
318.1408565
51
347.6118497
0
ARC
8
DEFAULT_255_1_388
10
4.9137863
20
52.6262903
40
0.3656244
50
275.6342406
51
317.824739
0
ARC
8
DEFAULT_255_1_388
10
4.8889384
20
52.7724827
40
0.513655
50
269.8872513
51
276.7916069
0
ARC
8
DEFAULT_255_1_388
10
4.8827577
20
52.6571181
40
0.398323
50
246.9139443
51
270.7436787
0
ARC
8
DEFAULT_255_1_388
10
4.8834773
20
52.6411044
40
0.3839368
50
218.1665534
51
245.8780431
0
ARC
8
DEFAULT_255_1_388
10
4.9824145
20
52.7238903
40
0.5128958
50
191.4115343
51
218.6077624
0
ARC
8
DEFAULT_255_1_388
10
5.2004461
20
52.7727777
40
0.7363054
50
179.6344971
51
191.7836758
0
ARC
8
DEFAULT_255_1_388
10
5.8284336
20
52.8491495
40
1.3642984
50
171.4523743
51
180.3158856
0
ARC
8
DEFAULT_255_1_388
10
5.3340063
20
52.9260895
40
0.8639311
50
157.9802296
51
171.6246761
0
ARC
8
DEFAULT_255_1_388
10
5.0849413
20
53.0254038
40
0.5958004
50
141.4299236
51
157.8541251
0
ARC
8
DEFAULT_255_1_388
10
5.0127497
20
53.0764746
40
0.5075416
50
102.871586
51
140.8564533
0
ARC
8
DEFAULT_255_1_388
10
5.0856049
20
52.8019943
40
0.7914163
50
90.377773
51
103.5868422
0
ARC
8
DEFAULT_255_1_388
10
4.8900571
20
52.7339543
40
0.2667015
50
89.8751238
51
126.2072139
0
ARC
8
DEFAULT_255_1_388
10
4.8952042
20
52.7165847
40
0.2838229
50
124.9742447
51
144.8960197
0
ARC
8
DEFAULT_255_1_388
10
4.8754287
20
52.7326981
40
0.2583845
50
145.2974778
51
160.2660922
0
ARC
8
DEFAULT_255_1_388
10
5.2210775
20
52.7549151
40
0.5888695
50
179.6512124
51
190.285571
0
ARC
8
DEFAULT_255_1_388
10
5.0305255
20
52.7189968
40
0.3949683
50
190.0944895
51
207.5099647
0
ARC
8
DEFAULT_255_1_388
10
4.9668836
20
52.6887177
40
0.3245464
50
207.9585471
51
216.325377
0
ARC
8
DEFAULT_255_1_388
10
4.9286473
20
52.6572712
40
0.2751259
50
215.7661336
51
232.5457193
0
ARC
8
DEFAULT_255_1_388
10
4.8855589
20
52.6025273
40
0.2054668
50
232.8005815
51
270.6605497
0
ARC
8
DEFAULT_255_1_388
10
4.8907014
20
52.6434853
40
0.2464268
50
269.3550767
51
288.474612
0
ARC
8
DEFAULT_255_1_388
10
4.9011521
20
52.6041721
40
0.2058436
50
289.1831976
51
322.9685307
0
ARC
8
DEFAULT_255_1_388
10
4.8323622
20
52.6584279
40
0.2934408
50
322.6007085
51
346.5183319
0
ARC
8
DEFAULT_255_1_388
10
4.7021378
20
52.6916434
40
0.4278249
50
346.2584622
51
358.7739592
0
ARC
8
DEFAULT_255_1_388
10
4.5869954
20
52.6978829
40
0.5430876
50
358.3757628
51
0.0082477
0
ARC
8
DEFAULT_255_1_388
10
4.6726772
20
52.7009856
40
0.4574157
50
359.6211417
51
11.28403
0
ARC
8
DEFAULT_255_1_388
10
4.8163378
20
52.7309535
40
0.3106708
50
11.0483152
51
31.8145585
0
ARC
8
DEFAULT_255_1_388
10
4.8511084
20
52.7498045
40
0.2711963
50
32.3028554
51
38.0820598
0
ARC
8
DEFAULT_255_1_388
10
4.8984316
20
52.7926717
40
0.2075566
50
36.8249851
51
85.741667
0
ARC
8
DEFAULT_255_1_388
10
4.8908729
20
52.7363065
40
0.2643487
50
85.0150021
51
90.050843
0
LINE
8
DEFAULT_255_1_388
10
5.9893727
20
53.3665987
11
5.9893727
21
52.9825838
0
LINE
8
DEFAULT_255_1_388
10
5.9893727
20
52.9825838
11
6.3562199
21
52.9825838
0
LINE
8
DEFAULT_255_1_388
10
6.3562199
20
52.9825838
11
6.3562199
21
52.8244601
0
LINE
8
DEFAULT_255_1_388
10
6.3562199
20
52.8244601
11
5.9893727
21
52.8244601
0
LINE
8
DEFAULT_255_1_388
10
5.9893727
20
52.8244601
11
5.9893727
21
52.4088204
0
LINE
8
DEFAULT_255_1_388
10
5.9893727
20
52.4088204
11
5.8213097
21
52.4088204
0
LINE
8
DEFAULT_255_1_388
10
5.8213097
20
52.4088204
11
5.8213097
21
52.8244601
0
LINE
8
DEFAULT_255_1_388
10
5.8213097
20
52.8244601
11
5.4544625
21
52.8244601
0
LINE
8
DEFAULT_255_1_388
10
5.4544625
20
52.8244601
11
5.4544625
21
52.9825838
0
LINE
8
DEFAULT_255_1_388
10
5.4544625
20
52.9825838
11
5.8213097
21
52.9825838
0
LINE
8
DEFAULT_255_1_388
10
5.8213097
20
52.9825838
11
5.8213097
21
53.3665987
0
LINE
8
DEFAULT_255_1_388
10
5.8213097
20
53.3665987
11
5.9893727
21
53.3665987
0
LINE
8
DEFAULT_255_1_388
10
4.1804367
20
61.5299898
11
4.1804367
21
60.2144
0
LINE
8
DEFAULT_255_1_388
10
4.1804367
20
60.2144
11
4.0069523
21
60.2144
0
LINE
8
DEFAULT_255_1_388
10
4.0069523
20
60.2144
11
4.0069523
21
61.5299898
0
LINE
8
DEFAULT_255_1_388
10
4.0069523
20
61.5299898
11
4.1804367
21
61.5299898
0
LINE
8
DEFAULT_255_1_388
10
4.6647472
20
60.8396666
11
4.5310197
21
60.8740021
0
LINE
8
DEFAULT_255_1_388
10
4.5310197
20
60.8740021
11
4.5978834
21
61.5299898
0
LINE
8
DEFAULT_255_1_388
10
4.5978834
20
61.5299898
11
5.2719425
21
61.5299898
0
LINE
8
DEFAULT_255_1_388
10
5.2719425
20
61.5299898
11
5.2719425
21
61.3754803
0
LINE
8
DEFAULT_255_1_388
10
5.2719425
20
61.3754803
11
4.7397431
21
61.3754803
0
LINE
8
DEFAULT_255_1_388
10
4.7397431
20
61.3754803
11
4.6999862
21
61.0167652
0
LINE
8
DEFAULT_255_1_388
10
4.4840343
20
60.5604652
11
4.6421581
21
60.5604652
0
LINE
8
DEFAULT_255_1_388
10
4.7090219
20
60.8758092
11
4.6647472
21
60.8396666
0
ARC
8
DEFAULT_255_1_388
10
4.9086476
20
60.6590241
40
0.4141476
50
93.7181681
51
120.253934
0
ARC
8
DEFAULT_255_1_388
10
4.9192528
20
60.5681284
40
0.5055616
50
89.9660471
51
94.2495185
0
ARC
8
DEFAULT_255_1_388
10
4.923835
20
60.6344154
40
0.4392953
50
73.8045384
51
90.5585736
0
ARC
8
DEFAULT_255_1_388
10
4.9502608
20
60.730952
40
0.3392225
50
41.3071072
51
73.543002
0
ARC
8
DEFAULT_255_1_388
10
4.9034428
20
60.6906461
40
0.4009977
50
13.5075837
51
41.2174839
0
ARC
8
DEFAULT_255_1_388
10
4.7187525
20
60.6422907
40
0.5918864
50
1.1330171
51
13.8830737
0
ARC
8
DEFAULT_255_1_388
10
4.5591171
20
60.6337522
40
0.7516787
50
359.9925091
51
1.5431298
0
ARC
8
DEFAULT_255_1_388
10
4.7035786
20
60.6291027
40
0.6072343
50
347.8572712
51
0.4294349
0
ARC
8
DEFAULT_255_1_388
10
4.900492
20
60.5844898
40
0.4053482
50
323.6727442
51
348.1674594
0
ARC
8
DEFAULT_255_1_388
10
4.9335885
20
60.5643175
40
0.3667495
50
316.8171818
51
323.1486802
0
ARC
8
DEFAULT_255_1_388
10
4.9405009
20
60.5601612
40
0.358869
50
281.839603
51
316.5458142
0
ARC
8
DEFAULT_255_1_388
10
4.8982296
20
60.7351363
40
0.5388223
50
269.5770964
51
282.4214641
0
ARC
8
DEFAULT_255_1_388
10
4.8902217
20
60.711093
40
0.5147801
50
256.2425863
51
270.4486481
0
ARC
8
DEFAULT_255_1_388
10
4.8565745
20
60.5761124
40
0.3756708
50
228.9024379
51
256.33135
0
ARC
8
DEFAULT_255_1_388
10
4.8482725
20
60.5630054
40
0.360344
50
193.7536029
51
228.5272638
0
ARC
8
DEFAULT_255_1_388
10
4.987529
20
60.6038463
40
0.5053599
50
184.9244437
51
194.4976052
0
ARC
8
DEFAULT_255_1_388
10
5.0091931
20
60.6078722
40
0.3700839
50
187.3596909
51
198.6733728
0
ARC
8
DEFAULT_255_1_388
10
4.8911175
20
60.5669373
40
0.2451195
50
198.4453795
51
217.7945479
0
ARC
8
DEFAULT_255_1_388
10
4.8578347
20
60.5433563
40
0.2043754
50
218.2887146
51
228.5613203
0
ARC
8
DEFAULT_255_1_388
10
4.8688354
20
60.5581902
40
0.2227819
50
228.9652423
51
258.1237049
0
ARC
8
DEFAULT_255_1_388
10
4.8919791
20
60.6572964
40
0.3245374
50
257.7260585
51
270.4013717
0
ARC
8
DEFAULT_255_1_388
10
4.8970289
20
60.6072255
40
0.2744726
50
269.4204315
51
286.420998
0
ARC
8
DEFAULT_255_1_388
10
4.9137345
20
60.5465705
40
0.2115721
50
286.7250065
51
320.6004665
0
ARC
8
DEFAULT_255_1_388
10
4.8706261
20
60.5815527
40
0.2670878
50
320.6712228
51
344.5440474
0
ARC
8
DEFAULT_255_1_388
10
4.7404974
20
60.6197394
40
0.4026927
50
344.241448
51
356.735803
0
ARC
8
DEFAULT_255_1_388
10
4.6001282
20
60.6313656
40
0.5435085
50
356.3547471
51
0.0507222
0
ARC
8
DEFAULT_255_1_388
10
4.7503547
20
60.6348812
40
0.3932934
50
359.5579289
51
12.9534322
0
ARC
8
DEFAULT_255_1_388
10
4.8690387
20
60.6636586
40
0.2711827
50
12.6489751
51
41.608121
0
ARC
8
DEFAULT_255_1_388
10
4.8949547
20
60.6856946
40
0.2371737
50
41.7851122
51
85.9892156
0
ARC
8
DEFAULT_255_1_388
10
4.8810857
20
60.5941738
40
0.3295244
50
84.6965848
51
90.0672125
0
ARC
8
DEFAULT_255_1_388
10
4.8784424
20
60.5190118
40
0.4046926
50
89.6804991
51
99.161352
0
ARC
8
DEFAULT_255_1_388
10
4.8553433
20
60.6570848
40
0.2647044
50
98.9836248
51
113.8905702
0
ARC
8
DEFAULT_255_1_388
10
4.8295108
20
60.7180118
40
0.1985386
50
114.195234
51
127.3641866
0
LINE
8
DEFAULT_255_1_388
10
5.9893727
20
61.3040987
11
5.9893727
21
60.9200838
0
LINE
8
DEFAULT_255_1_388
10
5.9893727
20
60.9200838
11
6.3562199
21
60.9200838
0
LINE
8
DEFAULT_255_1_388
10
6.3562199
20
60.9200838
11
6.3562199
21
60.7619601
0
LINE
8
DEFAULT_255_1_388
10
6.3562199
20
60.7619601
11
5.9893727
21
60.7619601
0
LINE
8
DEFAULT_255_1_388
10
5.9893727
20
60.7619601
11
5.9893727
21
60.3463204
0
LINE
8
DEFAULT_255_1_388
10
5.9893727
20
60.3463204
11
5.8213097
21
60.3463204
0
LINE
8
DEFAULT_255_1_388
10
5.8213097
20
60.3463204
11
5.8213097
21
60.7619601
0
LINE
8
DEFAULT_255_1_388
10
5.8213097
20
60.7619601
11
5.4544625
21
60.7619601
0
LINE
8
DEFAULT_255_1_388
10
5.4544625
20
60.7619601
11
5.4544625
21
60.9200838
0
LINE
8
DEFAULT_255_1_388
10
5.4544625
20
60.9200838
11
5.8213097
21
60.9200838
0
LINE
8
DEFAULT_255_1_388
10
5.8213097
20
60.9200838
11
5.8213097
21
61.3040987
0
LINE
8
DEFAULT_255_1_388
10
5.8213097
20
61.3040987
11
5.9893727
21
61.3040987
0
LINE
8
DEFAULT_255_1_388
10
4.2089367
20
69.4674898
11
4.2089367
21
68.1519
0
LINE
8
DEFAULT_255_1_388
10
4.2089367
20
68.1519
11
4.0354523
21
68.1519
0
LINE
8
DEFAULT_255_1_388
10
4.0354523
20
68.1519
11
4.0354523
21
69.4674898
0
LINE
8
DEFAULT_255_1_388
10
4.0354523
20
69.4674898
11
4.2089367
21
69.4674898
0
LINE
8
DEFAULT_255_1_388
10
5.53808
20
68.8503553
11
5.53808
21
68.7672274
0
LINE
8
DEFAULT_255_1_388
10
4.480006
20
68.7554811
11
4.480006
21
68.8503553
0
LINE
8
DEFAULT_255_1_388
10
5.3654992
20
68.7545775
11
5.3654992
21
68.8521625
0
LINE
8
DEFAULT_255_1_388
10
4.6525868
20
68.8639088
11
4.6525868
21
68.7672274
0
ARC
8
DEFAULT_255_1_388
10
4.5658538
20
68.7627726
40
0.9722364
50
350.4878118
51
0.2625322
0
ARC
8
DEFAULT_255_1_388
10
4.8238498
20
68.7183994
40
0.7104556
50
336.0277991
51
350.5787241
0
ARC
8
DEFAULT_255_1_388
10
4.9751605
20
68.6500243
40
0.544417
50
319.887443
51
336.1331163
0
ARC
8
DEFAULT_255_1_388
10
5.0429417
20
68.5957733
40
0.4576311
50
302.4806296
51
319.6144102
0
ARC
8
DEFAULT_255_1_388
10
5.0300038
20
68.6207067
40
0.4856183
50
275.8196423
51
302.1885521
0
ARC
8
DEFAULT_255_1_388
10
5.01129
20
68.7492466
40
0.6154183
50
269.9169897
51
276.339506
0
ARC
8
DEFAULT_255_1_388
10
5.00625
20
68.672068
40
0.5382553
50
252.5221437
51
270.441579
0
ARC
8
DEFAULT_255_1_388
10
4.9900751
20
68.6114046
40
0.4755426
50
237.5349961
51
252.1858334
0
ARC
8
DEFAULT_255_1_388
10
5.0001127
20
68.624212
40
0.4917393
50
209.0632754
51
237.3492577
0
ARC
8
DEFAULT_255_1_388
10
5.0980453
20
68.6857104
40
0.6072464
50
205.118533
51
209.6465345
0
ARC
8
DEFAULT_255_1_388
10
5.1876455
20
68.7237174
40
0.7045164
50
188.7216633
51
204.8239753
0
ARC
8
DEFAULT_255_1_388
10
5.412323
20
68.7615387
40
0.9323368
50
180.3722704
51
188.9253909
0
ARC
8
DEFAULT_255_1_388
10
5.4092792
20
68.8548416
40
0.929284
50
169.5253055
51
180.2766048
0
ARC
8
DEFAULT_255_1_388
10
5.1952591
20
68.8942024
40
0.7116745
50
155.8314601
51
169.5088611
0
ARC
8
DEFAULT_255_1_388
10
5.0512054
20
68.9610312
40
0.5528904
50
139.6259579
51
156.0379072
0
ARC
8
DEFAULT_255_1_388
10
4.9848588
20
69.0144143
40
0.4677708
50
122.6414784
51
139.3431662
0
ARC
8
DEFAULT_255_1_388
10
4.9961842
20
68.9937787
40
0.4912586
50
93.0224537
51
122.4556091
0
ARC
8
DEFAULT_255_1_388
10
5.0083363
20
68.8851776
40
0.6003837
50
89.9756766
51
93.6340839
0
ARC
8
DEFAULT_255_1_388
10
5.0126961
20
68.9300879
40
0.5554884
50
73.7463329
51
90.4234008
0
ARC
8
DEFAULT_255_1_388
10
5.0324434
20
69.0065772
40
0.4765353
50
57.663051
51
73.4516911
0
ARC
8
DEFAULT_255_1_388
10
5.0315472
20
69.0090108
40
0.4749629
50
29.1441355
51
57.4146687
0
ARC
8
DEFAULT_255_1_388
10
4.9263283
20
68.9433046
40
0.5988917
50
24.0985653
51
29.732054
0
ARC
8
DEFAULT_255_1_388
10
4.8100915
20
68.8951154
40
0.7246823
50
8.6654943
51
23.8241215
0
ARC
8
DEFAULT_255_1_388
10
4.5587333
20
68.8541037
40
0.9793537
50
359.7807044
51
8.8218476
0
ARC
8
DEFAULT_255_1_388
10
4.4297038
20
68.8569731
40
0.9358078
50
359.7054632
51
8.0359751
0
ARC
8
DEFAULT_255_1_388
10
4.7672089
20
68.9061252
40
0.5947474
50
7.8926278
51
20.2962188
0
ARC
8
DEFAULT_255_1_388
10
4.9502939
20
68.9736367
40
0.3996117
50
20.3231056
51
36.4990255
0
ARC
8
DEFAULT_255_1_388
10
5.0274237
20
69.0330399
40
0.3022818
50
36.1436715
51
85.6627846
0
ARC
8
DEFAULT_255_1_388
10
5.0091492
20
68.9160881
40
0.4203853
50
84.3845912
51
90.076054
0
ARC
8
DEFAULT_255_1_388
10
5.0043847
20
68.9903416
40
0.346157
50
89.3037228
51
109.9046209
0
ARC
8
DEFAULT_255_1_388
10
4.993968
20
69.0333379
40
0.3022217
50
110.8229774
51
143.917961
0
ARC
8
DEFAULT_255_1_388
10
5.0990039
20
68.9531455
40
0.434348
50
143.5289166
51
163.2980252
0
ARC
8
DEFAULT_255_1_388
10
5.3136326
20
68.8856685
40
0.659321
50
163.0418884
51
174.3139873
0
ARC
8
DEFAULT_255_1_388
10
5.5841291
20
68.8544378
40
0.9315905
50
174.050934
51
179.4174954
0
ARC
8
DEFAULT_255_1_388
10
5.5273235
20
68.7625382
40
0.8747493
50
179.6928582
51
188.7908948
0
ARC
8
DEFAULT_255_1_388
10
5.2277035
20
68.7146086
40
0.5713262
50
188.6328449
51
202.5630732
0
ARC
8
DEFAULT_255_1_388
10
5.0865872
20
68.6579142
40
0.4192612
50
202.8078931
51
216.1195888
0
ARC
8
DEFAULT_255_1_388
10
4.9955389
20
68.5846479
40
0.3025752
50
215.0755613
51
264.6379773
0
ARC
8
DEFAULT_255_1_388
10
5.0098226
20
68.6781376
40
0.3970284
50
263.8464302
51
270.0830805
0
ARC
8
DEFAULT_255_1_388
10
5.0144771
20
68.6490808
40
0.3679937
50
269.3649295
51
287.5149684
0
ARC
8
DEFAULT_255_1_388
10
5.0345212
20
68.5762714
40
0.2925408
50
288.0629019
51
323.8115617
0
ARC
8
DEFAULT_255_1_388
10
4.9365188
20
68.6493754
40
0.4148018
50
323.6546541
51
342.6591359
0
ARC
8
DEFAULT_255_1_388
10
4.7079846
20
68.723728
40
0.6551163
50
342.4092446
51
353.6451501
0
ARC
8
DEFAULT_255_1_388
10
4.3894639
20
68.7633565
40
0.9760748
50
353.4027553
51
359.4846611
0
LINE
8
DEFAULT_255_1_388
10
6.7696383
20
68.8069842
11
6.7696383
21
68.3244808
0
LINE
8
DEFAULT_255_1_388
10
5.755839
20
68.7464454
11
5.755839
21
68.8611981
0
LINE
8
DEFAULT_255_1_388
10
6.7696383
20
69.0816678
11
6.596154
21
69.0816678
0
LINE
8
DEFAULT_255_1_388
10
5.930227
20
68.8657159
11
5.930227
21
68.7581917
0
LINE
8
DEFAULT_255_1_388
10
6.5970575
20
68.3705626
11
6.5970575
21
68.6660282
0
LINE
8
DEFAULT_255_1_388
10
6.5970575
20
68.6660282
11
6.2925563
21
68.6660282
0
LINE
8
DEFAULT_255_1_388
10
6.2925563
20
68.6660282
11
6.2925563
21
68.8069842
0
LINE
8
DEFAULT_255_1_388
10
6.2925563
20
68.8069842
11
6.7696383
21
68.8069842
0
ARC
8
DEFAULT_255_1_388
10
6.4510984
20
68.5487284
40
0.3895571
50
295.8437277
51
324.8549962
0
ARC
8
DEFAULT_255_1_388
10
6.4043366
20
68.6333619
40
0.4861381
50
291.5691164
51
296.4556269
0
ARC
8
DEFAULT_255_1_388
10
6.3468369
20
68.7869801
40
0.6501442
50
278.6622213
51
291.3047061
0
ARC
8
DEFAULT_255_1_388
10
6.3086401
20
69.0286557
40
0.8948168
50
270.0200506
51
278.7494673
0
ARC
8
DEFAULT_255_1_388
10
6.3042605
20
69.2132453
40
1.0794166
50
270.0022372
51
270.2490917
0
ARC
8
DEFAULT_255_1_388
10
6.3000497
20
68.7173827
40
0.5835695
50
253.5785313
51
270.4175629
0
ARC
8
DEFAULT_255_1_388
10
6.2805493
20
68.6418625
40
0.5056241
50
238.8203954
51
253.2788387
0
ARC
8
DEFAULT_255_1_388
10
6.2783409
20
68.6361224
40
0.4995712
50
206.7883476
51
238.696262
0
ARC
8
DEFAULT_255_1_388
10
6.3658805
20
68.6885847
40
0.6014056
50
206.1137778
51
207.4912776
0
ARC
8
DEFAULT_255_1_388
10
6.4325641
20
68.7169284
40
0.6737692
50
188.6922336
51
205.782076
0
ARC
8
DEFAULT_255_1_388
10
6.6414
20
68.7524455
40
0.8855812
50
180.3881972
51
188.9218085
0
ARC
8
DEFAULT_255_1_388
10
6.7795157
20
68.8675622
40
1.0236965
50
170.2024645
51
180.3561986
0
ARC
8
DEFAULT_255_1_388
10
6.4236307
20
68.9312101
40
0.6621746
50
154.2856519
51
170.3893388
0
ARC
8
DEFAULT_255_1_388
10
6.2794271
20
68.9972192
40
0.5036209
50
139.8400879
51
153.9334639
0
ARC
8
DEFAULT_255_1_388
10
6.2390175
20
69.0295716
40
0.4518751
50
98.4190017
51
139.6707015
0
ARC
8
DEFAULT_255_1_388
10
6.2817142
20
68.8219755
40
0.6635912
50
89.7660128
51
99.4415389
0
ARC
8
DEFAULT_255_1_388
10
6.2890539
20
68.8293517
40
0.6562258
50
78.0552044
51
90.4042252
0
ARC
8
DEFAULT_255_1_388
10
6.3345602
20
69.0339661
40
0.4466287
50
54.6380186
51
78.3338577
0
ARC
8
DEFAULT_255_1_388
10
6.3559901
20
69.0700444
40
0.4048184
50
50.0313964
51
54.1562739
0
ARC
8
DEFAULT_255_1_388
10
6.3438794
20
69.0591798
40
0.4209308
50
18.1092229
51
49.7179911
0
ARC
8
DEFAULT_255_1_388
10
6.1799875
20
68.9991399
40
0.5953982
50
7.967396
51
18.698492
0
ARC
8
DEFAULT_255_1_388
10
6.1969136
20
69.0130236
40
0.4050986
50
9.7558763
51
27.3214087
0
ARC
8
DEFAULT_255_1_388
10
6.32376
20
69.0764087
40
0.2633168
50
27.736147
51
84.5257861
0
ARC
8
DEFAULT_255_1_388
10
6.286901
20
68.8914988
40
0.4513019
50
82.1064239
51
90.1997295
0
ARC
8
DEFAULT_255_1_388
10
6.2813026
20
68.9486501
40
0.3941684
50
89.4148952
51
105.5824837
0
ARC
8
DEFAULT_255_1_388
10
6.2523907
20
69.0539043
40
0.2850167
50
105.6678541
51
144.2649156
0
ARC
8
DEFAULT_255_1_388
10
6.3528799
20
68.9824024
40
0.4083468
50
144.3560675
51
162.8564185
0
ARC
8
DEFAULT_255_1_388
10
6.5873242
20
68.9071083
40
0.6545749
50
162.6076338
51
173.6779811
0
ARC
8
DEFAULT_255_1_388
10
6.9317357
20
68.8652422
40
1.0015089
50
173.4670996
51
179.9729015
0
ARC
8
DEFAULT_255_1_388
10
6.7170228
20
68.7534636
40
0.78681
50
179.6556955
51
190.007958
0
ARC
8
DEFAULT_255_1_388
10
6.4564509
20
68.705666
40
0.5218997
50
189.8117884
51
206.6795375
0
ARC
8
DEFAULT_255_1_388
10
6.3613955
20
68.6613514
40
0.4170788
50
207.1031171
51
217.7074698
0
ARC
8
DEFAULT_255_1_388
10
6.2900386
20
68.5992596
40
0.3226945
50
216.7345117
51
265.6812141
0
ARC
8
DEFAULT_255_1_388
10
6.3047528
20
68.701003
40
0.4253149
50
264.7367524
51
270.0610826
0
ARC
8
DEFAULT_255_1_388
10
6.3073713
20
69.0205173
40
0.7448321
50
269.8334494
51
276.0538364
0
ARC
8
DEFAULT_255_1_388
10
6.3306576
20
68.8065924
40
0.5296446
50
275.9894423
51
284.4615914
0
ARC
8
DEFAULT_255_1_388
10
6.3528089
20
68.713357
40
0.4338353
50
284.7038488
51
286.4938196
0
ARC
8
DEFAULT_255_1_388
10
6.3987238
20
68.5654371
40
0.2789738
50
286.0770429
51
304.2629628
0
ARC
8
DEFAULT_255_1_388
10
6.4137396
20
68.540868
40
0.2502188
50
304.5886247
51
317.1074126
0
LINE
8
DEFAULT_255_1_388
10
4.2089367
20
77.4049898
11
4.2089367
21
76.0894
0
LINE
8
DEFAULT_255_1_388
10
4.2089367
20
76.0894
11
4.0354523
21
76.0894
0
LINE
8
DEFAULT_255_1_388
10
4.0354523
20
76.0894
11
4.0354523
21
77.4049898
0
LINE
8
DEFAULT_255_1_388
10
4.0354523
20
77.4049898
11
4.2089367
21
77.4049898
0
LINE
8
DEFAULT_255_1_388
10
5.53808
20
76.7878553
11
5.53808
21
76.7047274
0
LINE
8
DEFAULT_255_1_388
10
4.480006
20
76.6929811
11
4.480006
21
76.7878553
0
LINE
8
DEFAULT_255_1_388
10
5.3654992
20
76.6920775
11
5.3654992
21
76.7896625
0
LINE
8
DEFAULT_255_1_388
10
4.6525868
20
76.8014088
11
4.6525868
21
76.7047274
0
ARC
8
DEFAULT_255_1_388
10
4.5658538
20
76.7002726
40
0.9722364
50
350.4878118
51
0.2625322
0
ARC
8
DEFAULT_255_1_388
10
4.8238498
20
76.6558994
40
0.7104556
50
336.0277991
51
350.5787241
0
ARC
8
DEFAULT_255_1_388
10
4.9751605
20
76.5875243
40
0.544417
50
319.887443
51
336.1331163
0
ARC
8
DEFAULT_255_1_388
10
5.0429417
20
76.5332733
40
0.4576311
50
302.4806296
51
319.6144102
0
ARC
8
DEFAULT_255_1_388
10
5.0300038
20
76.5582067
40
0.4856183
50
275.8196423
51
302.1885521
0
ARC
8
DEFAULT_255_1_388
10
5.01129
20
76.6867466
40
0.6154183
50
269.9169897
51
276.339506
0
ARC
8
DEFAULT_255_1_388
10
5.00625
20
76.609568
40
0.5382553
50
252.5221437
51
270.441579
0
ARC
8
DEFAULT_255_1_388
10
4.9900751
20
76.5489046
40
0.4755426
50
237.5349961
51
252.1858334
0
ARC
8
DEFAULT_255_1_388
10
5.0001127
20
76.561712
40
0.4917393
50
209.0632754
51
237.3492577
0
ARC
8
DEFAULT_255_1_388
10
5.0980453
20
76.6232104
40
0.6072464
50
205.118533
51
209.6465345
0
ARC
8
DEFAULT_255_1_388
10
5.1876455
20
76.6612174
40
0.7045164
50
188.7216633
51
204.8239753
0
ARC
8
DEFAULT_255_1_388
10
5.412323
20
76.6990387
40
0.9323368
50
180.3722704
51
188.9253909
0
ARC
8
DEFAULT_255_1_388
10
5.4092792
20
76.7923416
40
0.929284
50
169.5253055
51
180.2766048
0
ARC
8
DEFAULT_255_1_388
10
5.1952591
20
76.8317024
40
0.7116745
50
155.8314601
51
169.5088611
0
ARC
8
DEFAULT_255_1_388
10
5.0512054
20
76.8985312
40
0.5528904
50
139.6259579
51
156.0379072
0
ARC
8
DEFAULT_255_1_388
10
4.9848588
20
76.9519143
40
0.4677708
50
122.6414784
51
139.3431662
0
ARC
8
DEFAULT_255_1_388
10
4.9961842
20
76.9312787
40
0.4912586
50
93.0224537
51
122.4556091
0
ARC
8
DEFAULT_255_1_388
10
5.0083363
20
76.8226776
40
0.6003837
50
89.9756766
51
93.6340839
0
ARC
8
DEFAULT_255_1_388
10
5.0126961
20
76.8675879
40
0.5554884
50
73.7463329
51
90.4234008
0
ARC
8
DEFAULT_255_1_388
10
5.0324434
20
76.9440772
40
0.4765353
50
57.663051
51
73.4516911
0
ARC
8
DEFAULT_255_1_388
10
5.0315472
20
76.9465108
40
0.4749629
50
29.1441355
51
57.4146687
0
ARC
8
DEFAULT_255_1_388
10
4.9263283
20
76.8808046
40
0.5988917
50
24.0985653
51
29.732054
0
ARC
8
DEFAULT_255_1_388
10
4.8100915
20
76.8326154
40
0.7246823
50
8.6654943
51
23.8241215
0
ARC
8
DEFAULT_255_1_388
10
4.5587333
20
76.7916037
40
0.9793537
50
359.7807044
51
8.8218476
0
ARC
8
DEFAULT_255_1_388
10
4.4297038
20
76.7944731
40
0.9358078
50
359.7054632
51
8.0359751
0
ARC
8
DEFAULT_255_1_388
10
4.7672089
20
76.8436252
40
0.5947474
50
7.8926278
51
20.2962188
0
ARC
8
DEFAULT_255_1_388
10
4.9502939
20
76.9111367
40
0.3996117
50
20.3231056
51
36.4990255
0
ARC
8
DEFAULT_255_1_388
10
5.0274237
20
76.9705399
40
0.3022818
50
36.1436715
51
85.6627846
0
ARC
8
DEFAULT_255_1_388
10
5.0091492
20
76.8535881
40
0.4203853
50
84.3845912
51
90.076054
0
ARC
8
DEFAULT_255_1_388
10
5.0043847
20
76.9278416
40
0.346157
50
89.3037228
51
109.9046209
0
ARC
8
DEFAULT_255_1_388
10
4.993968
20
76.9708379
40
0.3022217
50
110.8229774
51
143.917961
0
ARC
8
DEFAULT_255_1_388
10
5.0990039
20
76.8906455
40
0.434348
50
143.5289166
51
163.2980252
0
ARC
8
DEFAULT_255_1_388
10
5.3136326
20
76.8231685
40
0.659321
50
163.0418884
51
174.3139873
0
ARC
8
DEFAULT_255_1_388
10
5.5841291
20
76.7919378
40
0.9315905
50
174.050934
51
179.4174954
0
ARC
8
DEFAULT_255_1_388
10
5.5273235
20
76.7000382
40
0.8747493
50
179.6928582
51
188.7908948
0
ARC
8
DEFAULT_255_1_388
10
5.2277035
20
76.6521086
40
0.5713262
50
188.6328449
51
202.5630732
0
ARC
8
DEFAULT_255_1_388
10
5.0865872
20
76.5954142
40
0.4192612
50
202.8078931
51
216.1195888
0
ARC
8
DEFAULT_255_1_388
10
4.9955389
20
76.5221479
40
0.3025752
50
215.0755613
51
264.6379773
0
ARC
8
DEFAULT_255_1_388
10
5.0098226
20
76.6156376
40
0.3970284
50
263.8464302
51
270.0830805
0
ARC
8
DEFAULT_255_1_388
10
5.0144771
20
76.5865808
40
0.3679937
50
269.3649295
51
287.5149684
0
ARC
8
DEFAULT_255_1_388
10
5.0345212
20
76.5137714
40
0.2925408
50
288.0629019
51
323.8115617
0
ARC
8
DEFAULT_255_1_388
10
4.9365188
20
76.5868754
40
0.4148018
50
323.6546541
51
342.6591359
0
ARC
8
DEFAULT_255_1_388
10
4.7079846
20
76.661228
40
0.6551163
50
342.4092446
51
353.6451501
0
ARC
8
DEFAULT_255_1_388
10
4.3894639
20
76.7008565
40
0.9760748
50
353.4027553
51
359.4846611
0
LINE
8
DEFAULT_255_1_388
10
6.7696383
20
76.7444842
11
6.7696383
21
76.2619808
0
LINE
8
DEFAULT_255_1_388
10
5.755839
20
76.6839454
11
5.755839
21
76.7986981
0
LINE
8
DEFAULT_255_1_388
10
6.7696383
20
77.0191678
11
6.596154
21
77.0191678
0
LINE
8
DEFAULT_255_1_388
10
5.930227
20
76.8032159
11
5.930227
21
76.6956917
0
LINE
8
DEFAULT_255_1_388
10
6.5970575
20
76.3080626
11
6.5970575
21
76.6035282
0
LINE
8
DEFAULT_255_1_388
10
6.5970575
20
76.6035282
11
6.2925563
21
76.6035282
0
LINE
8
DEFAULT_255_1_388
10
6.2925563
20
76.6035282
11
6.2925563
21
76.7444842
0
LINE
8
DEFAULT_255_1_388
10
6.2925563
20
76.7444842
11
6.7696383
21
76.7444842
0
ARC
8
DEFAULT_255_1_388
10
6.4510984
20
76.4862284
40
0.3895571
50
295.8437277
51
324.8549962
0
ARC
8
DEFAULT_255_1_388
10
6.4043366
20
76.5708619
40
0.4861381
50
291.5691164
51
296.4556269
0
ARC
8
DEFAULT_255_1_388
10
6.3468369
20
76.7244801
40
0.6501442
50
278.6622213
51
291.3047061
0
ARC
8
DEFAULT_255_1_388
10
6.3086401
20
76.9661557
40
0.8948168
50
270.0200506
51
278.7494673
0
ARC
8
DEFAULT_255_1_388
10
6.3042605
20
77.1507453
40
1.0794166
50
270.0022372
51
270.2490917
0
ARC
8
DEFAULT_255_1_388
10
6.3000497
20
76.6548827
40
0.5835695
50
253.5785313
51
270.4175629
0
ARC
8
DEFAULT_255_1_388
10
6.2805493
20
76.5793625
40
0.5056241
50
238.8203954
51
253.2788387
0
ARC
8
DEFAULT_255_1_388
10
6.2783409
20
76.5736224
40
0.4995712
50
206.7883476
51
238.696262
0
ARC
8
DEFAULT_255_1_388
10
6.3658805
20
76.6260847
40
0.6014056
50
206.1137778
51
207.4912776
0
ARC
8
DEFAULT_255_1_388
10
6.4325641
20
76.6544284
40
0.6737692
50
188.6922336
51
205.782076
0
ARC
8
DEFAULT_255_1_388
10
6.6414
20
76.6899455
40
0.8855812
50
180.3881972
51
188.9218085
0
ARC
8
DEFAULT_255_1_388
10
6.7795157
20
76.8050622
40
1.0236965
50
170.2024645
51
180.3561986
0
ARC
8
DEFAULT_255_1_388
10
6.4236307
20
76.8687101
40
0.6621746
50
154.2856519
51
170.3893388
0
ARC
8
DEFAULT_255_1_388
10
6.2794271
20
76.9347192
40
0.5036209
50
139.8400879
51
153.9334639
0
ARC
8
DEFAULT_255_1_388
10
6.2390175
20
76.9670716
40
0.4518751
50
98.4190017
51
139.6707015
0
ARC
8
DEFAULT_255_1_388
10
6.2817142
20
76.7594755
40
0.6635912
50
89.7660128
51
99.4415389
0
ARC
8
DEFAULT_255_1_388
10
6.2890539
20
76.7668517
40
0.6562258
50
78.0552044
51
90.4042252
0
ARC
8
DEFAULT_255_1_388
10
6.3345602
20
76.9714661
40
0.4466287
50
54.6380186
51
78.3338577
0
ARC
8
DEFAULT_255_1_388
10
6.3559901
20
77.0075444
40
0.4048184
50
50.0313964
51
54.1562739
0
ARC
8
DEFAULT_255_1_388
10
6.3438794
20
76.9966798
40
0.4209308
50
18.1092229
51
49.7179911
0
ARC
8
DEFAULT_255_1_388
10
6.1799875
20
76.9366399
40
0.5953982
50
7.967396
51
18.698492
0
ARC
8
DEFAULT_255_1_388
10
6.1969136
20
76.9505236
40
0.4050986
50
9.7558763
51
27.3214087
0
ARC
8
DEFAULT_255_1_388
10
6.32376
20
77.0139087
40
0.2633168
50
27.736147
51
84.5257861
0
ARC
8
DEFAULT_255_1_388
10
6.286901
20
76.8289988
40
0.4513019
50
82.1064239
51
90.1997295
0
ARC
8
DEFAULT_255_1_388
10
6.2813026
20
76.8861501
40
0.3941684
50
89.4148952
51
105.5824837
0
ARC
8
DEFAULT_255_1_388
10
6.2523907
20
76.9914043
40
0.2850167
50
105.6678541
51
144.2649156
0
ARC
8
DEFAULT_255_1_388
10
6.3528799
20
76.9199024
40
0.4083468
50
144.3560675
51
162.8564185
0
ARC
8
DEFAULT_255_1_388
10
6.5873242
20
76.8446083
40
0.6545749
50
162.6076338
51
173.6779811
0
ARC
8
DEFAULT_255_1_388
10
6.9317357
20
76.8027422
40
1.0015089
50
173.4670996
51
179.9729015
0
ARC
8
DEFAULT_255_1_388
10
6.7170228
20
76.6909636
40
0.78681
50
179.6556955
51
190.007958
0
ARC
8
DEFAULT_255_1_388
10
6.4564509
20
76.643166
40
0.5218997
50
189.8117884
51
206.6795375
0
ARC
8
DEFAULT_255_1_388
10
6.3613955
20
76.5988514
40
0.4170788
50
207.1031171
51
217.7074698
0
ARC
8
DEFAULT_255_1_388
10
6.2900386
20
76.5367596
40
0.3226945
50
216.7345117
51
265.6812141
0
ARC
8
DEFAULT_255_1_388
10
6.3047528
20
76.638503
40
0.4253149
50
264.7367524
51
270.0610826
0
ARC
8
DEFAULT_255_1_388
10
6.3073713
20
76.9580173
40
0.7448321
50
269.8334494
51
276.0538364
0
ARC
8
DEFAULT_255_1_388
10
6.3306576
20
76.7440924
40
0.5296446
50
275.9894423
51
284.4615914
0
ARC
8
DEFAULT_255_1_388
10
6.3528089
20
76.650857
40
0.4338353
50
284.7038488
51
286.4938196
0
ARC
8
DEFAULT_255_1_388
10
6.3987238
20
76.5029371
40
0.2789738
50
286.0770429
51
304.2629628
0
ARC
8
DEFAULT_255_1_388
10
6.4137396
20
76.478368
40
0.2502188
50
304.5886247
51
317.1074126
0
LINE
8
DEFAULT_255_1_388
10
4.1804367
20
85.3424898
11
4.1804367
21
84.0269
0
LINE
8
DEFAULT_255_1_388
10
4.1804367
20
84.0269
11
4.0069523
21
84.0269
0
LINE
8
DEFAULT_255_1_388
10
4.0069523
20
84.0269
11
4.0069523
21
85.3424898
0
LINE
8
DEFAULT_255_1_388
10
4.0069523
20
85.3424898
11
4.1804367
21
85.3424898
0
LINE
8
DEFAULT_255_1_388
10
5.1599005
20
85.3424898
11
5.1599005
21
84.468743
0
LINE
8
DEFAULT_255_1_388
10
5.1599005
20
84.468743
11
5.3424206
21
84.468743
0
LINE
8
DEFAULT_255_1_388
10
5.3424206
20
84.468743
11
5.3424206
21
84.3323048
0
LINE
8
DEFAULT_255_1_388
10
5.3424206
20
84.3323048
11
5.1599005
21
84.3323048
0
LINE
8
DEFAULT_255_1_388
10
5.1599005
20
84.3323048
11
5.1599005
21
84.0269
0
LINE
8
DEFAULT_255_1_388
10
5.1599005
20
84.0269
11
4.9918375
21
84.0269
0
LINE
8
DEFAULT_255_1_388
10
4.9918375
20
84.0269
11
4.9918375
21
84.3323048
0
LINE
8
DEFAULT_255_1_388
10
4.9918375
20
84.3323048
11
4.3927743
21
84.3323048
0
LINE
8
DEFAULT_255_1_388
10
4.3927743
20
84.3323048
11
4.3927743
21
84.4307933
0
LINE
8
DEFAULT_255_1_388
10
4.3927743
20
84.4307933
11
4.9818983
21
85.3424898
0
LINE
8
DEFAULT_255_1_388
10
4.9818983
20
85.3424898
11
5.1599005
21
85.3424898
0
LINE
8
DEFAULT_255_1_388
10
4.9719591
20
85.0777455
11
4.5825229
21
84.468743
0
LINE
8
DEFAULT_255_1_388
10
4.5825229
20
84.468743
11
4.9918375
21
84.468743
0
LINE
8
DEFAULT_255_1_388
10
4.9918375
20
84.468743
11
4.9918375
21
85.113888
0
LINE
8
DEFAULT_255_1_388
10
4.9918375
20
85.113888
11
4.9719591
21
85.0777455
0
LINE
8
DEFAULT_255_1_388
10
5.9893727
20
85.1165987
11
5.9893727
21
84.7325838
0
LINE
8
DEFAULT_255_1_388
10
5.9893727
20
84.7325838
11
6.3562199
21
84.7325838
0
LINE
8
DEFAULT_255_1_388
10
6.3562199
20
84.7325838
11
6.3562199
21
84.5744601
0
LINE
8
DEFAULT_255_1_388
10
6.3562199
20
84.5744601
11
5.9893727
21
84.5744601
0
LINE
8
DEFAULT_255_1_388
10
5.9893727
20
84.5744601
11
5.9893727
21
84.1588204
0
LINE
8
DEFAULT_255_1_388
10
5.9893727
20
84.1588204
11
5.8213097
21
84.1588204
0
LINE
8
DEFAULT_255_1_388
10
5.8213097
20
84.1588204
11
5.8213097
21
84.5744601
0
LINE
8
DEFAULT_255_1_388
10
5.8213097
20
84.5744601
11
5.4544625
21
84.5744601
0
LINE
8
DEFAULT_255_1_388
10
5.4544625
20
84.5744601
11
5.4544625
21
84.7325838
0
LINE
8
DEFAULT_255_1_388
10
5.4544625
20
84.7325838
11
5.8213097
21
84.7325838
0
LINE
8
DEFAULT_255_1_388
10
5.8213097
20
84.7325838
11
5.8213097
21
85.1165987
0
LINE
8
DEFAULT_255_1_388
10
5.8213097
20
85.1165987
11
5.9893727
21
85.1165987
0
LINE
8
DEFAULT_255_1_388
10
4.1804367
20
93.2799898
11
4.1804367
21
91.9644
0
LINE
8
DEFAULT_255_1_388
10
4.1804367
20
91.9644
11
4.0069523
21
91.9644
0
LINE
8
DEFAULT_255_1_388
10
4.0069523
20
91.9644
11
4.0069523
21
93.2799898
0
LINE
8
DEFAULT_255_1_388
10
4.0069523
20
93.2799898
11
4.1804367
21
93.2799898
0
LINE
8
DEFAULT_255_1_388
10
4.6972755
20
92.5670775
11
4.6972755
21
92.7035157
0
LINE
8
DEFAULT_255_1_388
10
4.6972755
20
92.7035157
11
4.822871
21
92.7035157
0
LINE
8
DEFAULT_255_1_388
10
4.6087262
20
92.9348282
11
4.4415668
21
92.9348282
0
LINE
8
DEFAULT_255_1_388
10
4.4298205
20
92.3113688
11
4.5978834
21
92.3113688
0
LINE
8
DEFAULT_255_1_388
10
4.822871
20
92.5670775
11
4.6972755
21
92.5670775
0
ARC
8
DEFAULT_255_1_388
10
4.8195936
20
93.0851922
40
0.3816905
50
270.491971
51
281.8953028
0
ARC
8
DEFAULT_255_1_388
10
4.8467363
20
92.9612199
40
0.2547877
50
281.6690378
51
301.2943765
0
ARC
8
DEFAULT_255_1_388
10
4.8658815
20
92.9261926
40
0.2149197
50
301.7834992
51
311.754567
0
ARC
8
DEFAULT_255_1_388
10
4.8761856
20
92.914765
40
0.1995326
50
311.7325027
51
354.2803031
0
ARC
8
DEFAULT_255_1_388
10
4.7944272
20
92.928828
40
0.2823461
50
353.0941646
51
0.1174696
0
ARC
8
DEFAULT_255_1_388
10
4.742583
20
92.9341874
40
0.3342238
50
359.1804452
51
15.0452323
0
ARC
8
DEFAULT_255_1_388
10
4.8939888
20
92.9783546
40
0.1765747
50
13.957816
51
77.6713812
0
ARC
8
DEFAULT_255_1_388
10
4.8505124
20
92.8225464
40
0.3381982
50
76.111571
51
90.7028736
0
ARC
8
DEFAULT_255_1_388
10
4.8438536
20
92.853325
40
0.3074046
50
89.5321574
51
103.5319393
0
ARC
8
DEFAULT_255_1_388
10
4.821292
20
92.9432443
40
0.2147041
50
103.2930114
51
133.5619756
0
ARC
8
DEFAULT_255_1_388
10
4.8162861
20
92.9499351
40
0.2064084
50
133.8349761
51
173.5343225
0
ARC
8
DEFAULT_255_1_388
10
4.8976519
20
92.9355144
40
0.2889266
50
172.5097183
51
180.1360699
0
ARC
8
DEFAULT_255_1_388
10
4.7906283
20
92.939388
40
0.3490913
50
155.3483706
51
180.7484035
0
ARC
8
DEFAULT_255_1_388
10
4.7851258
20
92.9361519
40
0.3454798
50
131.5745177
51
154.4799474
0
ARC
8
DEFAULT_255_1_388
10
4.8203541
20
92.9005422
40
0.3955058
50
96.9874487
51
131.9690874
0
ARC
8
DEFAULT_255_1_388
10
4.8450434
20
92.7604407
40
0.537622
50
89.8592909
51
97.7827481
0
ARC
8
DEFAULT_255_1_388
10
4.8504543
20
92.730936
40
0.5671399
50
78.3654493
51
90.4132586
0
ARC
8
DEFAULT_255_1_388
10
4.8907184
20
92.9175918
40
0.3762034
50
56.6229818
51
78.6387103
0
ARC
8
DEFAULT_255_1_388
10
4.9149013
20
92.9598846
40
0.3275964
50
47.0254604
51
56.085558
0
ARC
8
DEFAULT_255_1_388
10
4.9171264
20
92.9643189
40
0.3228382
50
10.9207523
51
46.777927
0
ARC
8
DEFAULT_255_1_388
10
4.7636858
20
92.9288401
40
0.4802559
50
359.6364235
51
11.6087615
0
ARC
8
DEFAULT_255_1_388
10
4.9701024
20
92.9271404
40
0.273833
50
332.3549969
51
359.7179765
0
ARC
8
DEFAULT_255_1_388
10
4.8969424
20
92.9618285
40
0.3547505
50
325.2332381
51
332.8746682
0
ARC
8
DEFAULT_255_1_388
10
4.9141007
20
92.9498763
40
0.3338396
50
292.9803892
51
325.2391113
0
ARC
8
DEFAULT_255_1_388
10
4.8830203
20
93.0103679
40
0.4016959
50
292.542178
51
293.6931461
0
ARC
8
DEFAULT_255_1_388
10
4.9273775
20
92.2838036
40
0.372079
50
57.643292
51
72.8626085
0
ARC
8
DEFAULT_255_1_388
10
4.9672609
20
92.3484273
40
0.2961455
50
36.7246661
51
57.4701329
0
ARC
8
DEFAULT_255_1_388
10
4.9659766
20
92.349847
40
0.2963321
50
8.054535
51
36.3561529
0
ARC
8
DEFAULT_255_1_388
10
4.8689439
20
92.3324073
40
0.3948682
50
359.8316595
51
8.5873361
0
ARC
8
DEFAULT_255_1_388
10
4.8266913
20
92.326997
40
0.4371398
50
343.9831631
51
0.557075
0
ARC
8
DEFAULT_255_1_388
10
4.9263962
20
92.2996963
40
0.3337749
50
311.6358204
51
343.7652116
0
ARC
8
DEFAULT_255_1_388
10
4.8838216
20
92.3476955
40
0.3979351
50
279.7829743
51
311.625622
0
ARC
8
DEFAULT_255_1_388
10
4.8499351
20
92.5093642
40
0.5630417
50
269.7285092
51
280.3857694
0
ARC
8
DEFAULT_255_1_388
10
4.8429664
20
92.5047241
40
0.5584119
50
256.6827433
51
270.4412869
0
ARC
8
DEFAULT_255_1_388
10
4.8048651
20
92.3489698
40
0.3980715
50
229.4223821
51
256.8554507
0
ARC
8
DEFAULT_255_1_388
10
4.7582204
20
92.2964683
40
0.3278564
50
181.8183354
51
229.6455015
0
ARC
8
DEFAULT_255_1_388
10
4.8751814
20
92.3111825
40
0.4453611
50
179.9760419
51
183.2330638
0
ARC
8
DEFAULT_255_1_388
10
4.8558366
20
92.3088781
40
0.2579652
50
179.4467996
51
196.2871626
0
ARC
8
DEFAULT_255_1_388
10
4.800982
20
92.2938709
40
0.2011057
50
196.5661293
51
227.7059371
0
ARC
8
DEFAULT_255_1_388
10
4.8194427
20
92.3145155
40
0.2287994
50
227.7653015
51
257.8763321
0
ARC
8
DEFAULT_255_1_388
10
4.844751
20
92.4205961
40
0.3378385
50
257.4583525
51
270.4267406
0
ARC
8
DEFAULT_255_1_388
10
4.849876
20
92.453223
40
0.3704652
50
269.5965319
51
280.8788143
0
ARC
8
DEFAULT_255_1_388
10
4.8756988
20
92.3242529
40
0.2389415
50
280.6347277
51
299.8594068
0
ARC
8
DEFAULT_255_1_388
10
4.8971757
20
92.2834736
40
0.19289
50
300.3575552
51
314.5515667
0
ARC
8
DEFAULT_255_1_388
10
4.8878433
20
92.2903025
40
0.204312
50
315.0730962
51
345.0429362
0
ARC
8
DEFAULT_255_1_388
10
4.7839941
20
92.3205539
40
0.31246
50
344.598526
51
357.9270698
0
ARC
8
DEFAULT_255_1_388
10
4.6830245
20
92.3274705
40
0.4136265
50
357.4755098
51
0.0224936
0
ARC
8
DEFAULT_255_1_388
10
4.7983123
20
92.3302099
40
0.2983498
50
359.5051035
51
13.4236939
0
ARC
8
DEFAULT_255_1_388
10
4.8958213
20
92.3551637
40
0.1977186
50
12.9497905
51
48.7550905
0
ARC
8
DEFAULT_255_1_388
10
4.8753135
20
92.3271373
40
0.2323321
50
49.509109
51
72.1832965
0
ARC
8
DEFAULT_255_1_388
10
4.8350603
20
92.2076632
40
0.358397
50
71.9008458
51
84.3555134
0
ARC
8
DEFAULT_255_1_388
10
4.8168998
20
92.0544712
40
0.512641
50
84.019632
51
89.3326067
0
LINE
8
DEFAULT_255_1_388
10
5.9893727
20
93.0540987
11
5.9893727
21
92.6700838
0
LINE
8
DEFAULT_255_1_388
10
5.9893727
20
92.6700838
11
6.3562199
21
92.6700838
0
LINE
8
DEFAULT_255_1_388
10
6.3562199
20
92.6700838
11
6.3562199
21
92.5119601
0
LINE
8
DEFAULT_255_1_388
10
6.3562199
20
92.5119601
11
5.9893727
21
92.5119601
0
LINE
8
DEFAULT_255_1_388
10
5.9893727
20
92.5119601
11
5.9893727
21
92.0963204
0
LINE
8
DEFAULT_255_1_388
10
5.9893727
20
92.0963204
11
5.8213097
21
92.0963204
0
LINE
8
DEFAULT_255_1_388
10
5.8213097
20
92.0963204
11
5.8213097
21
92.5119601
0
LINE
8
DEFAULT_255_1_388
10
5.8213097
20
92.5119601
11
5.4544625
21
92.5119601
0
LINE
8
DEFAULT_255_1_388
10
5.4544625
20
92.5119601
11
5.4544625
21
92.6700838
0
LINE
8
DEFAULT_255_1_388
10
5.4544625
20
92.6700838
11
5.8213097
21
92.6700838
0
LINE
8
DEFAULT_255_1_388
10
5.8213097
20
92.6700838
11
5.8213097
21
93.0540987
0
LINE
8
DEFAULT_255_1_388
10
5.8213097
20
93.0540987
11
5.9893727
21
93.0540987
0
LINE
8
DEFAULT_255_1_388
10
4.2089367
20
101.2174898
11
4.2089367
21
99.9019
0
LINE
8
DEFAULT_255_1_388
10
4.2089367
20
99.9019
11
4.0354523
21
99.9019
0
LINE
8
DEFAULT_255_1_388
10
4.0354523
20
99.9019
11
4.0354523
21
101.2174898
0
LINE
8
DEFAULT_255_1_388
10
4.0354523
20
101.2174898
11
4.2089367
21
101.2174898
0
LINE
8
DEFAULT_255_1_388
10
5.53808
20
100.6003553
11
5.53808
21
100.5172274
0
LINE
8
DEFAULT_255_1_388
10
4.480006
20
100.5054811
11
4.480006
21
100.6003553
0
LINE
8
DEFAULT_255_1_388
10
5.3654992
20
100.5045775
11
5.3654992
21
100.6021625
0
LINE
8
DEFAULT_255_1_388
10
4.6525868
20
100.6139088
11
4.6525868
21
100.5172274
0
ARC
8
DEFAULT_255_1_388
10
4.5658538
20
100.5127726
40
0.9722364
50
350.4878118
51
0.2625322
0
ARC
8
DEFAULT_255_1_388
10
4.8238498
20
100.4683994
40
0.7104556
50
336.0277991
51
350.5787241
0
ARC
8
DEFAULT_255_1_388
10
4.9751605
20
100.4000243
40
0.544417
50
319.887443
51
336.1331163
0
ARC
8
DEFAULT_255_1_388
10
5.0429417
20
100.3457733
40
0.4576311
50
302.4806296
51
319.6144102
0
ARC
8
DEFAULT_255_1_388
10
5.0300038
20
100.3707067
40
0.4856183
50
275.8196423
51
302.1885521
0
ARC
8
DEFAULT_255_1_388
10
5.01129
20
100.4992466
40
0.6154183
50
269.9169897
51
276.339506
0
ARC
8
DEFAULT_255_1_388
10
5.00625
20
100.422068
40
0.5382553
50
252.5221437
51
270.441579
0
ARC
8
DEFAULT_255_1_388
10
4.9900751
20
100.3614046
40
0.4755426
50
237.5349961
51
252.1858334
0
ARC
8
DEFAULT_255_1_388
10
5.0001127
20
100.374212
40
0.4917393
50
209.0632754
51
237.3492577
0
ARC
8
DEFAULT_255_1_388
10
5.0980453
20
100.4357104
40
0.6072464
50
205.118533
51
209.6465345
0
ARC
8
DEFAULT_255_1_388
10
5.1876455
20
100.4737174
40
0.7045164
50
188.7216633
51
204.8239753
0
ARC
8
DEFAULT_255_1_388
10
5.412323
20
100.5115387
40
0.9323368
50
180.3722704
51
188.9253909
0
ARC
8
DEFAULT_255_1_388
10
5.4092792
20
100.6048416
40
0.929284
50
169.5253055
51
180.2766048
0
ARC
8
DEFAULT_255_1_388
10
5.1952591
20
100.6442024
40
0.7116745
50
155.8314601
51
169.5088611
0
ARC
8
DEFAULT_255_1_388
10
5.0512054
20
100.7110312
40
0.5528904
50
139.6259579
51
156.0379072
0
ARC
8
DEFAULT_255_1_388
10
4.9848588
20
100.7644143
40
0.4677708
50
122.6414784
51
139.3431662
0
ARC
8
DEFAULT_255_1_388
10
4.9961842
20
100.7437787
40
0.4912586
50
93.0224537
51
122.4556091
0
ARC
8
DEFAULT_255_1_388
10
5.0083363
20
100.6351776
40
0.6003837
50
89.9756766
51
93.6340839
0
ARC
8
DEFAULT_255_1_388
10
5.0126961
20
100.6800879
40
0.5554884
50
73.7463329
51
90.4234008
0
ARC
8
DEFAULT_255_1_388
10
5.0324434
20
100.7565772
40
0.4765353
50
57.663051
51
73.4516911
0
ARC
8
DEFAULT_255_1_388
10
5.0315472
20
100.7590108
40
0.4749629
50
29.1441355
51
57.4146687
0
ARC
8
DEFAULT_255_1_388
10
4.9263283
20
100.6933046
40
0.5988917
50
24.0985653
51
29.732054
0
ARC
8
DEFAULT_255_1_388
10
4.8100915
20
100.6451154
40
0.7246823
50
8.6654943
51
23.8241215
0
ARC
8
DEFAULT_255_1_388
10
4.5587333
20
100.6041037
40
0.9793537
50
359.7807044
51
8.8218476
0
ARC
8
DEFAULT_255_1_388
10
4.4297038
20
100.6069731
40
0.9358078
50
359.7054632
51
8.0359751
0
ARC
8
DEFAULT_255_1_388
10
4.7672089
20
100.6561252
40
0.5947474
50
7.8926278
51
20.2962188
0
ARC
8
DEFAULT_255_1_388
10
4.9502939
20
100.7236367
40
0.3996117
50
20.3231056
51
36.4990255
0
ARC
8
DEFAULT_255_1_388
10
5.0274237
20
100.7830399
40
0.3022818
50
36.1436715
51
85.6627846
0
ARC
8
DEFAULT_255_1_388
10
5.0091492
20
100.6660881
40
0.4203853
50
84.3845912
51
90.076054
0
ARC
8
DEFAULT_255_1_388
10
5.0043847
20
100.7403416
40
0.346157
50
89.3037228
51
109.9046209
0
ARC
8
DEFAULT_255_1_388
10
4.993968
20
100.7833379
40
0.3022217
50
110.8229774
51
143.917961
0
ARC
8
DEFAULT_255_1_388
10
5.0990039
20
100.7031455
40
0.434348
50
143.5289166
51
163.2980252
0
ARC
8
DEFAULT_255_1_388
10
5.3136326
20
100.6356685
40
0.659321
50
163.0418884
51
174.3139873
0
ARC
8
DEFAULT_255_1_388
10
5.5841291
20
100.6044378
40
0.9315905
50
174.050934
51
179.4174954
0
ARC
8
DEFAULT_255_1_388
10
5.5273235
20
100.5125382
40
0.8747493
50
179.6928582
51
188.7908948
0
ARC
8
DEFAULT_255_1_388
10
5.2277035
20
100.4646086
40
0.5713262
50
188.6328449
51
202.5630732
0
ARC
8
DEFAULT_255_1_388
10
5.0865872
20
100.4079142
40
0.4192612
50
202.8078931
51
216.1195888
0
ARC
8
DEFAULT_255_1_388
10
4.9955389
20
100.3346479
40
0.3025752
50
215.0755613
51
264.6379773
0
ARC
8
DEFAULT_255_1_388
10
5.0098226
20
100.4281376
40
0.3970284
50
263.8464302
51
270.0830805
0
ARC
8
DEFAULT_255_1_388
10
5.0144771
20
100.3990808
40
0.3679937
50
269.3649295
51
287.5149684
0
ARC
8
DEFAULT_255_1_388
10
5.0345212
20
100.3262714
40
0.2925408
50
288.0629019
51
323.8115617
0
ARC
8
DEFAULT_255_1_388
10
4.9365188
20
100.3993754
40
0.4148018
50
323.6546541
51
342.6591359
0
ARC
8
DEFAULT_255_1_388
10
4.7079846
20
100.473728
40
0.6551163
50
342.4092446
51
353.6451501
0
ARC
8
DEFAULT_255_1_388
10
4.3894639
20
100.5133565
40
0.9760748
50
353.4027553
51
359.4846611
0
LINE
8
DEFAULT_255_1_388
10
6.7696383
20
100.5569842
11
6.7696383
21
100.0744808
0
LINE
8
DEFAULT_255_1_388
10
5.755839
20
100.4964454
11
5.755839
21
100.6111981
0
LINE
8
DEFAULT_255_1_388
10
6.7696383
20
100.8316678
11
6.596154
21
100.8316678
0
LINE
8
DEFAULT_255_1_388
10
5.930227
20
100.6157159
11
5.930227
21
100.5081917
0
LINE
8
DEFAULT_255_1_388
10
6.5970575
20
100.1205626
11
6.5970575
21
100.4160282
0
LINE
8
DEFAULT_255_1_388
10
6.5970575
20
100.4160282
11
6.2925563
21
100.4160282
0
LINE
8
DEFAULT_255_1_388
10
6.2925563
20
100.4160282
11
6.2925563
21
100.5569842
0
LINE
8
DEFAULT_255_1_388
10
6.2925563
20
100.5569842
11
6.7696383
21
100.5569842
0
ARC
8
DEFAULT_255_1_388
10
6.4510984
20
100.2987284
40
0.3895571
50
295.8437277
51
324.8549962
0
ARC
8
DEFAULT_255_1_388
10
6.4043366
20
100.3833619
40
0.4861381
50
291.5691164
51
296.4556269
0
ARC
8
DEFAULT_255_1_388
10
6.3468369
20
100.5369801
40
0.6501442
50
278.6622213
51
291.3047061
0
ARC
8
DEFAULT_255_1_388
10
6.3086401
20
100.7786557
40
0.8948168
50
270.0200506
51
278.7494673
0
ARC
8
DEFAULT_255_1_388
10
6.3042605
20
100.9632453
40
1.0794166
50
270.0022372
51
270.2490917
0
ARC
8
DEFAULT_255_1_388
10
6.3000497
20
100.4673827
40
0.5835695
50
253.5785313
51
270.4175629
0
ARC
8
DEFAULT_255_1_388
10
6.2805493
20
100.3918625
40
0.5056241
50
238.8203954
51
253.2788387
0
ARC
8
DEFAULT_255_1_388
10
6.2783409
20
100.3861224
40
0.4995712
50
206.7883476
51
238.696262
0
ARC
8
DEFAULT_255_1_388
10
6.3658805
20
100.4385847
40
0.6014056
50
206.1137778
51
207.4912776
0
ARC
8
DEFAULT_255_1_388
10
6.4325641
20
100.4669284
40
0.6737692
50
188.6922336
51
205.782076
0
ARC
8
DEFAULT_255_1_388
10
6.6414
20
100.5024455
40
0.8855812
50
180.3881972
51
188.9218085
0
ARC
8
DEFAULT_255_1_388
10
6.7795157
20
100.6175622
40
1.0236965
50
170.2024645
51
180.3561986
0
ARC
8
DEFAULT_255_1_388
10
6.4236307
20
100.6812101
40
0.6621746
50
154.2856519
51
170.3893388
0
ARC
8
DEFAULT_255_1_388
10
6.2794271
20
100.7472192
40
0.5036209
50
139.8400879
51
153.9334639
0
ARC
8
DEFAULT_255_1_388
10
6.2390175
20
100.7795716
40
0.4518751
50
98.4190017
51
139.6707015
0
ARC
8
DEFAULT_255_1_388
10
6.2817142
20
100.5719755
40
0.6635912
50
89.7660128
51
99.4415389
0
ARC
8
DEFAULT_255_1_388
10
6.2890539
20
100.5793517
40
0.6562258
50
78.0552044
51
90.4042252
0
ARC
8
DEFAULT_255_1_388
10
6.3345602
20
100.7839661
40
0.4466287
50
54.6380186
51
78.3338577
0
ARC
8
DEFAULT_255_1_388
10
6.3559901
20
100.8200444
40
0.4048184
50
50.0313964
51
54.1562739
0
ARC
8
DEFAULT_255_1_388
10
6.3438794
20
100.8091798
40
0.4209308
50
18.1092229
51
49.7179911
0
ARC
8
DEFAULT_255_1_388
10
6.1799875
20
100.7491399
40
0.5953982
50
7.967396
51
18.698492
0
ARC
8
DEFAULT_255_1_388
10
6.1969136
20
100.7630236
40
0.4050986
50
9.7558763
51
27.3214087
0
ARC
8
DEFAULT_255_1_388
10
6.32376
20
100.8264087
40
0.2633168
50
27.736147
51
84.5257861
0
ARC
8
DEFAULT_255_1_388
10
6.286901
20
100.6414988
40
0.4513019
50
82.1064239
51
90.1997295
0
ARC
8
DEFAULT_255_1_388
10
6.2813026
20
100.6986501
40
0.3941684
50
89.4148952
51
105.5824837
0
ARC
8
DEFAULT_255_1_388
10
6.2523907
20
100.8039043
40
0.2850167
50
105.6678541
51
144.2649156
0
ARC
8
DEFAULT_255_1_388
10
6.3528799
20
100.7324024
40
0.4083468
50
144.3560675
51
162.8564185
0
ARC
8
DEFAULT_255_1_388
10
6.5873242
20
100.6571083
40
0.6545749
50
162.6076338
51
173.6779811
0
ARC
8
DEFAULT_255_1_388
10
6.9317357
20
100.6152422
40
1.0015089
50
173.4670996
51
179.9729015
0
ARC
8
DEFAULT_255_1_388
10
6.7170228
20
100.5034636
40
0.78681
50
179.6556955
51
190.007958
0
ARC
8
DEFAULT_255_1_388
10
6.4564509
20
100.455666
40
0.5218997
50
189.8117884
51
206.6795375
0
ARC
8
DEFAULT_255_1_388
10
6.3613955
20
100.4113514
40
0.4170788
50
207.1031171
51
217.7074698
0
ARC
8
DEFAULT_255_1_388
10
6.2900386
20
100.3492596
40
0.3226945
50
216.7345117
51
265.6812141
0
ARC
8
DEFAULT_255_1_388
10
6.3047528
20
100.451003
40
0.4253149
50
264.7367524
51
270.0610826
0
ARC
8
DEFAULT_255_1_388
10
6.3073713
20
100.7705173
40
0.7448321
50
269.8334494
51
276.0538364
0
ARC
8
DEFAULT_255_1_388
10
6.3306576
20
100.5565924
40
0.5296446
50
275.9894423
51
284.4615914
0
ARC
8
DEFAULT_255_1_388
10
6.3528089
20
100.463357
40
0.4338353
50
284.7038488
51
286.4938196
0
ARC
8
DEFAULT_255_1_388
10
6.3987238
20
100.3154371
40
0.2789738
50
286.0770429
51
304.2629628
0
ARC
8
DEFAULT_255_1_388
10
6.4137396
20
100.290868
40
0.2502188
50
304.5886247
51
317.1074126
0
LINE
8
DEFAULT_255_1_388
10
4.2089367
20
109.1549898
11
4.2089367
21
107.8394
0
LINE
8
DEFAULT_255_1_388
10
4.2089367
20
107.8394
11
4.0354523
21
107.8394
0
LINE
8
DEFAULT_255_1_388
10
4.0354523
20
107.8394
11
4.0354523
21
109.1549898
0
LINE
8
DEFAULT_255_1_388
10
4.0354523
20
109.1549898
11
4.2089367
21
109.1549898
0
LINE
8
DEFAULT_255_1_388
10
5.53808
20
108.5378553
11
5.53808
21
108.4547274
0
LINE
8
DEFAULT_255_1_388
10
4.480006
20
108.4429811
11
4.480006
21
108.5378553
0
LINE
8
DEFAULT_255_1_388
10
5.3654992
20
108.4420775
11
5.3654992
21
108.5396625
0
LINE
8
DEFAULT_255_1_388
10
4.6525868
20
108.5514088
11
4.6525868
21
108.4547274
0
ARC
8
DEFAULT_255_1_388
10
4.5658538
20
108.4502726
40
0.9722364
50
350.4878118
51
0.2625322
0
ARC
8
DEFAULT_255_1_388
10
4.8238498
20
108.4058994
40
0.7104556
50
336.0277991
51
350.5787241
0
ARC
8
DEFAULT_255_1_388
10
4.9751605
20
108.3375243
40
0.544417
50
319.887443
51
336.1331163
0
ARC
8
DEFAULT_255_1_388
10
5.0429417
20
108.2832733
40
0.4576311
50
302.4806296
51
319.6144102
0
ARC
8
DEFAULT_255_1_388
10
5.0300038
20
108.3082067
40
0.4856183
50
275.8196423
51
302.1885521
0
ARC
8
DEFAULT_255_1_388
10
5.01129
20
108.4367466
40
0.6154183
50
269.9169897
51
276.339506
0
ARC
8
DEFAULT_255_1_388
10
5.00625
20
108.359568
40
0.5382553
50
252.5221437
51
270.441579
0
ARC
8
DEFAULT_255_1_388
10
4.9900751
20
108.2989046
40
0.4755426
50
237.5349961
51
252.1858334
0
ARC
8
DEFAULT_255_1_388
10
5.0001127
20
108.311712
40
0.4917393
50
209.0632754
51
237.3492577
0
ARC
8
DEFAULT_255_1_388
10
5.0980453
20
108.3732104
40
0.6072464
50
205.118533
51
209.6465345
0
ARC
8
DEFAULT_255_1_388
10
5.1876455
20
108.4112174
40
0.7045164
50
188.7216633
51
204.8239753
0
ARC
8
DEFAULT_255_1_388
10
5.412323
20
108.4490387
40
0.9323368
50
180.3722704
51
188.9253909
0
ARC
8
DEFAULT_255_1_388
10
5.4092792
20
108.5423416
40
0.929284
50
169.5253055
51
180.2766048
0
ARC
8
DEFAULT_255_1_388
10
5.1952591
20
108.5817024
40
0.7116745
50
155.8314601
51
169.5088611
0
ARC
8
DEFAULT_255_1_388
10
5.0512054
20
108.6485312
40
0.5528904
50
139.6259579
51
156.0379072
0
ARC
8
DEFAULT_255_1_388
10
4.9848588
20
108.7019143
40
0.4677708
50
122.6414784
51
139.3431662
0
ARC
8
DEFAULT_255_1_388
10
4.9961842
20
108.6812787
40
0.4912586
50
93.0224537
51
122.4556091
0
ARC
8
DEFAULT_255_1_388
10
5.0083363
20
108.5726776
40
0.6003837
50
89.9756766
51
93.6340839
0
ARC
8
DEFAULT_255_1_388
10
5.0126961
20
108.6175879
40
0.5554884
50
73.7463329
51
90.4234008
0
ARC
8
DEFAULT_255_1_388
10
5.0324434
20
108.6940772
40
0.4765353
50
57.663051
51
73.4516911
0
ARC
8
DEFAULT_255_1_388
10
5.0315472
20
108.6965108
40
0.4749629
50
29.1441355
51
57.4146687
0
ARC
8
DEFAULT_255_1_388
10
4.9263283
20
108.6308046
40
0.5988917
50
24.0985653
51
29.732054
0
ARC
8
DEFAULT_255_1_388
10
4.8100915
20
108.5826154
40
0.7246823
50
8.6654943
51
23.8241215
0
ARC
8
DEFAULT_255_1_388
10
4.5587333
20
108.5416037
40
0.9793537
50
359.7807044
51
8.8218476
0
ARC
8
DEFAULT_255_1_388
10
4.4297038
20
108.5444731
40
0.9358078
50
359.7054632
51
8.0359751
0
ARC
8
DEFAULT_255_1_388
10
4.7672089
20
108.5936252
40
0.5947474
50
7.8926278
51
20.2962188
0
ARC
8
DEFAULT_255_1_388
10
4.9502939
20
108.6611367
40
0.3996117
50
20.3231056
51
36.4990255
0
ARC
8
DEFAULT_255_1_388
10
5.0274237
20
108.7205399
40
0.3022818
50
36.1436715
51
85.6627846
0
ARC
8
DEFAULT_255_1_388
10
5.0091492
20
108.6035881
40
0.4203853
50
84.3845912
51
90.076054
0
ARC
8
DEFAULT_255_1_388
10
5.0043847
20
108.6778416
40
0.346157
50
89.3037228
51
109.9046209
0
ARC
8
DEFAULT_255_1_388
10
4.993968
20
108.7208379
40
0.3022217
50
110.8229774
51
143.917961
0
ARC
8
DEFAULT_255_1_388
10
5.0990039
20
108.6406455
40
0.434348
50
143.5289166
51
163.2980252
0
ARC
8
DEFAULT_255_1_388
10
5.3136326
20
108.5731685
40
0.659321
50
163.0418884
51
174.3139873
0
ARC
8
DEFAULT_255_1_388
10
5.5841291
20
108.5419378
40
0.9315905
50
174.050934
51
179.4174954
0
ARC
8
DEFAULT_255_1_388
10
5.5273235
20
108.4500382
40
0.8747493
50
179.6928582
51
188.7908948
0
ARC
8
DEFAULT_255_1_388
10
5.2277035
20
108.4021086
40
0.5713262
50
188.6328449
51
202.5630732
0
ARC
8
DEFAULT_255_1_388
10
5.0865872
20
108.3454142
40
0.4192612
50
202.8078931
51
216.1195888
0
ARC
8
DEFAULT_255_1_388
10
4.9955389
20
108.2721479
40
0.3025752
50
215.0755613
51
264.6379773
0
ARC
8
DEFAULT_255_1_388
10
5.0098226
20
108.3656376
40
0.3970284
50
263.8464302
51
270.0830805
0
ARC
8
DEFAULT_255_1_388
10
5.0144771
20
108.3365808
40
0.3679937
50
269.3649295
51
287.5149684
0
ARC
8
DEFAULT_255_1_388
10
5.0345212
20
108.2637714
40
0.2925408
50
288.0629019
51
323.8115617
0
ARC
8
DEFAULT_255_1_388
10
4.9365188
20
108.3368754
40
0.4148018
50
323.6546541
51
342.6591359
0
ARC
8
DEFAULT_255_1_388
10
4.7079846
20
108.411228
40
0.6551163
50
342.4092446
51
353.6451501
0
ARC
8
DEFAULT_255_1_388
10
4.3894639
20
108.4508565
40
0.9760748
50
353.4027553
51
359.4846611
0
LINE
8
DEFAULT_255_1_388
10
6.7696383
20
108.4944842
11
6.7696383
21
108.0119808
0
LINE
8
DEFAULT_255_1_388
10
5.755839
20
108.4339454
11
5.755839
21
108.5486981
0
LINE
8
DEFAULT_255_1_388
10
6.7696383
20
108.7691678
11
6.596154
21
108.7691678
0
LINE
8
DEFAULT_255_1_388
10
5.930227
20
108.5532159
11
5.930227
21
108.4456917
0
LINE
8
DEFAULT_255_1_388
10
6.5970575
20
108.0580626
11
6.5970575
21
108.3535282
0
LINE
8
DEFAULT_255_1_388
10
6.5970575
20
108.3535282
11
6.2925563
21
108.3535282
0
LINE
8
DEFAULT_255_1_388
10
6.2925563
20
108.3535282
11
6.2925563
21
108.4944842
0
LINE
8
DEFAULT_255_1_388
10
6.2925563
20
108.4944842
11
6.7696383
21
108.4944842
0
ARC
8
DEFAULT_255_1_388
10
6.4510984
20
108.2362284
40
0.3895571
50
295.8437277
51
324.8549962
0
ARC
8
DEFAULT_255_1_388
10
6.4043366
20
108.3208619
40
0.4861381
50
291.5691164
51
296.4556269
0
ARC
8
DEFAULT_255_1_388
10
6.3468369
20
108.4744801
40
0.6501442
50
278.6622213
51
291.3047061
0
ARC
8
DEFAULT_255_1_388
10
6.3086401
20
108.7161557
40
0.8948168
50
270.0200506
51
278.7494673
0
ARC
8
DEFAULT_255_1_388
10
6.3042605
20
108.9007453
40
1.0794166
50
270.0022372
51
270.2490917
0
ARC
8
DEFAULT_255_1_388
10
6.3000497
20
108.4048827
40
0.5835695
50
253.5785313
51
270.4175629
0
ARC
8
DEFAULT_255_1_388
10
6.2805493
20
108.3293625
40
0.5056241
50
238.8203954
51
253.2788387
0
ARC
8
DEFAULT_255_1_388
10
6.2783409
20
108.3236224
40
0.4995712
50
206.7883476
51
238.696262
0
ARC
8
DEFAULT_255_1_388
10
6.3658805
20
108.3760847
40
0.6014056
50
206.1137778
51
207.4912776
0
ARC
8
DEFAULT_255_1_388
10
6.4325641
20
108.4044284
40
0.6737692
50
188.6922336
51
205.782076
0
ARC
8
DEFAULT_255_1_388
10
6.6414
20
108.4399455
40
0.8855812
50
180.3881972
51
188.9218085
0
ARC
8
DEFAULT_255_1_388
10
6.7795157
20
108.5550622
40
1.0236965
50
170.2024645
51
180.3561986
0
ARC
8
DEFAULT_255_1_388
10
6.4236307
20
108.6187101
40
0.6621746
50
154.2856519
51
170.3893388
0
ARC
8
DEFAULT_255_1_388
10
6.2794271
20
108.6847192
40
0.5036209
50
139.8400879
51
153.9334639
0
ARC
8
DEFAULT_255_1_388
10
6.2390175
20
108.7170716
40
0.4518751
50
98.4190017
51
139.6707015
0
ARC
8
DEFAULT_255_1_388
10
6.2817142
20
108.5094755
40
0.6635912
50
89.7660128
51
99.4415389
0
ARC
8
DEFAULT_255_1_388
10
6.2890539
20
108.5168517
40
0.6562258
50
78.0552044
51
90.4042252
0
ARC
8
DEFAULT_255_1_388
10
6.3345602
20
108.7214661
40
0.4466287
50
54.6380186
51
78.3338577
0
ARC
8
DEFAULT_255_1_388
10
6.3559901
20
108.7575444
40
0.4048184
50
50.0313964
51
54.1562739
0
ARC
8
DEFAULT_255_1_388
10
6.3438794
20
108.7466798
40
0.4209308
50
18.1092229
51
49.7179911
0
ARC
8
DEFAULT_255_1_388
10
6.1799875
20
108.6866399
40
0.5953982
50
7.967396
51
18.698492
0
ARC
8
DEFAULT_255_1_388
10
6.1969136
20
108.7005236
40
0.4050986
50
9.7558763
51
27.3214087
0
ARC
8
DEFAULT_255_1_388
10
6.32376
20
108.7639087
40
0.2633168
50
27.736147
51
84.5257861
0
ARC
8
DEFAULT_255_1_388
10
6.286901
20
108.5789988
40
0.4513019
50
82.1064239
51
90.1997295
0
ARC
8
DEFAULT_255_1_388
10
6.2813026
20
108.6361501
40
0.3941684
50
89.4148952
51
105.5824837
0
ARC
8
DEFAULT_255_1_388
10
6.2523907
20
108.7414043
40
0.2850167
50
105.6678541
51
144.2649156
0
ARC
8
DEFAULT_255_1_388
10
6.3528799
20
108.6699024
40
0.4083468
50
144.3560675
51
162.8564185
0
ARC
8
DEFAULT_255_1_388
10
6.5873242
20
108.5946083
40
0.6545749
50
162.6076338
51
173.6779811
0
ARC
8
DEFAULT_255_1_388
10
6.9317357
20
108.5527422
40
1.0015089
50
173.4670996
51
179.9729015
0
ARC
8
DEFAULT_255_1_388
10
6.7170228
20
108.4409636
40
0.78681
50
179.6556955
51
190.007958
0
ARC
8
DEFAULT_255_1_388
10
6.4564509
20
108.393166
40
0.5218997
50
189.8117884
51
206.6795375
0
ARC
8
DEFAULT_255_1_388
10
6.3613955
20
108.3488514
40
0.4170788
50
207.1031171
51
217.7074698
0
ARC
8
DEFAULT_255_1_388
10
6.2900386
20
108.2867596
40
0.3226945
50
216.7345117
51
265.6812141
0
ARC
8
DEFAULT_255_1_388
10
6.3047528
20
108.388503
40
0.4253149
50
264.7367524
51
270.0610826
0
ARC
8
DEFAULT_255_1_388
10
6.3073713
20
108.7080173
40
0.7448321
50
269.8334494
51
276.0538364
0
ARC
8
DEFAULT_255_1_388
10
6.3306576
20
108.4940924
40
0.5296446
50
275.9894423
51
284.4615914
0
ARC
8
DEFAULT_255_1_388
10
6.3528089
20
108.400857
40
0.4338353
50
284.7038488
51
286.4938196
0
ARC
8
DEFAULT_255_1_388
10
6.3987238
20
108.2529371
40
0.2789738
50
286.0770429
51
304.2629628
0
ARC
8
DEFAULT_255_1_388
10
6.4137396
20
108.228368
40
0.2502188
50
304.5886247
51
317.1074126
0
LINE
8
DEFAULT_255_1_388
10
4.1804367
20
117.0924898
11
4.1804367
21
115.7769
0
LINE
8
DEFAULT_255_1_388
10
4.1804367
20
115.7769
11
4.0069523
21
115.7769
0
LINE
8
DEFAULT_255_1_388
10
4.0069523
20
115.7769
11
4.0069523
21
117.0924898
0
LINE
8
DEFAULT_255_1_388
10
4.0069523
20
117.0924898
11
4.1804367
21
117.0924898
0
LINE
8
DEFAULT_255_1_388
10
5.3162172
20
115.9133382
11
5.3162172
21
115.7769
0
LINE
8
DEFAULT_255_1_388
10
5.3162172
20
115.7769
11
4.4542167
21
115.7769
0
LINE
8
DEFAULT_255_1_388
10
4.4542167
20
115.7769
11
4.4542167
21
115.8970741
0
LINE
8
DEFAULT_255_1_388
10
4.4542167
20
115.8970741
11
4.9096132
21
116.4030702
0
LINE
8
DEFAULT_255_1_388
10
4.5960763
20
116.7048607
11
4.4289169
21
116.7048607
0
LINE
8
DEFAULT_255_1_388
10
5.0081017
20
116.295546
11
4.6557116
21
115.9133382
0
LINE
8
DEFAULT_255_1_388
10
4.6557116
20
115.9133382
11
5.3162172
21
115.9133382
0
ARC
8
DEFAULT_255_1_388
10
3.3920191
20
117.7450983
40
2.0258655
50
318.5132526
51
320.7829045
0
ARC
8
DEFAULT_255_1_388
10
3.9868148
20
117.2609929
40
1.2589638
50
320.7372878
51
323.9739031
0
ARC
8
DEFAULT_255_1_388
10
4.427708
20
116.9415554
40
0.7145141
50
323.8962701
51
328.64194
0
ARC
8
DEFAULT_255_1_388
10
4.6579338
20
116.7995545
40
0.4440242
50
328.8294576
51
331.7891185
0
ARC
8
DEFAULT_255_1_388
10
4.7701658
20
116.7416374
40
0.3177517
50
331.4254512
51
352.9365785
0
ARC
8
DEFAULT_255_1_388
10
4.7854658
20
116.738205
40
0.3021496
50
353.2257659
51
0.0166158
0
ARC
8
DEFAULT_255_1_388
10
4.8091418
20
116.7407894
40
0.2784847
50
359.486299
51
15.9343185
0
ARC
8
DEFAULT_255_1_388
10
4.8661685
20
116.7561269
40
0.2194403
50
16.1712913
51
43.5286088
0
ARC
8
DEFAULT_255_1_388
10
4.874863
20
116.7648191
40
0.2071504
50
43.4417391
51
83.1661095
0
ARC
8
DEFAULT_255_1_388
10
4.8597791
20
116.6819316
40
0.2912888
50
82.160179
51
90.1505708
0
ARC
8
DEFAULT_255_1_388
10
4.8562272
20
116.6215279
40
0.3517025
50
89.5460741
51
102.5418361
0
ARC
8
DEFAULT_255_1_388
10
4.8288992
20
116.7374933
40
0.2325748
50
102.1738499
51
129.206123
0
ARC
8
DEFAULT_255_1_388
10
4.8200446
20
116.7514664
40
0.2161591
50
129.72865
51
135.753947
0
ARC
8
DEFAULT_255_1_388
10
4.8336928
20
116.7405728
40
0.2335433
50
136.1757367
51
166.3673339
0
ARC
8
DEFAULT_255_1_388
10
4.9469616
20
116.7102148
40
0.3507873
50
165.9090694
51
178.8684636
0
ARC
8
DEFAULT_255_1_388
10
5.0445388
20
116.7049263
40
0.4484624
50
178.4391136
51
180.0083808
0
ARC
8
DEFAULT_255_1_388
10
4.8866089
20
116.7093197
40
0.4577138
50
163.2878482
51
180.5581842
0
ARC
8
DEFAULT_255_1_388
10
4.796413
20
116.7341393
40
0.3641968
50
133.4540601
51
162.947111
0
ARC
8
DEFAULT_255_1_388
10
4.8165012
20
116.7127789
40
0.3935189
50
100.7869829
51
133.4382499
0
ARC
8
DEFAULT_255_1_388
10
4.8556257
20
116.5385399
40
0.5720313
50
89.660664
51
101.3702276
0
ARC
8
DEFAULT_255_1_388
10
4.8630866
20
116.5454263
40
0.5651495
50
78.2172678
51
90.412935
0
ARC
8
DEFAULT_255_1_388
10
4.9030332
20
116.7281511
40
0.378122
50
55.9269121
51
78.4888449
0
ARC
8
DEFAULT_255_1_388
10
4.9251047
20
116.7662187
40
0.3342379
50
47.929771
51
55.4049217
0
ARC
8
DEFAULT_255_1_388
10
4.9365577
20
116.7778618
40
0.3179217
50
4.334829
51
48.0560205
0
ARC
8
DEFAULT_255_1_388
10
4.8133379
20
116.7587487
40
0.442341
50
359.9251713
51
5.5971671
0
ARC
8
DEFAULT_255_1_388
10
4.8615534
20
116.7650728
40
0.3941854
50
337.8914027
51
358.9967534
0
ARC
8
DEFAULT_255_1_388
10
4.5563104
20
116.8828295
40
0.7213271
50
326.9132501
51
338.3508308
0
ARC
8
DEFAULT_255_1_388
10
4.1079216
20
117.1702105
40
1.2538973
50
319.6471833
51
327.0959558
0
ARC
8
DEFAULT_255_1_388
10
3.6765874
20
117.526005
40
1.8129975
50
317.2588228
51
319.9045804
0
LINE
8
DEFAULT_255_1_388
10
5.9893727
20
116.8665987
11
5.9893727
21
116.4825838
0
LINE
8
DEFAULT_255_1_388
10
5.9893727
20
116.4825838
11
6.3562199
21
116.4825838
0
LINE
8
DEFAULT_255_1_388
10
6.3562199
20
116.4825838
11
6.3562199
21
116.3244601
0
LINE
8
DEFAULT_255_1_388
10
6.3562199
20
116.3244601
11
5.9893727
21
116.3244601
0
LINE
8
DEFAULT_255_1_388
10
5.9893727
20
116.3244601
11
5.9893727
21
115.9088204
0
LINE
8
DEFAULT_255_1_388
10
5.9893727
20
115.9088204
11
5.8213097
21
115.9088204
0
LINE
8
DEFAULT_255_1_388
10
5.8213097
20
115.9088204
11
5.8213097
21
116.3244601
0
LINE
8
DEFAULT_255_1_388
10
5.8213097
20
116.3244601
11
5.4544625
21
116.3244601
0
LINE
8
DEFAULT_255_1_388
10
5.4544625
20
116.3244601
11
5.4544625
21
116.4825838
0
LINE
8
DEFAULT_255_1_388
10
5.4544625
20
116.4825838
11
5.8213097
21
116.4825838
0
LINE
8
DEFAULT_255_1_388
10
5.8213097
20
116.4825838
11
5.8213097
21
116.8665987
0
LINE
8
DEFAULT_255_1_388
10
5.8213097
20
116.8665987
11
5.9893727
21
116.8665987
0
LINE
8
DEFAULT_255_1_388
10
4.1804367
20
125.0299898
11
4.1804367
21
123.7144
0
LINE
8
DEFAULT_255_1_388
10
4.1804367
20
123.7144
11
4.0069523
21
123.7144
0
LINE
8
DEFAULT_255_1_388
10
4.0069523
20
123.7144
11
4.0069523
21
125.0299898
0
LINE
8
DEFAULT_255_1_388
10
4.0069523
20
125.0299898
11
4.1804367
21
125.0299898
0
LINE
8
DEFAULT_255_1_388
10
5.0035839
20
125.0363148
11
5.0035839
21
123.7144
0
LINE
8
DEFAULT_255_1_388
10
5.0035839
20
123.7144
11
4.8355209
21
123.7144
0
LINE
8
DEFAULT_255_1_388
10
4.8355209
20
123.7144
11
4.8355209
21
124.828495
0
LINE
8
DEFAULT_255_1_388
10
4.8355209
20
124.828495
11
4.4984914
21
124.7047066
0
LINE
8
DEFAULT_255_1_388
10
4.4984914
20
124.7047066
11
4.4984914
21
124.8565055
0
LINE
8
DEFAULT_255_1_388
10
4.4984914
20
124.8565055
11
4.9773805
21
125.0363148
0
LINE
8
DEFAULT_255_1_388
10
4.9773805
20
125.0363148
11
5.0035839
21
125.0363148
0
LINE
8
DEFAULT_255_1_388
10
5.9893727
20
124.8040987
11
5.9893727
21
124.4200838
0
LINE
8
DEFAULT_255_1_388
10
5.9893727
20
124.4200838
11
6.3562199
21
124.4200838
0
LINE
8
DEFAULT_255_1_388
10
6.3562199
20
124.4200838
11
6.3562199
21
124.2619601
0
LINE
8
DEFAULT_255_1_388
10
6.3562199
20
124.2619601
11
5.9893727
21
124.2619601
0
LINE
8
DEFAULT_255_1_388
10
5.9893727
20
124.2619601
11
5.9893727
21
123.8463204
0
LINE
8
DEFAULT_255_1_388
10
5.9893727
20
123.8463204
11
5.8213097
21
123.8463204
0
LINE
8
DEFAULT_255_1_388
10
5.8213097
20
123.8463204
11
5.8213097
21
124.2619601
0
LINE
8
DEFAULT_255_1_388
10
5.8213097
20
124.2619601
11
5.4544625
21
124.2619601
0
LINE
8
DEFAULT_255_1_388
10
5.4544625
20
124.2619601
11
5.4544625
21
124.4200838
0
LINE
8
DEFAULT_255_1_388
10
5.4544625
20
124.4200838
11
5.8213097
21
124.4200838
0
LINE
8
DEFAULT_255_1_388
10
5.8213097
20
124.4200838
11
5.8213097
21
124.8040987
0
LINE
8
DEFAULT_255_1_388
10
5.8213097
20
124.8040987
11
5.9893727
21
124.8040987
0
LINE
8
DEFAULT_255_1_388
10
23.1190856
20
132.429869
11
23.1190856
21
132.2130135
0
LINE
8
DEFAULT_255_1_388
10
22.2887099
20
132.1904244
11
22.2887099
21
132.4136048
0
LINE
8
DEFAULT_255_1_388
10
22.9519262
20
132.1678353
11
22.9519262
21
132.4416153
0
LINE
8
DEFAULT_255_1_388
10
22.4558693
20
132.4542652
11
22.4558693
21
132.1868102
0
ARC
8
DEFAULT_255_1_388
10
21.741319
20
132.2075118
40
1.3777776
50
353.8440855
51
0.2287917
0
ARC
8
DEFAULT_255_1_388
10
22.2632208
20
132.1492414
40
0.852639
50
344.4934746
51
353.9763743
0
ARC
8
DEFAULT_255_1_388
10
22.5999015
20
132.0535191
40
0.5026273
50
329.2803599
51
344.7473406
0
ARC
8
DEFAULT_255_1_388
10
22.7114511
20
131.9923038
40
0.3754848
50
324.9361395
51
328.6153007
0
ARC
8
DEFAULT_255_1_388
10
22.7540161
20
131.9625586
40
0.3235566
50
280.5801797
51
324.9173226
0
ARC
8
DEFAULT_255_1_388
10
22.7088789
20
132.1505236
40
0.5167077
50
269.5979457
51
281.6732777
0
ARC
8
DEFAULT_255_1_388
10
22.7007693
20
132.1370113
40
0.5032026
50
256.6228565
51
270.5105488
0
ARC
8
DEFAULT_255_1_388
10
22.6555435
20
131.9628345
40
0.3233092
50
215.8618351
51
257.2787793
0
ARC
8
DEFAULT_255_1_388
10
22.7704142
20
132.0399106
40
0.4615831
50
197.9695203
51
215.2622745
0
ARC
8
DEFAULT_255_1_388
10
23.0499818
20
132.1342641
40
0.7566307
50
187.8816486
51
198.2346584
0
ARC
8
DEFAULT_255_1_388
10
23.4953056
20
132.1985453
40
1.2065653
50
180.8977266
51
188.0054894
0
ARC
8
DEFAULT_255_1_388
10
23.800327
20
132.21004
40
1.5117443
50
180.7434591
51
181.152202
0
ARC
8
DEFAULT_255_1_388
10
23.6328266
20
132.4190371
40
1.3441277
50
173.7674302
51
180.2315596
0
ARC
8
DEFAULT_255_1_388
10
23.1246135
20
132.4764779
40
0.8326847
50
164.3058537
51
173.9000553
0
ARC
8
DEFAULT_255_1_388
10
22.7970135
20
132.5708652
40
0.4917711
50
148.7922028
51
164.5682288
0
ARC
8
DEFAULT_255_1_388
10
22.6900872
20
132.6305457
40
0.3694204
50
144.5883979
51
148.1161588
0
ARC
8
DEFAULT_255_1_388
10
22.6513618
20
132.6575667
40
0.322202
50
101.6440149
51
144.5142619
0
ARC
8
DEFAULT_255_1_388
10
22.699181
20
132.4675337
40
0.5180451
50
89.528284
51
102.5820197
0
ARC
8
DEFAULT_255_1_388
10
22.7080802
20
132.4631376
40
0.5224441
50
77.0437914
51
90.508231
0
ARC
8
DEFAULT_255_1_388
10
22.7533055
20
132.6479272
40
0.3322297
50
48.2777708
51
77.4996087
0
ARC
8
DEFAULT_255_1_388
10
22.7614795
20
132.6624557
40
0.315966
50
36.3141586
51
47.6307332
0
ARC
8
DEFAULT_255_1_388
10
22.6637518
20
132.5966159
40
0.4337313
50
18.2931065
51
35.6770203
0
ARC
8
DEFAULT_255_1_388
10
22.3776358
20
132.4984107
40
0.7362203
50
8.0246996
51
18.5605636
0
ARC
8
DEFAULT_255_1_388
10
21.9092714
20
132.4292432
40
1.2096583
50
1.127539
51
8.1718423
0
ARC
8
DEFAULT_255_1_388
10
21.5443847
20
132.4149374
40
1.5747719
50
0.5432713
51
1.38669
0
ARC
8
DEFAULT_255_1_388
10
21.7501226
20
132.4456163
40
1.2018103
50
359.8092569
51
4.9408001
0
ARC
8
DEFAULT_255_1_388
10
22.2237807
20
132.48789
40
0.7262727
50
4.8364937
51
12.2906017
0
ARC
8
DEFAULT_255_1_388
10
22.5337272
20
132.5569485
40
0.4087324
50
12.0806994
51
23.8171225
0
ARC
8
DEFAULT_255_1_388
10
22.6657668
20
132.6128508
40
0.2653719
50
24.2874621
51
31.3934353
0
ARC
8
DEFAULT_255_1_388
10
22.7248104
20
132.6514822
40
0.1948607
50
30.7407708
51
82.4658033
0
ARC
8
DEFAULT_255_1_388
10
22.7045765
20
132.5521017
40
0.2961198
50
81.1057101
51
90.2187368
0
ARC
8
DEFAULT_255_1_388
10
22.7005577
20
132.5811421
40
0.2670929
50
89.380395
51
105.6763916
0
ARC
8
DEFAULT_255_1_388
10
22.6799299
20
132.656132
40
0.1893189
50
105.7980655
51
149.7387869
0
ARC
8
DEFAULT_255_1_388
10
22.7996439
20
132.5841719
40
0.3289892
50
149.4208441
51
163.628295
0
ARC
8
DEFAULT_255_1_388
10
23.0348668
20
132.5124345
40
0.5749004
50
163.3764549
51
172.141138
0
ARC
8
DEFAULT_255_1_388
10
23.406139
20
132.4592582
40
0.9499585
50
172.0258462
51
178.0705453
0
ARC
8
DEFAULT_255_1_388
10
23.7482943
20
132.4430682
40
1.2924734
50
177.8639301
51
179.5036263
0
ARC
8
DEFAULT_255_1_388
10
23.6263961
20
132.1827151
40
1.170534
50
179.7995545
51
185.246089
0
ARC
8
DEFAULT_255_1_388
10
23.1715554
20
132.1396404
40
0.7136613
50
185.1411911
51
193.0082205
0
ARC
8
DEFAULT_255_1_388
10
22.8741815
20
132.0693441
40
0.4080987
50
192.7897338
51
205.2507384
0
ARC
8
DEFAULT_255_1_388
10
22.7564025
20
132.0167538
40
0.2791522
50
205.8001921
51
211.2545876
0
ARC
8
DEFAULT_255_1_388
10
22.6975564
20
131.9773132
40
0.2084074
50
210.3789935
51
238.4007996
0
ARC
8
DEFAULT_255_1_388
10
22.695365
20
131.9825786
40
0.2117943
50
239.6521916
51
265.9793852
0
ARC
8
DEFAULT_255_1_388
10
22.7049499
20
132.0582358
40
0.2879689
50
265.1324455
51
270.0603288
0
ARC
8
DEFAULT_255_1_388
10
22.7081876
20
132.0217418
40
0.2514919
50
269.3314378
51
287.2180039
0
ARC
8
DEFAULT_255_1_388
10
22.7236958
20
131.9651291
40
0.1928357
50
287.7957942
51
329.0808983
0
ARC
8
DEFAULT_255_1_388
10
22.6159715
20
132.0323651
40
0.319808
50
328.6635261
51
343.3325043
0
ARC
8
DEFAULT_255_1_388
10
22.3715174
20
132.1085195
40
0.5758408
50
343.0498092
51
351.9392499
0
ARC
8
DEFAULT_255_1_388
10
21.9814496
20
132.1660205
40
0.9701202
50
351.8071632
51
357.7957897
0
ARC
8
DEFAULT_255_1_388
10
21.6179973
20
132.1848724
40
1.3340376
50
357.5870923
51
359.2682493
0
LINE
8
DEFAULT_255_1_388
10
23.4380439
20
132.9674898
11
23.8121196
21
131.8823089
0
LINE
8
DEFAULT_255_1_388
10
23.8121196
20
131.8823089
11
24.1880024
21
132.9674898
0
LINE
8
DEFAULT_255_1_388
10
24.1880024
20
132.9674898
11
24.3777509
21
132.9674898
0
LINE
8
DEFAULT_255_1_388
10
24.3777509
20
132.9674898
11
23.8898261
21
131.6519
0
LINE
8
DEFAULT_255_1_388
10
23.8898261
20
131.6519
11
23.7362202
21
131.6519
0
LINE
8
DEFAULT_255_1_388
10
23.7362202
20
131.6519
11
23.2491989
21
132.9674898
0
LINE
8
DEFAULT_255_1_388
10
23.2491989
20
132.9674898
11
23.4380439
21
132.9674898
0
ENDSEC
0
EOF