0
SECTION
2
HEADER
9
$MEASUREMENT
70
1
0
ENDSEC
0
SECTION
2
TABLES
0
TABLE
2
LTYPE
0
LTYPE
72
65
70
64
2
CONTINUOUS
3
______
73
0
40
0
0
ENDTAB
0
TABLE
2
LAYER
0
LAYER
2
DEFAULT_255_2_778
70
0
62
255
6
CONTINUOUS
0
LAYER
2
DEFAULT_255_1_234
70
0
62
255
6
CONTINUOUS
0
LAYER
2
DEFAULT_255_2_778_1
70
0
62
255
6
CONTINUOUS
0
ENDTAB
0
ENDSEC
0
SECTION
2
ENTITIES
0
ARC
8
DEFAULT_255_2_778
10
3.5700693
20
139.3052021
40
0.7914215
50
129.1312896
51
180.1450914
0
ARC
8
DEFAULT_255_2_778
10
3.5703345
20
139.3056893
40
0.7912112
50
89.854026
51
129.1684493
0
ARC
8
DEFAULT_255_2_778
10
25.7993937
20
139.3053758
40
0.7915249
50
39.4792447
51
90.147911
0
ARC
8
DEFAULT_255_2_778
10
25.7999935
20
139.3052224
40
0.7911595
50
359.8533901
51
39.5154338
0
ARC
8
DEFAULT_255_2_778
10
25.7996693
20
-1.9863501
40
0.7914836
50
309.4761667
51
0.1482649
0
ARC
8
DEFAULT_255_2_778
10
25.799398
20
-1.9867812
40
0.7913235
50
269.8517415
51
309.511178
0
ARC
8
DEFAULT_255_2_778
10
3.570342
20
-1.986723
40
0.7913815
50
219.1282118
51
270.1454017
0
ARC
8
DEFAULT_255_2_778
10
3.5700247
20
-1.9863406
40
0.7913769
50
179.8524075
51
219.1641908
0
LINE
8
DEFAULT_255_2_778
10
3.5723503
20
140.096898
11
25.7973503
21
140.096898
0
LINE
8
DEFAULT_255_2_778
10
26.5911503
20
139.303198
11
26.5911503
21
-1.984302
0
LINE
8
DEFAULT_255_2_778
10
25.7973503
20
-2.778102
11
3.5723503
21
-2.778102
0
LINE
8
DEFAULT_255_2_778
10
2.7786503
20
-1.984302
11
2.7786503
21
139.303198
0
LINE
8
DEFAULT_255_1_234
10
10.9513879
20
0.5181211
11
10.9513879
21
-0.6513
0
LINE
8
DEFAULT_255_1_234
10
10.9513879
20
-0.6513
11
10.7963753
21
-0.6513
0
LINE
8
DEFAULT_255_1_234
10
10.7963753
20
-0.6513
11
10.2076489
21
0.249861
0
LINE
8
DEFAULT_255_1_234
10
10.2076489
20
0.249861
11
10.2076489
21
-0.6513
0
LINE
8
DEFAULT_255_1_234
10
10.2076489
20
-0.6513
11
10.0526364
21
-0.6513
0
LINE
8
DEFAULT_255_1_234
10
10.0526364
20
-0.6513
11
10.0526364
21
0.5181211
0
LINE
8
DEFAULT_255_1_234
10
10.0526364
20
0.5181211
11
10.2076489
21
0.5181211
0
LINE
8
DEFAULT_255_1_234
10
10.2076489
20
0.5181211
11
10.7979817
21
-0.3870558
0
LINE
8
DEFAULT_255_1_234
10
10.7979817
20
-0.3870558
11
10.7979817
21
0.5181211
0
LINE
8
DEFAULT_255_1_234
10
10.7979817
20
0.5181211
11
10.9513879
21
0.5181211
0
LINE
8
DEFAULT_255_1_234
10
11.3385177
20
0.5181211
11
11.6204317
21
0.0699501
0
LINE
8
DEFAULT_255_1_234
10
11.6204317
20
0.0699501
11
11.9007394
21
0.5181211
0
LINE
8
DEFAULT_255_1_234
10
11.9007394
20
0.5181211
11
12.0822566
21
0.5181211
0
LINE
8
DEFAULT_255_1_234
10
12.0822566
20
0.5181211
11
11.7127967
21
-0.0617704
0
LINE
8
DEFAULT_255_1_234
10
11.7127967
20
-0.0617704
11
12.0910916
21
-0.6513
0
LINE
8
DEFAULT_255_1_234
10
12.0910916
20
-0.6513
11
11.9079679
21
-0.6513
0
LINE
8
DEFAULT_255_1_234
10
11.9079679
20
-0.6513
11
11.6204317
21
-0.1950973
0
LINE
8
DEFAULT_255_1_234
10
11.6204317
20
-0.1950973
11
11.3312891
21
-0.6513
0
LINE
8
DEFAULT_255_1_234
10
11.3312891
20
-0.6513
11
11.1489687
21
-0.6513
0
LINE
8
DEFAULT_255_1_234
10
11.1489687
20
-0.6513
11
11.5280667
21
-0.0617704
0
LINE
8
DEFAULT_255_1_234
10
11.5280667
20
-0.0617704
11
11.1578036
21
0.5181211
0
LINE
8
DEFAULT_255_1_234
10
11.1578036
20
0.5181211
11
11.3385177
21
0.5181211
0
LINE
8
DEFAULT_255_1_234
10
12.5191832
20
-0.0938974
11
12.5191832
21
-0.2151766
0
LINE
8
DEFAULT_255_1_234
10
12.5191832
20
-0.2151766
11
12.1272344
21
-0.2151766
0
LINE
8
DEFAULT_255_1_234
10
12.1272344
20
-0.2151766
11
12.1272344
21
-0.0938974
0
LINE
8
DEFAULT_255_1_234
10
12.1272344
20
-0.0938974
11
12.5191832
21
-0.0938974
0
LINE
8
DEFAULT_255_1_234
10
13.4444395
20
-0.6513
11
13.3327983
21
-0.3460939
0
LINE
8
DEFAULT_255_1_234
10
13.3327983
20
-0.3460939
11
12.8428623
21
-0.3460939
0
LINE
8
DEFAULT_255_1_234
10
12.8428623
20
-0.3460939
11
12.7328274
21
-0.6513
0
LINE
8
DEFAULT_255_1_234
10
12.7328274
20
-0.6513
11
12.573799
21
-0.6513
0
LINE
8
DEFAULT_255_1_234
10
12.573799
20
-0.6513
11
13.0203637
21
0.5181211
0
LINE
8
DEFAULT_255_1_234
10
13.0203637
20
0.5181211
11
13.1552969
21
0.5181211
0
LINE
8
DEFAULT_255_1_234
10
13.1552969
20
0.5181211
11
13.6026647
21
-0.6513
0
LINE
8
DEFAULT_255_1_234
10
13.6026647
20
-0.6513
11
13.4444395
21
-0.6513
0
LINE
8
DEFAULT_255_1_234
10
13.0878303
20
0.3277689
11
12.8894463
21
-0.2191925
0
LINE
8
DEFAULT_255_1_234
10
12.8894463
20
-0.2191925
11
13.2870174
21
-0.2191925
0
LINE
8
DEFAULT_255_1_234
10
13.2870174
20
-0.2191925
11
13.0878303
21
0.3277689
0
LINE
8
DEFAULT_255_1_234
10
14.0837658
20
-0.6513
11
13.7600868
21
-0.6513
0
LINE
8
DEFAULT_255_1_234
10
13.7600868
20
-0.6513
11
13.7600868
21
0.5181211
0
LINE
8
DEFAULT_255_1_234
10
13.7600868
20
0.5181211
11
14.0901912
21
0.5181211
0
LINE
8
DEFAULT_255_1_234
10
14.6058288
20
-0.0272339
11
14.6058288
21
-0.1019291
0
LINE
8
DEFAULT_255_1_234
10
14.0942071
20
0.3912196
11
13.9142961
21
0.3912196
0
LINE
8
DEFAULT_255_1_234
10
13.9142961
20
0.3912196
11
13.9142961
21
-0.5252017
0
LINE
8
DEFAULT_255_1_234
10
13.9142961
20
-0.5252017
11
14.0765373
21
-0.5252017
0
LINE
8
DEFAULT_255_1_234
10
14.4532258
20
-0.0987164
11
14.4532258
21
-0.0304466
0
ARC
8
DEFAULT_255_1_234
10
14.0940855
20
-0.0684106
40
0.5865446
50
75.4101064
51
90.3804066
0
ARC
8
DEFAULT_255_1_234
10
14.1170368
20
0.0272492
40
0.4881916
50
60.145586
51
75.1888407
0
ARC
8
DEFAULT_255_1_234
10
14.1329144
20
0.0549199
40
0.4562893
50
26.5253612
51
60.1450928
0
ARC
8
DEFAULT_255_1_234
10
14.0208893
20
-0.0044842
40
0.5830602
50
7.4030428
51
26.8320788
0
ARC
8
DEFAULT_255_1_234
10
13.861465
20
-0.0293196
40
0.7443669
50
0.1605367
51
7.7176192
0
ARC
8
DEFAULT_255_1_234
10
13.8778554
20
-0.1057566
40
0.7279835
50
348.7289388
51
0.3012466
0
ARC
8
DEFAULT_255_1_234
10
14.0434985
20
-0.1386614
40
0.559104
50
333.0706509
51
348.7181832
0
ARC
8
DEFAULT_255_1_234
10
14.1401742
20
-0.1911681
40
0.4491417
50
299.2531685
51
333.4571258
0
ARC
8
DEFAULT_255_1_234
10
14.1040882
20
-0.1226172
40
0.5265881
50
278.107187
51
299.0339503
0
ARC
8
DEFAULT_255_1_234
10
14.0784961
20
0.0281216
40
0.679442
50
270.4443897
51
278.4511052
0
ARC
8
DEFAULT_255_1_234
10
14.0805791
20
-0.0647787
40
0.4604407
50
269.4970433
51
284.0205042
0
ARC
8
DEFAULT_255_1_234
10
14.1161092
20
-0.2013022
40
0.3193797
50
283.7700273
51
318.1555492
0
ARC
8
DEFAULT_255_1_234
10
14.082385
20
-0.1760633
40
0.3613588
50
318.7415601
51
343.6873628
0
ARC
8
DEFAULT_255_1_234
10
13.9019873
20
-0.1197168
40
0.5503313
50
343.3325091
51
355.8548958
0
ARC
8
DEFAULT_255_1_234
10
13.6921557
20
-0.0997681
40
0.7610708
50
355.4988528
51
0.0791727
0
ARC
8
DEFAULT_255_1_234
10
13.770418
20
-0.026222
40
0.6828208
50
359.6455037
51
9.8607896
0
ARC
8
DEFAULT_255_1_234
10
14.0064878
20
0.0164099
40
0.4429406
50
9.6571907
51
26.1932807
0
ARC
8
DEFAULT_255_1_234
10
14.0992867
20
0.0595118
40
0.3406537
50
26.5777228
51
40.1532208
0
ARC
8
DEFAULT_255_1_234
10
14.1248593
20
0.0794619
40
0.308246
50
40.3840491
51
80.1431104
0
ARC
8
DEFAULT_255_1_234
10
14.0921711
20
-0.0654667
40
0.4566909
50
79.2152159
51
89.7445637
0
LINE
8
DEFAULT_255_1_234
10
15.4274756
20
0.5181211
11
15.4274756
21
-0.258548
0
LINE
8
DEFAULT_255_1_234
10
15.4274756
20
-0.258548
11
15.5897167
21
-0.258548
0
LINE
8
DEFAULT_255_1_234
10
15.5897167
20
-0.258548
11
15.5897167
21
-0.3798272
0
LINE
8
DEFAULT_255_1_234
10
15.5897167
20
-0.3798272
11
15.4274756
21
-0.3798272
0
LINE
8
DEFAULT_255_1_234
10
15.4274756
20
-0.3798272
11
15.4274756
21
-0.6513
0
LINE
8
DEFAULT_255_1_234
10
15.4274756
20
-0.6513
11
15.2780853
21
-0.6513
0
LINE
8
DEFAULT_255_1_234
10
15.2780853
20
-0.6513
11
15.2780853
21
-0.3798272
0
LINE
8
DEFAULT_255_1_234
10
15.2780853
20
-0.3798272
11
14.7455811
21
-0.3798272
0
LINE
8
DEFAULT_255_1_234
10
14.7455811
20
-0.3798272
11
14.7455811
21
-0.2922813
0
LINE
8
DEFAULT_255_1_234
10
14.7455811
20
-0.2922813
11
15.2692504
21
0.5181211
0
LINE
8
DEFAULT_255_1_234
10
15.2692504
20
0.5181211
11
15.4274756
21
0.5181211
0
LINE
8
DEFAULT_255_1_234
10
15.2604155
20
0.2827912
11
14.9142476
21
-0.258548
0
LINE
8
DEFAULT_255_1_234
10
14.9142476
20
-0.258548
11
15.2780853
21
-0.258548
0
LINE
8
DEFAULT_255_1_234
10
15.2780853
20
-0.258548
11
15.2780853
21
0.3149181
0
LINE
8
DEFAULT_255_1_234
10
15.2780853
20
0.3149181
11
15.2604155
21
0.2827912
0
LINE
8
DEFAULT_255_1_234
10
16.4900746
20
-0.5300208
11
16.4900746
21
-0.6513
0
LINE
8
DEFAULT_255_1_234
10
16.4900746
20
-0.6513
11
15.7238468
21
-0.6513
0
LINE
8
DEFAULT_255_1_234
10
15.7238468
20
-0.6513
11
15.7238468
21
-0.5444779
0
LINE
8
DEFAULT_255_1_234
10
15.7238468
20
-0.5444779
11
16.1286464
21
-0.0947005
0
LINE
8
DEFAULT_255_1_234
10
15.8499451
20
0.1735595
11
15.7013579
21
0.1735595
0
LINE
8
DEFAULT_255_1_234
10
16.2161923
20
-0.1902782
11
15.9029545
21
-0.5300208
0
LINE
8
DEFAULT_255_1_234
10
15.9029545
20
-0.5300208
11
16.4900746
21
-0.5300208
0
ARC
8
DEFAULT_255_1_234
10
14.7796297
20
1.0982527
40
1.8008286
50
318.5132453
51
320.7828378
0
ARC
8
DEFAULT_255_1_234
10
15.3083272
20
0.6679426
40
1.1191493
50
320.7372736
51
323.9737074
0
ARC
8
DEFAULT_255_1_234
10
15.7003128
20
0.3839361
40
0.6350923
50
323.8961724
51
328.6421089
0
ARC
8
DEFAULT_255_1_234
10
15.9049723
20
0.2577031
40
0.3946393
50
328.8299013
51
331.789948
0
ARC
8
DEFAULT_255_1_234
10
16.0046902
20
0.2062509
40
0.2824501
50
331.4255242
51
352.9364833
0
ARC
8
DEFAULT_255_1_234
10
16.0183403
20
0.2031976
40
0.2685315
50
353.2248685
51
0.0169286
0
ARC
8
DEFAULT_255_1_234
10
16.0393279
20
0.205495
40
0.2475536
50
359.4866256
51
15.9339782
0
ARC
8
DEFAULT_255_1_234
10
16.0900265
20
0.2191286
40
0.1950618
50
16.1714718
51
43.5284424
0
ARC
8
DEFAULT_255_1_234
10
16.0977573
20
0.2268573
40
0.184134
50
43.4415429
51
83.1661404
0
ARC
8
DEFAULT_255_1_234
10
16.0843491
20
0.1531771
40
0.258926
50
82.160215
51
90.1505798
0
ARC
8
DEFAULT_255_1_234
10
16.0811919
20
0.0994865
40
0.3126255
50
89.5460705
51
102.5418777
0
ARC
8
DEFAULT_255_1_234
10
16.0569005
20
0.2025665
40
0.2067346
50
102.1739365
51
129.2061916
0
ARC
8
DEFAULT_255_1_234
10
16.0490077
20
0.2150094
40
0.1921118
50
129.7279328
51
135.7542026
0
ARC
8
DEFAULT_255_1_234
10
16.0611604
20
0.2053045
40
0.2075944
50
136.175737
51
166.3674722
0
ARC
8
DEFAULT_255_1_234
10
16.1618524
20
0.1783182
40
0.3118201
50
165.9092917
51
178.8683903
0
ARC
8
DEFAULT_255_1_234
10
16.2483385
20
0.1736179
40
0.3983935
50
178.438168
51
180.0083905
0
ARC
8
DEFAULT_255_1_234
10
16.1081987
20
0.1775231
40
0.4068601
50
163.2878735
51
180.5581814
0
ARC
8
DEFAULT_255_1_234
10
16.0280248
20
0.199584
40
0.3237344
50
133.454115
51
162.9470031
0
ARC
8
DEFAULT_255_1_234
10
16.045879
20
0.1806
40
0.349795
50
100.7869394
51
133.4384016
0
ARC
8
DEFAULT_255_1_234
10
16.0806561
20
0.0257319
40
0.5084616
50
89.6605301
51
101.3704185
0
ARC
8
DEFAULT_255_1_234
10
16.08729
20
0.0318496
40
0.502348
50
78.2171172
51
90.4130393
0
ARC
8
DEFAULT_255_1_234
10
16.1227978
20
0.1942637
40
0.3361092
50
55.9268222
51
78.4888551
0
ARC
8
DEFAULT_255_1_234
10
16.1424418
20
0.2281324
40
0.2970617
50
47.9292255
51
55.4054003
0
ARC
8
DEFAULT_255_1_234
10
16.1525979
20
0.2384502
40
0.2825983
50
4.3347696
51
48.0560701
0
ARC
8
DEFAULT_255_1_234
10
16.0430373
20
0.2214601
40
0.393225
50
359.925209
51
5.5967654
0
ARC
8
DEFAULT_255_1_234
10
16.0859264
20
0.2270816
40
0.3503892
50
337.8914096
51
358.9967724
0
ARC
8
DEFAULT_255_1_234
10
15.8145677
20
0.3317706
40
0.6412172
50
326.9135351
51
338.3505194
0
ARC
8
DEFAULT_255_1_234
10
15.415998
20
0.5872284
40
1.1146189
50
319.6472867
51
327.095818
0
ARC
8
DEFAULT_255_1_234
10
15.0326983
20
0.9034
40
1.6114559
50
317.2586784
51
319.9046139
0
LINE
8
DEFAULT_255_1_234
10
17.3807944
20
0.0402327
11
17.3807944
21
-0.1525291
0
LINE
8
DEFAULT_255_1_234
10
16.6426776
20
-0.1726084
11
16.6426776
21
0.0257755
0
LINE
8
DEFAULT_255_1_234
10
17.2322072
20
-0.1926877
11
17.2322072
21
0.0506739
0
LINE
8
DEFAULT_255_1_234
10
16.7912648
20
0.0619184
11
16.7912648
21
-0.1758211
0
ARC
8
DEFAULT_255_1_234
10
16.1560833
20
-0.1574195
40
1.2247208
50
353.8441951
51
0.2287902
0
ARC
8
DEFAULT_255_1_234
10
16.6200337
20
-0.2092194
40
0.7578929
50
344.4934747
51
353.9765454
0
ARC
8
DEFAULT_255_1_234
10
16.9192927
20
-0.2943019
40
0.4467846
50
329.2803592
51
344.7472793
0
ARC
8
DEFAULT_255_1_234
10
17.0185752
20
-0.3487982
40
0.3336173
50
324.9352394
51
328.6160465
0
ARC
8
DEFAULT_255_1_234
10
17.0562861
20
-0.3751573
40
0.2876076
50
280.580143
51
324.9173126
0
ARC
8
DEFAULT_255_1_234
10
17.0161653
20
-0.2080901
40
0.4592847
50
269.5977311
51
281.6734359
0
ARC
8
DEFAULT_255_1_234
10
17.0089559
20
-0.2200827
40
0.4472986
50
256.6228859
51
270.51044
0
ARC
8
DEFAULT_255_1_234
10
16.9687537
20
-0.3749123
40
0.2873874
50
215.8618325
51
257.2788573
0
ARC
8
DEFAULT_255_1_234
10
17.0708568
20
-0.3064023
40
0.4102928
50
197.9693508
51
215.2623606
0
ARC
8
DEFAULT_255_1_234
10
17.3193684
20
-0.2225291
40
0.6725652
50
187.8816417
51
198.2346507
0
ARC
8
DEFAULT_255_1_234
10
17.7151892
20
-0.1653921
40
1.0724845
50
180.8976217
51
188.0055519
0
ARC
8
DEFAULT_255_1_234
10
17.9952081
20
-0.1550223
40
1.3526448
50
180.7449369
51
181.1510016
0
ARC
8
DEFAULT_255_1_234
10
17.837481
20
0.0306042
40
1.1948131
50
173.7675579
51
180.231553
0
ARC
8
DEFAULT_255_1_234
10
17.3856956
20
0.0816666
40
0.7401564
50
164.3058563
51
173.9002247
0
ARC
8
DEFAULT_255_1_234
10
17.0945025
20
0.1655656
40
0.4371288
50
148.7922025
51
164.568378
0
ARC
8
DEFAULT_255_1_234
10
16.9993477
20
0.2186929
40
0.3282386
50
144.5883898
51
148.1176286
0
ARC
8
DEFAULT_255_1_234
10
16.9650375
20
0.2426315
40
0.2864044
50
101.6440918
51
144.514236
0
ARC
8
DEFAULT_255_1_234
10
17.0075442
20
0.0737069
40
0.4604934
50
89.5284041
51
102.5819763
0
ARC
8
DEFAULT_255_1_234
10
17.015453
20
0.0698018
40
0.464401
50
77.0437873
51
90.5081339
0
ARC
8
DEFAULT_255_1_234
10
17.0556531
20
0.2340615
40
0.2953195
50
48.2778575
51
77.4994676
0
ARC
8
DEFAULT_255_1_234
10
17.0629163
20
0.2469746
40
0.2808655
50
36.3142134
51
47.6305865
0
ARC
8
DEFAULT_255_1_234
10
16.976047
20
0.1884515
40
0.3855453
50
18.2931786
51
35.6769206
0
ARC
8
DEFAULT_255_1_234
10
16.7217228
20
0.1011593
40
0.654423
50
8.024666
51
18.5605216
0
ARC
8
DEFAULT_255_1_234
10
16.3054148
20
0.0396792
40
1.0752407
50
1.1274072
51
8.1718305
0
ARC
8
DEFAULT_255_1_234
10
15.9818339
20
0.0269885
40
1.3990231
50
0.5424119
51
1.3863029
0
ARC
8
DEFAULT_255_1_234
10
16.1639717
20
0.0542342
40
1.0682415
50
359.8090433
51
4.9407866
0
ARC
8
DEFAULT_255_1_234
10
16.5849731
20
0.0918113
40
0.6455691
50
4.8362157
51
12.2904523
0
ARC
8
DEFAULT_255_1_234
10
16.8604846
20
0.1531965
40
0.3633074
50
12.0805627
51
23.8173984
0
ARC
8
DEFAULT_255_1_234
10
16.9778551
20
0.2028919
40
0.2358723
50
24.2871213
51
31.3935614
0
ARC
8
DEFAULT_255_1_234
10
17.0303248
20
0.2372233
40
0.1732111
50
30.7407893
51
82.4657128
0
ARC
8
DEFAULT_255_1_234
10
17.0123383
20
0.1488691
40
0.263235
50
81.1060089
51
90.2184952
0
ARC
8
DEFAULT_255_1_234
10
17.0087681
20
0.1746924
40
0.2374236
50
89.3806855
51
105.6762551
0
ARC
8
DEFAULT_255_1_234
10
16.9904312
20
0.2413567
40
0.1682847
50
105.7981136
51
149.7388061
0
ARC
8
DEFAULT_255_1_234
10
17.096839
20
0.177395
40
0.2924306
50
149.4208916
51
163.6286378
0
ARC
8
DEFAULT_255_1_234
10
17.3059278
20
0.113625
40
0.5110213
50
163.3763315
51
172.1410975
0
ARC
8
DEFAULT_255_1_234
10
17.6359997
20
0.0663518
40
0.8444586
50
172.0259487
51
178.0703232
0
ARC
8
DEFAULT_255_1_234
10
17.9390087
20
0.0519906
40
1.1477868
50
177.8631668
51
179.5044149
0
ARC
8
DEFAULT_255_1_234
10
17.8317491
20
-0.1794611
40
1.0404907
50
179.7995573
51
185.2460446
0
ARC
8
DEFAULT_255_1_234
10
17.4274531
20
-0.2177487
40
0.6343885
50
185.1411642
51
193.0079639
0
ARC
8
DEFAULT_255_1_234
10
17.1631003
20
-0.2802359
40
0.3627568
50
192.7897626
51
205.2507664
0
ARC
8
DEFAULT_255_1_234
10
17.058455
20
-0.3269585
40
0.2481908
50
205.8005384
51
211.2537509
0
ARC
8
DEFAULT_255_1_234
10
17.0060991
20
-0.362042
40
0.1852521
50
210.3789793
51
238.4008143
0
ARC
8
DEFAULT_255_1_234
10
17.0041513
20
-0.3573624
40
0.1882621
50
239.6520629
51
265.9793761
0
ARC
8
DEFAULT_255_1_234
10
17.0126713
20
-0.2901573
40
0.2559272
50
265.1315437
51
270.060332
0
ARC
8
DEFAULT_255_1_234
10
17.0155492
20
-0.3225466
40
0.2235528
50
269.3314664
51
287.2178029
0
ARC
8
DEFAULT_255_1_234
10
17.0293343
20
-0.3728721
40
0.1714108
50
287.7958004
51
329.080874
0
ARC
8
DEFAULT_255_1_234
10
16.93358
20
-0.313107
40
0.2842745
50
328.6634704
51
343.3325132
0
ARC
8
DEFAULT_255_1_234
10
16.716282
20
-0.2454137
40
0.5118644
50
343.0499468
51
351.9393422
0
ARC
8
DEFAULT_255_1_234
10
16.369612
20
-0.1943051
40
0.8622784
50
351.8069023
51
357.7959224
0
ARC
8
DEFAULT_255_1_234
10
16.0460676
20
-0.1775279
40
1.1862365
50
357.5871873
51
359.2677531
0
ARC
8
DEFAULT_255_1_234
10
17.9981249
20
0.2103703
40
0.2822356
50
338.8763615
51
0.5166041
0
ARC
8
DEFAULT_255_1_234
10
18.0149904
20
0.2058208
40
0.2648703
50
325.8412414
51
338.4795939
0
ARC
8
DEFAULT_255_1_234
10
17.9759271
20
0.2329042
40
0.3124019
50
296.7586019
51
325.753654
0
ARC
8
DEFAULT_255_1_234
10
17.947138
20
0.2813789
40
0.368668
50
296.0902311
51
297.3618122
0
ARC
8
DEFAULT_255_1_234
10
17.9728838
20
-0.3740959
40
0.3518806
50
47.9009248
51
67.1946869
0
ARC
8
DEFAULT_255_1_234
10
17.9925079
20
-0.3494605
40
0.320451
50
35.236241
51
47.551371
0
ARC
8
DEFAULT_255_1_234
10
18.0186697
20
-0.3320007
40
0.2890103
50
359.2759738
51
35.4014081
0
ARC
8
DEFAULT_255_1_234
10
17.9441729
20
-0.3393174
40
0.3635026
50
343.1294516
51
0.5776525
0
ARC
8
DEFAULT_255_1_234
10
18.0166273
20
-0.359267
40
0.2883832
50
310.8497458
51
342.744803
0
ARC
8
DEFAULT_255_1_234
10
17.9748387
20
-0.3115706
40
0.3517954
50
281.5473923
51
310.9169905
0
ARC
8
DEFAULT_255_1_234
10
17.9391836
20
-0.1562916
40
0.5110832
50
269.6192722
51
281.9789957
0
ARC
8
DEFAULT_255_1_234
10
17.9319625
20
-0.1562172
40
0.5111606
50
257.4584469
51
270.4287458
0
ARC
8
DEFAULT_255_1_234
10
17.8938768
20
-0.3165656
40
0.3463762
50
228.7553743
51
257.8484423
0
ARC
8
DEFAULT_255_1_234
10
17.8628967
20
-0.3538558
40
0.297916
50
184.0104442
51
228.5071787
0
ARC
8
DEFAULT_255_1_234
10
17.9791911
20
-0.3361488
40
0.4152734
50
179.9315461
51
185.3254504
0
ARC
8
DEFAULT_255_1_234
10
17.8615556
20
-0.3324008
40
0.2976554
50
145.6795913
51
180.6259649
0
ARC
8
DEFAULT_255_1_234
10
17.8778906
20
-0.3438071
40
0.3175776
50
115.5537925
51
145.6416199
0
ARC
8
DEFAULT_255_1_234
10
17.9119836
20
-0.4048972
40
0.3874232
50
113.2437915
51
116.2054627
0
ARC
8
DEFAULT_255_1_234
10
17.8967048
20
0.234958
40
0.3154751
50
222.9548379
51
244.1372485
0
ARC
8
DEFAULT_255_1_234
10
17.8845124
20
0.2212834
40
0.2972382
50
213.3439227
51
222.6271327
0
ARC
8
DEFAULT_255_1_234
10
17.8653058
20
0.2082308
40
0.274019
50
180.4316517
51
213.2713999
0
ARC
8
DEFAULT_255_1_234
10
17.9228059
20
0.212911
40
0.33158
50
179.9992944
51
181.1655061
0
ARC
8
DEFAULT_255_1_234
10
17.9637477
20
0.2163561
40
0.3725376
50
164.6186108
51
180.5292368
0
ARC
8
DEFAULT_255_1_234
10
17.8739339
20
0.2405101
40
0.2795349
50
132.2454369
51
164.5092287
0
ARC
8
DEFAULT_255_1_234
10
17.9026443
20
0.2080028
40
0.3229019
50
100.7052766
51
132.1387266
0
ARC
8
DEFAULT_255_1_234
10
17.9331416
20
0.0702086
40
0.4639835
50
89.6732617
51
101.2449487
0
ARC
8
DEFAULT_255_1_234
10
17.9393614
20
0.087699
40
0.4464999
50
76.2876631
51
90.4586123
0
ARC
8
DEFAULT_255_1_234
10
17.9699845
20
0.209922
40
0.3205023
50
47.8240157
51
76.4266918
0
ARC
8
DEFAULT_255_1_234
10
17.9922395
20
0.235959
40
0.2862661
50
6.9168658
51
47.6261438
0
ARC
8
DEFAULT_255_1_234
10
17.8735798
20
0.214037
40
0.4067708
50
359.8419705
51
7.9694496
0
ARC
8
DEFAULT_255_1_234
10
17.9077695
20
-0.3300075
40
0.2513121
50
359.4454068
51
16.9256425
0
ARC
8
DEFAULT_255_1_234
10
17.9546506
20
-0.3170967
40
0.2027071
50
17.292259
51
45.462717
0
ARC
8
DEFAULT_255_1_234
10
17.9492442
20
-0.3217566
40
0.2098212
50
45.3028762
51
83.1921472
0
ARC
8
DEFAULT_255_1_234
10
17.9349127
20
-0.4019105
40
0.2911472
50
82.2614531
51
90.143954
0
ARC
8
DEFAULT_255_1_234
10
17.9318247
20
-0.378605
40
0.2678513
50
89.4959189
51
104.8579811
0
ARC
8
DEFAULT_255_1_234
10
17.9141505
20
-0.311611
40
0.1985654
50
104.8855873
51
135.2448349
0
ARC
8
DEFAULT_255_1_234
10
17.9191278
20
-0.3160664
40
0.2052373
50
135.3398955
51
172.104394
0
ARC
8
DEFAULT_255_1_234
10
17.9998336
20
-0.3315075
40
0.2873299
50
171.2651929
51
180.1859362
0
ARC
8
DEFAULT_255_1_234
10
17.9829038
20
-0.3347267
40
0.2704083
50
179.515471
51
193.6466734
0
ARC
8
DEFAULT_255_1_234
10
17.9012807
20
-0.3555223
40
0.1861855
50
193.3540587
51
225.8256931
0
ARC
8
DEFAULT_255_1_234
10
17.9053564
20
-0.3484476
40
0.1941102
50
226.418029
51
255.8553723
0
ARC
8
DEFAULT_255_1_234
10
17.9309996
20
-0.2548002
40
0.2911917
50
255.4655572
51
268.7985967
0
ARC
8
DEFAULT_255_1_234
10
17.9357188
20
-0.1709509
40
0.3751331
50
268.3464808
51
270.0104874
0
ARC
8
DEFAULT_255_1_234
10
17.9380576
20
-0.2393862
40
0.3067064
50
269.575914
51
282.0823146
0
ARC
8
DEFAULT_255_1_234
10
17.9605486
20
-0.3388197
40
0.2047712
50
281.7522535
51
306.6056425
0
ARC
8
DEFAULT_255_1_234
10
17.9703912
20
-0.3549513
40
0.1859604
50
307.1350025
51
314.0277951
0
ARC
8
DEFAULT_255_1_234
10
17.9667996
20
-0.3523234
40
0.1903475
50
314.2553419
51
350.169324
0
ARC
8
DEFAULT_255_1_234
10
17.8816464
20
-0.3338591
40
0.2774269
50
349.4145679
51
0.2930737
0
ARC
8
DEFAULT_255_1_234
10
17.9336897
20
0.1820353
40
0.2300764
50
89.477591
51
105.729794
0
ARC
8
DEFAULT_255_1_234
10
17.9200811
20
0.2325637
40
0.1777519
50
105.922966
51
135.1662921
0
ARC
8
DEFAULT_255_1_234
10
17.9221313
20
0.2311419
40
0.1802087
50
135.3053131
51
168.9882338
0
ARC
8
DEFAULT_255_1_234
10
18.0048886
20
0.2121721
40
0.2650806
50
168.3802067
51
180.3602358
0
ARC
8
DEFAULT_255_1_234
10
17.9820465
20
0.2084041
40
0.2422425
50
179.5029707
51
194.9126783
0
ARC
8
DEFAULT_255_1_234
10
17.9235126
20
0.193011
40
0.1817188
50
194.9722181
51
224.1943972
0
ARC
8
DEFAULT_255_1_234
10
17.9206994
20
0.1907169
40
0.1781027
50
224.2961434
51
262.0157375
0
ARC
8
DEFAULT_255_1_234
10
17.9349236
20
0.2638661
40
0.2525492
50
261.1250369
51
270.1959853
0
ARC
8
DEFAULT_255_1_234
10
17.9378991
20
0.2451339
40
0.233825
50
269.4825617
51
285.0988277
0
ARC
8
DEFAULT_255_1_234
10
17.9533151
20
0.187299
40
0.1739712
50
285.1585659
51
315.9484648
0
ARC
8
DEFAULT_255_1_234
10
17.9444162
20
0.1954886
40
0.1860616
50
316.0412958
51
351.9162715
0
ARC
8
DEFAULT_255_1_234
10
17.8711117
20
0.2096245
40
0.2606517
50
351.1056823
51
0.1936567
0
ARC
8
DEFAULT_255_1_234
10
17.8973946
20
0.2126369
40
0.234377
50
359.4789506
51
16.0679113
0
ARC
8
DEFAULT_255_1_234
10
17.9449905
20
0.225481
40
0.1850875
50
16.3251951
51
44.791304
0
ARC
8
DEFAULT_255_1_234
10
17.9432186
20
0.2255339
40
0.186312
50
44.3958661
51
88.2498933
0
ARC
8
DEFAULT_255_1_234
10
17.935874
20
0.1644154
40
0.2476868
50
86.9833827
51
90.0200148
0
ARC
8
DEFAULT_255_2_778
10
15.0733635
20
137.8607757
40
0.3782991
50
0.3791625
51
91.2888722
0
ARC
8
DEFAULT_255_2_778
10
15.0712556
20
137.8578625
40
0.3804373
50
269.035893
51
0.8157951
0
ARC
8
DEFAULT_255_2_778
10
15.2298414
20
137.8451903
40
0.764498
50
290.7706876
51
357.5425648
0
ARC
8
DEFAULT_255_2_778
10
15.1444777
20
137.863208
40
0.8506767
50
356.5766106
51
0.0047928
0
LINE
8
DEFAULT_255_2_778
10
15.9951543
20
137.8632791
11
15.9951544
21
137.8636491
0
ARC
8
DEFAULT_255_2_778
10
15.1450863
20
137.8644642
40
0.8500685
50
359.9450654
51
50.5390341
0
ARC
8
DEFAULT_255_2_778
10
15.1444941
20
137.8669565
40
0.8485231
50
50.4011998
51
90.0499498
0
ARC
8
DEFAULT_255_2_778
10
19.9749167
20
137.8543388
40
0.3846416
50
1.3318655
51
90.1433517
0
ARC
8
DEFAULT_255_2_778
10
20.032532
20
137.8476399
40
0.8701301
50
359.7589483
51
41.4305054
0
ARC
8
DEFAULT_255_2_778
10
20.0366159
20
137.8494682
40
0.8658593
50
41.5186192
51
87.8931913
0
ARC
8
DEFAULT_255_2_778
10
20.0318882
20
137.8081194
40
0.9073597
50
87.6908463
51
90.0021405
0
ARC
8
DEFAULT_255_2_778
10
12.7283013
20
137.8611978
40
0.3778587
50
0.315598
51
91.1596115
0
ARC
8
DEFAULT_255_2_778
10
12.780832
20
137.8476399
40
0.8701301
50
359.7589483
51
41.4305054
0
ARC
8
DEFAULT_255_2_778
10
12.7849159
20
137.8494682
40
0.8658593
50
41.5186192
51
87.8931913
0
ARC
8
DEFAULT_255_2_778
10
12.7801882
20
137.8081194
40
0.9073597
50
87.6908463
51
90.0021405
0
ARC
8
DEFAULT_255_2_778
10
17.3607953
20
137.4526363
40
1.2832573
50
232.9444752
51
270.0294264
0
ARC
8
DEFAULT_255_2_778
10
17.3747185
20
137.4752392
40
1.309688
50
187.7220619
51
233.0542317
0
ARC
8
DEFAULT_255_2_778
10
17.394046
20
137.4771092
40
1.3290916
50
179.9840519
51
187.6899902
0
ARC
8
DEFAULT_255_2_778
10
17.3611
20
137.4740626
40
1.2961502
50
146.5724431
51
179.8489741
0
ARC
8
DEFAULT_255_2_778
10
17.3664526
20
137.4726858
40
1.3013772
50
96.2207161
51
146.651674
0
ARC
8
DEFAULT_255_2_778
10
17.3665782
20
137.4577094
40
1.3162799
50
90.223036
51
96.1555121
0
ARC
8
DEFAULT_255_2_778
10
17.3635865
20
137.4704986
40
1.3034823
50
58.1053732
51
90.0937227
0
ARC
8
DEFAULT_255_2_778
10
17.3697488
20
137.4737602
40
1.297462
50
3.9625434
51
58.2603135
0
ARC
8
DEFAULT_255_2_778
10
17.3698045
20
137.477556
40
1.2971498
50
359.9966051
51
3.7954532
0
ARC
8
DEFAULT_255_2_778
10
17.3615109
20
137.4748085
40
1.3054462
50
328.1074285
51
0.1172153
0
ARC
8
DEFAULT_255_2_778
10
17.3626009
20
137.4728496
40
1.3034863
50
276.1451864
51
328.1552184
0
ARC
8
DEFAULT_255_2_778
10
17.361704
20
137.4924075
40
1.3230283
50
269.9891883
51
276.0931369
0
ARC
8
DEFAULT_255_2_778
10
17.365616
20
137.47204
40
0.7573723
50
269.6851627
51
316.0204287
0
ARC
8
DEFAULT_255_2_778
10
17.3607868
20
137.4730889
40
0.7615801
50
316.2159375
51
0.3302942
0
ARC
8
DEFAULT_255_2_778
10
17.3696724
20
137.4767627
40
0.7526823
50
0.0545399
51
85.3801077
0
ARC
8
DEFAULT_255_2_778
10
17.3615889
20
137.4363031
40
0.793676
50
85.0337063
51
90.0097107
0
ARC
8
DEFAULT_255_2_778
10
17.3608055
20
137.4776224
40
0.7523571
50
89.950584
51
177.7945888
0
ARC
8
DEFAULT_255_2_778
10
17.3749575
20
137.4775059
40
0.7665032
50
177.8265967
51
180.0019985
0
ARC
8
DEFAULT_255_2_778
10
17.3738539
20
137.4735227
40
0.7654098
50
179.7038321
51
222.1989357
0
ARC
8
DEFAULT_255_2_778
10
17.3596298
20
137.4614205
40
0.7467434
50
222.2441262
51
270.1399959
0
ARC
8
DEFAULT_255_2_778
10
9.3661953
20
137.4526363
40
1.2832573
50
232.9444752
51
270.0294264
0
ARC
8
DEFAULT_255_2_778
10
9.3801185
20
137.4752392
40
1.309688
50
187.7220619
51
233.0542317
0
ARC
8
DEFAULT_255_2_778
10
9.399446
20
137.4771092
40
1.3290916
50
179.9840519
51
187.6899902
0
ARC
8
DEFAULT_255_2_778
10
9.3661435
20
137.4742375
40
1.2957932
50
146.5712859
51
179.856664
0
ARC
8
DEFAULT_255_2_778
10
9.3718497
20
137.4726083
40
1.3014542
50
96.2202672
51
146.6498182
0
ARC
8
DEFAULT_255_2_778
10
9.371979
20
137.457672
40
1.3163172
50
90.2230618
51
96.1554199
0
ARC
8
DEFAULT_255_2_778
10
9.3689712
20
137.4706994
40
1.3032814
50
58.1028503
51
90.093062
0
ARC
8
DEFAULT_255_2_778
10
9.3750118
20
137.473756
40
1.2974994
50
3.9626176
51
58.2579977
0
ARC
8
DEFAULT_255_2_778
10
9.3751045
20
137.477556
40
1.2971498
50
359.9966051
51
3.7954532
0
ARC
8
DEFAULT_255_2_778
10
9.3665167
20
137.4747699
40
1.3057405
50
328.1174595
51
0.118882
0
ARC
8
DEFAULT_255_2_778
10
9.3681374
20
137.4725655
40
1.3032005
50
276.6132577
51
328.1621178
0
ARC
8
DEFAULT_255_2_778
10
9.3671443
20
137.491988
40
1.3226088
50
269.9874371
51
276.559089
0
ARC
8
DEFAULT_255_2_778
10
9.3709855
20
137.4720111
40
0.7573432
50
269.6874622
51
316.2799796
0
ARC
8
DEFAULT_255_2_778
10
9.3661266
20
137.473141
40
0.7616402
50
316.4711746
51
0.3263467
0
ARC
8
DEFAULT_255_2_778
10
9.3747216
20
137.4764636
40
0.7530334
50
0.0772648
51
85.7305483
0
ARC
8
DEFAULT_255_2_778
10
9.3669682
20
137.4369743
40
0.7930048
50
85.3843136
51
90.0082261
0
ARC
8
DEFAULT_255_2_778
10
9.365942
20
137.4778957
40
0.752084
50
89.9304929
51
177.8146271
0
ARC
8
DEFAULT_255_2_778
10
9.3814728
20
137.4775058
40
0.7676183
50
177.8297522
51
180.0019923
0
ARC
8
DEFAULT_255_2_778
10
9.3792877
20
137.4734968
40
0.7654437
50
179.7019109
51
222.1940298
0
ARC
8
DEFAULT_255_2_778
10
9.3649802
20
137.4613879
40
0.746711
50
222.2430072
51
270.143803
0
LINE
8
DEFAULT_255_2_778
10
13.8784543
20
138.6948791
11
13.8784543
21
136.2289791
0
LINE
8
DEFAULT_255_2_778
10
13.8784543
20
136.2289791
11
14.4219543
21
136.2289791
0
LINE
8
DEFAULT_255_2_778
10
14.4219543
20
136.2289791
11
14.4219543
21
138.2389791
0
LINE
8
DEFAULT_255_2_778
10
14.4219543
20
138.2389791
11
15.0648543
21
138.2389791
0
LINE
8
DEFAULT_255_2_778
10
15.0648543
20
137.4774791
11
14.6002543
21
137.4774791
0
LINE
8
DEFAULT_255_2_778
10
14.6002543
20
137.4774791
11
15.4413543
21
136.2289791
0
LINE
8
DEFAULT_255_2_778
10
15.4413543
20
136.2289791
11
16.1142543
21
136.2289791
0
LINE
8
DEFAULT_255_2_778
10
16.1142543
20
136.2289791
11
15.5009543
21
137.1303791
0
LINE
8
DEFAULT_255_2_778
10
15.1437543
20
138.7154791
11
14.4216543
21
138.7154791
0
LINE
8
DEFAULT_255_2_778
10
14.4216543
20
138.7154791
11
13.8782543
21
138.6948791
0
LINE
8
DEFAULT_255_2_778
10
13.8782543
20
138.6948791
11
13.8784543
21
138.6948791
0
LINE
8
DEFAULT_255_2_778
10
18.8158543
20
138.6948791
11
18.8158543
21
136.2289791
0
LINE
8
DEFAULT_255_2_778
10
18.8158543
20
136.2289791
11
19.3593543
21
136.2289791
0
LINE
8
DEFAULT_255_2_778
10
19.3593543
20
136.2289791
11
19.3593543
21
138.2389791
0
LINE
8
DEFAULT_255_2_778
10
19.3593543
20
138.2389791
11
19.9739543
21
138.2389791
0
LINE
8
DEFAULT_255_2_778
10
20.3594543
20
137.8632791
11
20.3594543
21
136.2289791
0
LINE
8
DEFAULT_255_2_778
10
20.3594543
20
136.2289791
11
20.9026543
21
136.2289791
0
LINE
8
DEFAULT_255_2_778
10
20.9026543
20
136.2289791
11
20.9026543
21
137.8439791
0
LINE
8
DEFAULT_255_2_778
10
20.0318543
20
138.7154791
11
19.3590543
21
138.7154791
0
LINE
8
DEFAULT_255_2_778
10
19.3590543
20
138.7154791
11
18.8156543
21
138.6948791
0
LINE
8
DEFAULT_255_2_778
10
18.8156543
20
138.6948791
11
18.8158543
21
138.6948791
0
LINE
8
DEFAULT_255_2_778
10
10.8212543
20
138.6948791
11
10.8212543
21
136.2289791
0
LINE
8
DEFAULT_255_2_778
10
10.8212543
20
136.2289791
11
11.3646543
21
136.2289791
0
LINE
8
DEFAULT_255_2_778
10
11.3646543
20
136.2289791
11
11.3646543
21
138.2389791
0
LINE
8
DEFAULT_255_2_778
10
11.3646543
20
138.2389791
11
11.9689543
21
138.2389791
0
LINE
8
DEFAULT_255_2_778
10
11.9689543
20
138.2389791
11
11.9689543
21
136.2289791
0
LINE
8
DEFAULT_255_2_778
10
11.9689543
20
136.2289791
11
12.5124543
21
136.2289791
0
LINE
8
DEFAULT_255_2_778
10
12.5124543
20
136.2289791
11
12.5124543
21
138.2389791
0
LINE
8
DEFAULT_255_2_778
10
12.5124543
20
138.2389791
11
12.7206543
21
138.2389791
0
LINE
8
DEFAULT_255_2_778
10
13.1061543
20
137.8632791
11
13.1061543
21
136.2289791
0
LINE
8
DEFAULT_255_2_778
10
13.1061543
20
136.2289791
11
13.6509543
21
136.2289791
0
LINE
8
DEFAULT_255_2_778
10
13.6509543
20
136.2289791
11
13.6509543
21
137.8439791
0
LINE
8
DEFAULT_255_2_778
10
12.7801543
20
138.7154791
11
11.3749543
21
138.7154791
0
LINE
8
DEFAULT_255_2_778
10
11.3749543
20
138.7154791
11
10.8212543
21
138.6948791
0
LINE
8
DEFAULT_255_2_778
10
10.8212543
20
138.6948791
11
10.8212543
21
138.6948791
0
LINE
8
DEFAULT_255_2_778
10
17.3614543
20
136.1693791
11
17.3614543
21
136.1693791
0
LINE
8
DEFAULT_255_2_778
10
9.3668543
20
136.1693791
11
9.3668543
21
136.1693791
0
LINE
8
DEFAULT_255_1_234
10
11.6128879
20
134.7941211
11
11.6128879
21
133.6247
0
LINE
8
DEFAULT_255_1_234
10
11.6128879
20
133.6247
11
11.4578753
21
133.6247
0
LINE
8
DEFAULT_255_1_234
10
11.4578753
20
133.6247
11
10.8691489
21
134.525861
0
LINE
8
DEFAULT_255_1_234
10
10.8691489
20
134.525861
11
10.8691489
21
133.6247
0
LINE
8
DEFAULT_255_1_234
10
10.8691489
20
133.6247
11
10.7141364
21
133.6247
0
LINE
8
DEFAULT_255_1_234
10
10.7141364
20
133.6247
11
10.7141364
21
134.7941211
0
LINE
8
DEFAULT_255_1_234
10
10.7141364
20
134.7941211
11
10.8691489
21
134.7941211
0
LINE
8
DEFAULT_255_1_234
10
10.8691489
20
134.7941211
11
11.4594817
21
133.8889442
0
LINE
8
DEFAULT_255_1_234
10
11.4594817
20
133.8889442
11
11.4594817
21
134.7941211
0
LINE
8
DEFAULT_255_1_234
10
11.4594817
20
134.7941211
11
11.6128879
21
134.7941211
0
LINE
8
DEFAULT_255_1_234
10
12.0000177
20
134.7941211
11
12.2819317
21
134.3459501
0
LINE
8
DEFAULT_255_1_234
10
12.2819317
20
134.3459501
11
12.5622394
21
134.7941211
0
LINE
8
DEFAULT_255_1_234
10
12.5622394
20
134.7941211
11
12.7437566
21
134.7941211
0
LINE
8
DEFAULT_255_1_234
10
12.7437566
20
134.7941211
11
12.3742967
21
134.2142296
0
LINE
8
DEFAULT_255_1_234
10
12.3742967
20
134.2142296
11
12.7525916
21
133.6247
0
LINE
8
DEFAULT_255_1_234
10
12.7525916
20
133.6247
11
12.5694679
21
133.6247
0
LINE
8
DEFAULT_255_1_234
10
12.5694679
20
133.6247
11
12.2819317
21
134.0809027
0
LINE
8
DEFAULT_255_1_234
10
12.2819317
20
134.0809027
11
11.9927891
21
133.6247
0
LINE
8
DEFAULT_255_1_234
10
11.9927891
20
133.6247
11
11.8104687
21
133.6247
0
LINE
8
DEFAULT_255_1_234
10
11.8104687
20
133.6247
11
12.1895667
21
134.2142296
0
LINE
8
DEFAULT_255_1_234
10
12.1895667
20
134.2142296
11
11.8193036
21
134.7941211
0
LINE
8
DEFAULT_255_1_234
10
11.8193036
20
134.7941211
11
12.0000177
21
134.7941211
0
LINE
8
DEFAULT_255_1_234
10
13.1806832
20
134.1821026
11
13.1806832
21
134.0608234
0
LINE
8
DEFAULT_255_1_234
10
13.1806832
20
134.0608234
11
12.7887344
21
134.0608234
0
LINE
8
DEFAULT_255_1_234
10
12.7887344
20
134.0608234
11
12.7887344
21
134.1821026
0
LINE
8
DEFAULT_255_1_234
10
12.7887344
20
134.1821026
11
13.1806832
21
134.1821026
0
LINE
8
DEFAULT_255_1_234
10
14.1244125
20
134.4559849
11
13.9693999
21
134.4559849
0
LINE
8
DEFAULT_255_1_234
10
13.2770641
20
133.9636394
11
13.4320766
21
133.9636394
0
ARC
8
DEFAULT_255_1_234
10
14.0352812
20
135.3506768
40
1.252368
50
248.9199003
51
254.1439814
0
ARC
8
DEFAULT_255_1_234
10
13.8672307
20
134.9180234
40
0.788226
50
241.633709
51
249.0064503
0
ARC
8
DEFAULT_255_1_234
10
13.7143701
20
134.6379317
40
0.4691427
50
230.498225
51
241.8087113
0
ARC
8
DEFAULT_255_1_234
10
13.6359275
20
134.5379906
40
0.3421437
50
227.4064532
51
229.9881192
0
ARC
8
DEFAULT_255_1_234
10
13.5871796
20
134.4904088
40
0.2741476
50
200.6781896
51
228.1763934
0
ARC
8
DEFAULT_255_1_234
10
13.5944107
20
134.4889077
40
0.2804109
50
179.5061581
51
199.8694617
0
ARC
8
DEFAULT_255_1_234
10
13.5934858
20
134.496321
40
0.2795204
50
132.4834203
51
181.0242172
0
ARC
8
DEFAULT_255_1_234
10
13.6530441
20
134.4400704
40
0.3612768
50
129.2532479
51
133.4242687
0
ARC
8
DEFAULT_255_1_234
10
13.667689
20
134.4180965
40
0.3875675
50
101.98776
51
128.8742646
0
ARC
8
DEFAULT_255_1_234
10
13.7075501
20
134.2459741
40
0.5642249
50
89.5906553
51
102.3169264
0
ARC
8
DEFAULT_255_1_234
10
13.7145993
20
134.2778148
40
0.5323783
50
77.2360837
51
90.3248275
0
ARC
8
DEFAULT_255_1_234
10
13.7353072
20
134.37454
40
0.4334697
50
63.837784
51
77.0809408
0
ARC
8
DEFAULT_255_1_234
10
13.7630834
20
134.4262911
40
0.3747796
50
45.9864267
51
64.1607727
0
ARC
8
DEFAULT_255_1_234
10
13.7891715
20
134.4560866
40
0.3352302
50
32.2747395
51
45.6547121
0
ARC
8
DEFAULT_255_1_234
10
13.7958156
20
134.457988
40
0.328603
50
359.6507365
51
32.6130309
0
ARC
8
DEFAULT_255_1_234
10
13.7015251
20
134.458466
40
0.2678863
50
359.469343
51
14.9832209
0
ARC
8
DEFAULT_255_1_234
10
13.7720314
20
134.4773539
40
0.1948938
50
14.9781179
51
48.2004265
0
ARC
8
DEFAULT_255_1_234
10
13.7555958
20
134.4566983
40
0.2212521
50
48.5927837
51
74.1241538
0
ARC
8
DEFAULT_255_1_234
10
13.7222447
20
134.3466248
40
0.3362561
50
73.7888341
51
86.6652678
0
ARC
8
DEFAULT_255_1_234
10
13.7120013
20
134.2258881
40
0.4573953
50
86.2640471
51
90.0526343
0
ARC
8
DEFAULT_255_1_234
10
13.7091725
20
134.2654192
40
0.4178709
50
89.6697524
51
99.2309573
0
ARC
8
DEFAULT_255_1_234
10
13.6849176
20
134.4098964
40
0.2713749
50
99.069534
51
113.7658566
0
ARC
8
DEFAULT_255_1_234
10
13.6575367
20
134.4744677
40
0.2012469
50
114.0401004
51
127.9850673
0
ARC
8
DEFAULT_255_1_234
10
13.6334931
20
134.504073
40
0.1631167
50
127.7287463
51
176.7105154
0
ARC
8
DEFAULT_255_1_234
10
13.7013649
20
134.4939693
40
0.2315392
50
175.1779447
51
180.0581938
0
ARC
8
DEFAULT_255_1_234
10
13.6170496
20
134.4927428
40
0.1472271
50
179.6142195
51
228.1246017
0
ARC
8
DEFAULT_255_1_234
10
13.6612164
20
134.5336308
40
0.2072299
50
226.5779593
51
230.8800004
0
ARC
8
DEFAULT_255_1_234
10
13.7083243
20
134.5961636
40
0.2854818
50
231.4635071
51
241.9260842
0
ARC
8
DEFAULT_255_1_234
10
13.8280421
20
134.81648
40
0.53622
50
241.7178533
51
248.3259551
0
ARC
8
DEFAULT_255_1_234
10
13.9665793
20
135.1597064
40
0.9063478
50
248.2007737
51
252.4528373
0
ARC
8
DEFAULT_255_1_234
10
14.0869518
20
135.5318441
40
1.2974635
50
252.3391078
51
254.3469452
0
ARC
8
DEFAULT_255_1_234
10
13.332722
20
132.8341148
40
1.5037162
50
71.0197183
51
74.4087047
0
ARC
8
DEFAULT_255_1_234
10
13.5021906
20
133.3233111
40
0.9859993
50
66.1847285
51
71.086374
0
ARC
8
DEFAULT_255_1_234
10
13.6578218
20
133.67372
40
0.6025855
50
59.3536294
51
66.2691831
0
ARC
8
DEFAULT_255_1_234
10
13.746687
20
133.8240609
40
0.4279449
50
49.1020879
51
59.3293958
0
ARC
8
DEFAULT_255_1_234
10
13.828561
20
133.9173834
40
0.3038015
50
32.7919921
51
49.2505539
0
ARC
8
DEFAULT_255_1_234
10
13.86067
20
133.9402191
40
0.264448
50
31.1181161
51
32.4005348
0
ARC
8
DEFAULT_255_1_234
10
13.8518238
20
133.9366779
40
0.2738556
50
8.1116974
51
30.7958831
0
ARC
8
DEFAULT_255_1_234
10
13.7707906
20
133.9228753
40
0.3560327
50
359.8389159
51
8.4706516
0
ARC
8
DEFAULT_255_1_234
10
13.8333697
20
133.9180137
40
0.2934776
50
337.4731098
51
0.7537279
0
ARC
8
DEFAULT_255_1_234
10
13.8512392
20
133.9160387
40
0.2762607
50
307.5917067
51
336.4315538
0
ARC
8
DEFAULT_255_1_234
10
13.805222
20
133.9673102
40
0.3449979
50
307.6551545
51
308.4529766
0
ARC
8
DEFAULT_255_1_234
10
13.7821939
20
134.002825
40
0.3871988
50
284.3734338
51
307.1424381
0
ARC
8
DEFAULT_255_1_234
10
13.7326769
20
134.1849932
40
0.5759636
50
272.4382747
51
284.646547
0
ARC
8
DEFAULT_255_1_234
10
13.7199978
20
134.3649893
40
0.7563528
50
269.9708387
51
272.8178037
0
ARC
8
DEFAULT_255_1_234
10
13.7157018
20
134.1611716
40
0.5525489
50
248.2707594
51
270.4055579
0
ARC
8
DEFAULT_255_1_234
10
13.7102759
20
134.1421192
40
0.5328452
50
246.1383403
51
248.0542782
0
ARC
8
DEFAULT_255_1_234
10
13.6684138
20
134.0541843
40
0.4355005
50
233.1670131
51
246.4950969
0
ARC
8
DEFAULT_255_1_234
10
13.6130043
20
133.9793812
40
0.3424126
50
215.3403242
51
233.0843104
0
ARC
8
DEFAULT_255_1_234
10
13.5857474
20
133.9595549
40
0.3087104
50
179.2419209
51
215.2648451
0
ARC
8
DEFAULT_255_1_234
10
13.6625068
20
133.9609666
40
0.2304457
50
179.335461
51
199.1045811
0
ARC
8
DEFAULT_255_1_234
10
13.6292744
20
133.9522766
40
0.1962176
50
199.8828939
51
232.7063202
0
ARC
8
DEFAULT_255_1_234
10
13.6765013
20
134.0116788
40
0.2720938
50
232.3738199
51
255.5136649
0
ARC
8
DEFAULT_255_1_234
10
13.7105879
20
134.1360835
40
0.4010747
50
255.2446292
51
267.5320849
0
ARC
8
DEFAULT_255_1_234
10
13.7193503
20
134.2593702
40
0.5246356
50
267.1557994
51
270.0286766
0
ARC
8
DEFAULT_255_1_234
10
13.7221275
20
134.214995
40
0.4802668
50
269.7000017
51
278.1660162
0
ARC
8
DEFAULT_255_1_234
10
13.747728
20
134.0419515
40
0.3053425
50
278.0231263
51
290.625471
0
ARC
8
DEFAULT_255_1_234
10
13.7824967
20
133.9492025
40
0.206291
50
290.6619762
51
307.0370976
0
ARC
8
DEFAULT_255_1_234
10
13.8125356
20
133.9123504
40
0.1587906
50
306.3943566
51
355.3030547
0
ARC
8
DEFAULT_255_1_234
10
13.7613288
20
133.9200113
40
0.2104809
50
354.3660432
51
0.0698737
0
ARC
8
DEFAULT_255_1_234
10
13.7755633
20
133.9222617
40
0.1962563
50
359.417946
51
16.1971788
0
ARC
8
DEFAULT_255_1_234
10
13.8210943
20
133.9347418
40
0.149053
50
16.4723299
51
52.6262157
0
ARC
8
DEFAULT_255_1_234
10
13.7389997
20
133.8263433
40
0.2850296
50
52.7386432
51
62.4979148
0
ARC
8
DEFAULT_255_1_234
10
13.6005074
20
133.5657283
40
0.5801521
50
62.2515216
51
68.1220564
0
ARC
8
DEFAULT_255_1_234
10
13.4284985
20
133.1429872
40
1.0365451
50
68.0062803
51
71.8053402
0
ARC
8
DEFAULT_255_1_234
10
13.2489356
20
132.6044758
40
1.6042013
50
71.7183119
51
73.9258742
0
LINE
8
DEFAULT_255_1_234
10
14.2633615
20
134.0351218
11
14.2633615
21
134.0624297
0
LINE
8
DEFAULT_255_1_234
10
15.0006751
20
134.0784932
11
15.0006751
21
134.0166488
0
LINE
8
DEFAULT_255_1_234
10
15.0006751
20
134.0166488
11
14.4119487
21
134.0166488
0
LINE
8
DEFAULT_255_1_234
10
14.898672
20
133.8471792
11
14.9894307
21
133.7764999
0
LINE
8
DEFAULT_255_1_234
10
14.4167677
20
134.1387313
11
14.8520879
21
134.1387313
0
LINE
8
DEFAULT_255_1_234
10
14.8520879
20
134.1387313
11
14.8520879
21
134.1499757
0
ARC
8
DEFAULT_255_1_234
10
14.657298
20
134.0462332
40
0.4376191
50
252.3266134
51
270.5810217
0
ARC
8
DEFAULT_255_1_234
10
14.6368069
20
133.9721644
40
0.3608374
50
223.3000567
51
251.8561855
0
ARC
8
DEFAULT_255_1_234
10
14.657943
20
133.9926937
40
0.3902993
50
190.9374509
51
223.3654032
0
ARC
8
DEFAULT_255_1_234
10
14.8304402
20
134.0316885
40
0.5670891
50
179.6531105
51
191.4989439
0
ARC
8
DEFAULT_255_1_234
10
14.8426415
20
134.0656417
40
0.5792888
50
167.4007466
51
180.3176909
0
ARC
8
DEFAULT_255_1_234
10
14.7374476
20
134.0878885
40
0.471777
50
154.1835823
51
167.250763
0
ARC
8
DEFAULT_255_1_234
10
14.6742944
20
134.1211417
40
0.4004528
50
134.3149965
51
154.5315275
0
ARC
8
DEFAULT_255_1_234
10
14.6525439
20
134.1402228
40
0.371612
50
122.8616532
51
133.9707695
0
ARC
8
DEFAULT_255_1_234
10
14.6422013
20
134.1624703
40
0.3473289
50
89.8249009
51
123.4199222
0
ARC
8
DEFAULT_255_1_234
10
14.6472054
20
134.0977967
40
0.4120197
50
74.7876118
51
90.5482747
0
ARC
8
DEFAULT_255_1_234
10
14.6765797
20
134.206303
40
0.2996077
50
39.8178249
51
74.7633718
0
ARC
8
DEFAULT_255_1_234
10
14.6253117
20
134.1663351
40
0.3645855
50
16.8990863
51
39.4829761
0
ARC
8
DEFAULT_255_1_234
10
14.4358414
20
134.1056526
40
0.5635218
50
4.9636328
51
17.2026414
0
ARC
8
DEFAULT_255_1_234
10
14.1940484
20
134.080134
40
0.8066286
50
359.8834553
51
5.2834307
0
ARC
8
DEFAULT_255_1_234
10
14.7978008
20
134.0232803
40
0.3859091
50
180.9846213
51
194.9401313
0
ARC
8
DEFAULT_255_1_234
10
14.6928286
20
133.9945849
40
0.2770883
50
194.80314
51
222.0412631
0
ARC
8
DEFAULT_255_1_234
10
14.6624168
20
133.9644116
40
0.2343055
50
221.5417084
51
268.8614402
0
ARC
8
DEFAULT_255_1_234
10
14.6697163
20
134.0320686
40
0.3021528
50
267.732405
51
270.0097136
0
ARC
8
DEFAULT_255_1_234
10
14.6714973
20
134.0522105
40
0.3222994
50
269.6924892
51
280.4117579
0
ARC
8
DEFAULT_255_1_234
10
14.689138
20
133.9603193
40
0.2287344
50
280.2255091
51
298.6338936
0
ARC
8
DEFAULT_255_1_234
10
14.7008171
20
133.9359223
40
0.2017294
50
299.0430333
51
300.4643464
0
ARC
8
DEFAULT_255_1_234
10
14.6328177
20
134.0493038
40
0.3339357
50
300.6577328
51
322.0378878
0
ARC
8
DEFAULT_255_1_234
10
14.5977716
20
134.0797021
40
0.3802736
50
321.6750233
51
322.3046845
0
ARC
8
DEFAULT_255_1_234
10
14.6908677
20
133.963037
40
0.3520454
50
276.9728461
51
328.0035423
0
ARC
8
DEFAULT_255_1_234
10
14.663173
20
134.1110841
40
0.5024498
50
269.8361028
51
278.0581756
0
ARC
8
DEFAULT_255_1_234
10
14.6404468
20
134.1855757
40
0.202159
50
89.2018686
51
117.2851756
0
ARC
8
DEFAULT_255_1_234
10
14.6457637
20
134.1813752
40
0.2083484
50
118.0551165
51
137.4540413
0
ARC
8
DEFAULT_255_1_234
10
14.6832377
20
134.1473304
40
0.2589774
50
137.5109581
51
158.8516286
0
ARC
8
DEFAULT_255_1_234
10
14.7970212
20
134.1014074
40
0.38167
50
158.5845963
51
170.1721436
0
ARC
8
DEFAULT_255_1_234
10
14.9139601
20
134.0781823
40
0.5008657
50
169.8376422
51
173.0566086
0
ARC
8
DEFAULT_255_1_234
10
14.4442675
20
134.1292509
40
0.4083467
50
2.9091802
51
12.8847116
0
ARC
8
DEFAULT_255_1_234
10
14.5813352
20
134.1615101
40
0.2675383
50
12.6957781
51
28.6404489
0
ARC
8
DEFAULT_255_1_234
10
14.6355023
20
134.1895458
40
0.2065654
50
29.0169854
51
41.1487595
0
ARC
8
DEFAULT_255_1_234
10
14.6557808
20
134.2072003
40
0.1796786
50
41.1646065
51
85.0013516
0
ARC
8
DEFAULT_255_1_234
10
14.6436904
20
134.1337431
40
0.2539726
50
83.7280015
51
90.0964893
0
LINE
8
DEFAULT_255_1_234
10
15.5926142
20
134.4985531
11
15.5926142
21
134.3604072
0
LINE
8
DEFAULT_255_1_234
10
15.3211415
20
134.2415375
11
15.3211415
21
133.6247
0
LINE
8
DEFAULT_255_1_234
10
15.3211415
20
133.6247
11
15.1725543
21
133.6247
0
LINE
8
DEFAULT_255_1_234
10
15.1725543
20
133.6247
11
15.1725543
21
134.4937341
0
LINE
8
DEFAULT_255_1_234
10
15.1725543
20
134.4937341
11
15.3171256
21
134.4937341
0
LINE
8
DEFAULT_255_1_234
10
15.3171256
20
134.4937341
11
15.3195351
21
134.3933374
0
ARC
8
DEFAULT_255_1_234
10
15.5259548
20
133.9544342
40
0.4114092
50
80.6754243
51
86.8932892
0
ARC
8
DEFAULT_255_1_234
10
15.5199082
20
133.85767
40
0.5083596
50
86.8038578
51
90.0431435
0
ARC
8
DEFAULT_255_1_234
10
15.5162063
20
134.1033866
40
0.2626638
50
89.2759698
51
106.6213787
0
ARC
8
DEFAULT_255_1_234
10
15.4957627
20
134.177683
40
0.1856317
50
107.1346045
51
157.6458115
0
ARC
8
DEFAULT_255_1_234
10
15.5649228
20
134.1393311
40
0.2643398
50
155.6586782
51
157.2539184
0
ARC
8
DEFAULT_255_1_234
10
15.544443
20
134.2562157
40
0.2634121
50
127.8165941
51
148.6302098
0
ARC
8
DEFAULT_255_1_234
10
15.5190899
20
134.2822218
40
0.2273596
50
91.3329982
51
126.7875809
0
ARC
8
DEFAULT_255_1_234
10
15.526684
20
134.2107195
40
0.299078
50
89.986594
51
92.4688449
0
ARC
8
DEFAULT_255_1_234
10
15.5275235
20
134.2382078
40
0.2715908
50
85.3589899
51
90.1623399
0
ARC
8
DEFAULT_255_1_234
10
15.535975
20
134.3386164
40
0.1708278
50
78.401942
51
85.4594656
0
ARC
8
DEFAULT_255_1_234
10
15.5504634
20
134.4077236
40
0.1002194
50
67.7858312
51
78.5728455
0
ARC
8
DEFAULT_255_1_234
10
15.5612487
20
134.4356887
40
0.0702548
50
63.4835954
51
67.3062642
0
LINE
8
DEFAULT_255_1_234
10
15.8905917
20
134.4937341
11
15.8905917
21
133.6247
0
LINE
8
DEFAULT_255_1_234
10
15.8905917
20
133.6247
11
15.7420045
21
133.6247
0
LINE
8
DEFAULT_255_1_234
10
15.7420045
20
133.6247
11
15.7420045
21
134.4937341
0
LINE
8
DEFAULT_255_1_234
10
15.7420045
20
134.4937341
11
15.8905917
21
134.4937341
0
ARC
8
DEFAULT_255_1_234
10
15.8278194
20
134.7251889
40
0.097867
50
161.415052
51
180.5526306
0
ARC
8
DEFAULT_255_1_234
10
15.8153972
20
134.7286077
40
0.0850062
50
138.1827368
51
160.9307106
0
ARC
8
DEFAULT_255_1_234
10
15.8043918
20
134.7381588
40
0.0704362
50
104.6368899
51
138.0039868
0
ARC
8
DEFAULT_255_1_234
10
15.8151073
20
134.7014963
40
0.1086221
50
92.0600725
51
105.2189128
0
ARC
8
DEFAULT_255_1_234
10
15.8174421
20
134.6672117
40
0.1429728
50
89.9756393
51
92.5012496
0
ARC
8
DEFAULT_255_1_234
10
15.818444
20
134.6897731
40
0.1204151
50
78.0235316
51
90.4478182
0
ARC
8
DEFAULT_255_1_234
10
15.8276532
20
134.7311295
40
0.0780493
50
55.051506
51
78.3369085
0
ARC
8
DEFAULT_255_1_234
10
15.8326807
20
134.7395711
40
0.0682538
50
42.0501187
51
54.4513741
0
ARC
8
DEFAULT_255_1_234
10
15.8191674
20
134.7271798
40
0.0865878
50
1.7497075
51
42.1496013
0
ARC
8
DEFAULT_255_1_234
10
15.7937007
20
134.7242738
40
0.1121515
50
359.9852656
51
2.8364544
0
ARC
8
DEFAULT_255_1_234
10
15.8102999
20
134.7233229
40
0.0955566
50
342.1070653
51
0.552888
0
ARC
8
DEFAULT_255_1_234
10
15.8245696
20
134.7193904
40
0.0807713
50
316.7107116
51
341.6516965
0
ARC
8
DEFAULT_255_1_234
10
15.8312733
20
134.7133823
40
0.0717724
50
285.4397031
51
316.5324284
0
ARC
8
DEFAULT_255_1_234
10
15.820265
20
134.7499554
40
0.1099597
50
272.3547054
51
285.8953117
0
ARC
8
DEFAULT_255_1_234
10
15.8175808
20
134.7865048
40
0.1465932
50
269.9695369
51
272.8160237
0
ARC
8
DEFAULT_255_1_234
10
15.816599
20
134.7645863
40
0.1246779
50
258.8431134
51
270.4153935
0
ARC
8
DEFAULT_255_1_234
10
15.8076032
20
134.7210414
40
0.0802162
50
238.5431189
51
259.1288175
0
ARC
8
DEFAULT_255_1_234
10
15.8007917
20
134.7086856
40
0.0661247
50
222.5062634
51
237.9906969
0
ARC
8
DEFAULT_255_1_234
10
15.8135504
20
134.7202889
40
0.0833707
50
184.1069131
51
222.460413
0
ARC
8
DEFAULT_255_1_234
10
15.8404745
20
134.7241349
40
0.1105176
50
179.9429482
51
185.0960898
0
LINE
8
DEFAULT_255_1_234
10
16.090582
20
134.0351218
11
16.090582
21
134.0624297
0
LINE
8
DEFAULT_255_1_234
10
16.8278956
20
134.0784932
11
16.8278956
21
134.0166488
0
LINE
8
DEFAULT_255_1_234
10
16.8278956
20
134.0166488
11
16.2391691
21
134.0166488
0
LINE
8
DEFAULT_255_1_234
10
16.7258925
20
133.8471792
11
16.8166511
21
133.7764999
0
LINE
8
DEFAULT_255_1_234
10
16.2439882
20
134.1387313
11
16.6793084
21
134.1387313
0
LINE
8
DEFAULT_255_1_234
10
16.6793084
20
134.1387313
11
16.6793084
21
134.1499757
0
ARC
8
DEFAULT_255_1_234
10
16.4845185
20
134.0462332
40
0.4376191
50
252.3266134
51
270.5810217
0
ARC
8
DEFAULT_255_1_234
10
16.4640274
20
133.9721644
40
0.3608374
50
223.3000567
51
251.8561855
0
ARC
8
DEFAULT_255_1_234
10
16.4851635
20
133.9926937
40
0.3902993
50
190.9374509
51
223.3654032
0
ARC
8
DEFAULT_255_1_234
10
16.6576607
20
134.0316885
40
0.5670891
50
179.6531105
51
191.4989439
0
ARC
8
DEFAULT_255_1_234
10
16.6698619
20
134.0656417
40
0.5792888
50
167.4007466
51
180.3176909
0
ARC
8
DEFAULT_255_1_234
10
16.5646681
20
134.0878885
40
0.471777
50
154.1835823
51
167.250763
0
ARC
8
DEFAULT_255_1_234
10
16.5015148
20
134.1211417
40
0.4004528
50
134.3149965
51
154.5315275
0
ARC
8
DEFAULT_255_1_234
10
16.4797643
20
134.1402228
40
0.371612
50
122.8616532
51
133.9707695
0
ARC
8
DEFAULT_255_1_234
10
16.4694217
20
134.1624703
40
0.3473289
50
89.8249009
51
123.4199222
0
ARC
8
DEFAULT_255_1_234
10
16.4744258
20
134.0977967
40
0.4120197
50
74.7876118
51
90.5482747
0
ARC
8
DEFAULT_255_1_234
10
16.5038002
20
134.206303
40
0.2996077
50
39.8178249
51
74.7633718
0
ARC
8
DEFAULT_255_1_234
10
16.4525322
20
134.1663351
40
0.3645855
50
16.8990863
51
39.4829761
0
ARC
8
DEFAULT_255_1_234
10
16.2630618
20
134.1056526
40
0.5635218
50
4.9636328
51
17.2026414
0
ARC
8
DEFAULT_255_1_234
10
16.0212688
20
134.080134
40
0.8066286
50
359.8834553
51
5.2834307
0
ARC
8
DEFAULT_255_1_234
10
16.6250213
20
134.0232803
40
0.3859091
50
180.9846213
51
194.9401313
0
ARC
8
DEFAULT_255_1_234
10
16.5200491
20
133.9945849
40
0.2770883
50
194.80314
51
222.0412631
0
ARC
8
DEFAULT_255_1_234
10
16.4896373
20
133.9644116
40
0.2343055
50
221.5417084
51
268.8614402
0
ARC
8
DEFAULT_255_1_234
10
16.4969367
20
134.0320686
40
0.3021528
50
267.732405
51
270.0097136
0
ARC
8
DEFAULT_255_1_234
10
16.4987177
20
134.0522105
40
0.3222994
50
269.6924892
51
280.4117579
0
ARC
8
DEFAULT_255_1_234
10
16.5163584
20
133.9603193
40
0.2287344
50
280.2255091
51
298.6338936
0
ARC
8
DEFAULT_255_1_234
10
16.5280376
20
133.9359223
40
0.2017294
50
299.0430333
51
300.4643464
0
ARC
8
DEFAULT_255_1_234
10
16.4600382
20
134.0493038
40
0.3339357
50
300.6577328
51
322.0378878
0
ARC
8
DEFAULT_255_1_234
10
16.4249921
20
134.0797021
40
0.3802736
50
321.6750233
51
322.3046845
0
ARC
8
DEFAULT_255_1_234
10
16.5180882
20
133.963037
40
0.3520454
50
276.9728461
51
328.0035423
0
ARC
8
DEFAULT_255_1_234
10
16.4903935
20
134.1110841
40
0.5024498
50
269.8361028
51
278.0581756
0
ARC
8
DEFAULT_255_1_234
10
16.4676672
20
134.1855757
40
0.202159
50
89.2018686
51
117.2851756
0
ARC
8
DEFAULT_255_1_234
10
16.4729841
20
134.1813752
40
0.2083484
50
118.0551165
51
137.4540413
0
ARC
8
DEFAULT_255_1_234
10
16.5104581
20
134.1473304
40
0.2589774
50
137.5109581
51
158.8516286
0
ARC
8
DEFAULT_255_1_234
10
16.6242417
20
134.1014074
40
0.38167
50
158.5845963
51
170.1721436
0
ARC
8
DEFAULT_255_1_234
10
16.7411806
20
134.0781823
40
0.5008657
50
169.8376422
51
173.0566086
0
ARC
8
DEFAULT_255_1_234
10
16.271488
20
134.1292509
40
0.4083467
50
2.9091802
51
12.8847116
0
ARC
8
DEFAULT_255_1_234
10
16.4085556
20
134.1615101
40
0.2675383
50
12.6957781
51
28.6404489
0
ARC
8
DEFAULT_255_1_234
10
16.4627227
20
134.1895458
40
0.2065654
50
29.0169854
51
41.1487595
0
ARC
8
DEFAULT_255_1_234
10
16.4830012
20
134.2072003
40
0.1796786
50
41.1646065
51
85.0013516
0
ARC
8
DEFAULT_255_1_234
10
16.4709109
20
134.1337431
40
0.2539726
50
83.7280015
51
90.0964893
0
LINE
8
DEFAULT_255_1_234
10
17.6463297
20
134.2383248
11
17.4969394
21
134.2383248
0
LINE
8
DEFAULT_255_1_234
10
16.9636319
20
133.8921569
11
17.1122191
21
133.8921569
0
ARC
8
DEFAULT_255_1_234
10
17.3781212
20
133.8566959
40
0.1276617
50
359.3334982
51
18.5871358
0
ARC
8
DEFAULT_255_1_234
10
17.3989849
20
133.8622133
40
0.1061371
50
19.3540742
51
54.6485071
0
ARC
8
DEFAULT_255_1_234
10
17.3485751
20
133.7926919
40
0.1920087
50
54.3827097
51
65.0622807
0
ARC
8
DEFAULT_255_1_234
10
17.2717148
20
133.63099
40
0.3710447
50
64.8282493
51
71.4200025
0
ARC
8
DEFAULT_255_1_234
10
17.1815023
20
133.3663107
40
0.6506741
50
71.3164301
51
75.8006402
0
ARC
8
DEFAULT_255_1_234
10
17.0973843
20
133.0422561
40
0.9854641
50
75.6809531
51
78.0061883
0
ARC
8
DEFAULT_255_1_234
10
17.5422376
20
135.140177
40
1.1591028
50
254.6901892
51
258.0466452
0
ARC
8
DEFAULT_255_1_234
10
17.4384285
20
134.7642781
40
0.7691345
50
249.9010773
51
254.755261
0
ARC
8
DEFAULT_255_1_234
10
17.3380627
20
134.4916982
40
0.478665
50
243.3097214
51
249.9709442
0
ARC
8
DEFAULT_255_1_234
10
17.2751648
20
134.3662778
40
0.3383568
50
234.4047477
51
243.2862168
0
ARC
8
DEFAULT_255_1_234
10
17.2129172
20
134.2803232
40
0.2322322
50
220.8667099
51
234.5493881
0
ARC
8
DEFAULT_255_1_234
10
17.1787112
20
134.2491817
40
0.1859923
50
214.3062465
51
220.5065136
0
ARC
8
DEFAULT_255_1_234
10
17.1761192
20
134.246088
40
0.1821108
50
186.912965
51
213.9618616
0
ARC
8
DEFAULT_255_1_234
10
17.2293286
20
134.2547009
40
0.2359799
50
179.8808832
51
187.4339886
0
ARC
8
DEFAULT_255_1_234
10
17.213842
20
134.2567088
40
0.2204978
50
132.005434
51
180.3942919
0
ARC
8
DEFAULT_255_1_234
10
17.2795033
20
134.1961083
40
0.3095791
50
129.2319861
51
133.5302299
0
ARC
8
DEFAULT_255_1_234
10
17.2848541
20
134.1866928
40
0.3202615
50
100.4410011
51
128.9081242
0
ARC
8
DEFAULT_255_1_234
10
17.3122425
20
134.0581455
40
0.4516583
50
89.6985377
51
100.9026564
0
ARC
8
DEFAULT_255_1_234
10
17.3179467
20
134.0421166
40
0.4676928
50
77.6965325
51
90.4076836
0
ARC
8
DEFAULT_255_1_234
10
17.3510451
20
134.1848413
40
0.3211988
50
50.7276602
51
78.0399361
0
ARC
8
DEFAULT_255_1_234
10
17.395491
20
134.2366296
40
0.2529778
50
25.7545084
51
51.0957453
0
ARC
8
DEFAULT_255_1_234
10
17.3956134
20
134.2416206
40
0.250738
50
359.2468627
51
24.7394243
0
ARC
8
DEFAULT_255_1_234
10
17.3671586
20
134.2387664
40
0.1297815
50
359.8050318
51
45.1544908
0
ARC
8
DEFAULT_255_1_234
10
17.3264728
20
134.2039794
40
0.1831883
50
43.8047702
51
49.6271585
0
ARC
8
DEFAULT_255_1_234
10
17.327263
20
134.2040678
40
0.18261
50
49.7980766
51
82.1218353
0
ARC
8
DEFAULT_255_1_234
10
17.3153601
20
134.1393998
40
0.2483163
50
81.4465357
51
90.1710293
0
ARC
8
DEFAULT_255_1_234
10
17.3129204
20
134.086788
40
0.300932
50
89.6766211
51
99.1264602
0
ARC
8
DEFAULT_255_1_234
10
17.2957666
20
134.1901537
40
0.1961547
50
98.968313
51
113.4570237
0
ARC
8
DEFAULT_255_1_234
10
17.2761751
20
134.2369965
40
0.1453859
50
113.722589
51
127.4763106
0
ARC
8
DEFAULT_255_1_234
10
17.2593397
20
134.2570124
40
0.1192639
50
126.9083309
51
150.3165862
0
ARC
8
DEFAULT_255_1_234
10
17.254573
20
134.2620981
40
0.112623
50
151.3635175
51
180.0701457
0
ARC
8
DEFAULT_255_1_234
10
17.2854515
20
134.259999
40
0.1435149
50
179.2169974
51
179.9954013
0
ARC
8
DEFAULT_255_1_234
10
17.2493572
20
134.2587056
40
0.1074286
50
179.3040112
51
198.4225446
0
ARC
8
DEFAULT_255_1_234
10
17.2301706
20
134.2537127
40
0.0876573
50
199.2895851
51
238.6034594
0
ARC
8
DEFAULT_255_1_234
10
17.2904552
20
134.348345
40
0.1998512
50
237.9846301
51
246.8744712
0
ARC
8
DEFAULT_255_1_234
10
17.3762497
20
134.5446205
40
0.4140547
50
246.6234531
51
251.8168941
0
ARC
8
DEFAULT_255_1_234
10
17.4793041
20
134.8540905
40
0.7402308
50
251.713434
51
255.0778414
0
ARC
8
DEFAULT_255_1_234
10
17.5992303
20
135.3007563
40
1.2027155
50
255.0367487
51
257.4705983
0
ARC
8
DEFAULT_255_1_234
10
17.0884313
20
132.9993863
40
1.1546601
50
73.6837552
51
77.5016755
0
ARC
8
DEFAULT_255_1_234
10
17.1973088
20
133.3693581
40
0.7690009
50
68.7044154
51
73.7249639
0
ARC
8
DEFAULT_255_1_234
10
17.2876109
20
133.6020654
40
0.5193873
50
63.590599
51
68.6626804
0
ARC
8
DEFAULT_255_1_234
10
17.3647128
20
133.7558123
40
0.3473927
50
54.7106439
51
63.7013633
0
ARC
8
DEFAULT_255_1_234
10
17.4271582
20
133.84304
40
0.2401192
50
41.0622434
51
54.8487496
0
ARC
8
DEFAULT_255_1_234
10
17.4612969
20
133.8743592
40
0.1938094
50
34.4950568
51
40.7105546
0
ARC
8
DEFAULT_255_1_234
10
17.4659776
20
133.8792078
40
0.1872106
50
9.3763373
51
34.0833615
0
ARC
8
DEFAULT_255_1_234
10
17.4006646
20
133.8666728
40
0.2536988
50
359.7694872
51
9.7663171
0
ARC
8
DEFAULT_255_1_234
10
17.4204147
20
133.8623764
40
0.2339696
50
335.8654732
51
0.8022045
0
ARC
8
DEFAULT_255_1_234
10
17.4279192
20
133.8637197
40
0.2277108
50
307.7357725
51
334.7849066
0
ARC
8
DEFAULT_255_1_234
10
17.3878367
20
133.9087645
40
0.2878951
50
307.0241536
51
308.5578354
0
ARC
8
DEFAULT_255_1_234
10
17.3620699
20
133.9473801
40
0.3342515
50
282.9362969
51
306.5646424
0
ARC
8
DEFAULT_255_1_234
10
17.3258996
20
134.0941108
40
0.4853615
50
271.1026298
51
283.2200835
0
ARC
8
DEFAULT_255_1_234
10
17.319524
20
134.2182418
40
0.6096052
50
269.9919117
51
271.4772449
0
ARC
8
DEFAULT_255_1_234
10
17.3168995
20
134.1104436
40
0.5018135
50
259.0723564
51
270.289833
0
ARC
8
DEFAULT_255_1_234
10
17.2956727
20
133.9987271
40
0.388099
50
245.4963068
51
259.0227342
0
ARC
8
DEFAULT_255_1_234
10
17.2678684
20
133.9405615
40
0.3236422
50
228.9684658
51
245.7044727
0
ARC
8
DEFAULT_255_1_234
10
17.2413127
20
133.9078575
40
0.2815426
50
214.4011705
51
228.6759915
0
ARC
8
DEFAULT_255_1_234
10
17.2123868
20
133.892029
40
0.2487548
50
179.9705531
51
215.1572795
0
ARC
8
DEFAULT_255_1_234
10
17.2824468
20
133.8993806
40
0.1703809
50
182.4299387
51
203.0329699
0
ARC
8
DEFAULT_255_1_234
10
17.2640125
20
133.8937396
40
0.1512226
50
203.798802
51
232.548466
0
ARC
8
DEFAULT_255_1_234
10
17.2916647
20
133.9288826
40
0.1959374
50
232.3782728
51
256.3934612
0
ARC
8
DEFAULT_255_1_234
10
17.3147008
20
134.0178842
40
0.2878639
50
256.104506
51
268.4626716
0
ARC
8
DEFAULT_255_1_234
10
17.3193493
20
134.0975487
40
0.3676329
50
268.0715632
51
270.0138206
0
ARC
8
DEFAULT_255_1_234
10
17.3212017
20
134.0703083
40
0.3403971
50
269.7031147
51
278.8341955
0
ARC
8
DEFAULT_255_1_234
10
17.3394111
20
133.9572876
40
0.2259217
50
278.6728789
51
292.8232582
0
ARC
8
DEFAULT_255_1_234
10
17.3594649
20
133.9071449
40
0.171929
50
293.1452328
51
303.6655899
0
ARC
8
DEFAULT_255_1_234
10
17.3859528
20
133.8695204
40
0.1259367
50
303.1248165
51
321.742847
0
ARC
8
DEFAULT_255_1_234
10
17.4045408
20
133.8532156
40
0.1012531
50
322.4748573
51
1.1291126
0
LINE
8
DEFAULT_255_2_778
10
9.3932417
20
124.2219075
11
10.7161417
21
124.2219075
0
LINE
8
DEFAULT_255_2_778
10
10.7161417
20
124.2219075
11
10.7161417
21
67.3365075
0
LINE
8
DEFAULT_255_2_778
10
9.3932834
20
67.3364333
11
12.0390834
21
67.3364333
0
LINE
8
DEFAULT_255_2_778
10
12.0390834
20
67.3364333
11
12.0390834
21
62.0447333
0
LINE
8
DEFAULT_255_2_778
10
12.0390834
20
62.0447333
11
9.3932834
21
62.0447333
0
LINE
8
DEFAULT_255_2_778
10
9.3932834
20
62.0447333
11
9.3932834
21
67.3364333
0
ARC
8
DEFAULT_255_2_778_1
10
13.1928591
20
62.147177
40
4.816461
50
120.9442904
51
122.351755
0
ARC
8
DEFAULT_255_2_778_1
10
12.7462523
20
62.8508039
40
3.9830657
50
122.3407904
51
124.1946752
0
ARC
8
DEFAULT_255_2_778_1
10
12.3063464
20
63.4973306
40
3.2010724
50
124.1855758
51
126.4338849
0
ARC
8
DEFAULT_255_2_778_1
10
11.9204129
20
64.0200611
40
2.5513094
50
126.4326926
51
128.8877368
0
ARC
8
DEFAULT_255_2_778_1
10
11.5855968
20
64.4344658
40
2.0185498
50
128.8749205
51
131.8726567
0
ARC
8
DEFAULT_255_2_778_1
10
11.2884677
20
64.7654854
40
1.5737356
50
131.8616166
51
135.4168838
0
ARC
8
DEFAULT_255_2_778_1
10
11.025668
20
65.0236765
40
1.2053256
50
135.3893975
51
139.9687014
0
ARC
8
DEFAULT_255_2_778_1
10
10.7927889
20
65.2185102
40
0.9016937
50
139.9301659
51
145.9260426
0
ARC
8
DEFAULT_255_2_778_1
10
10.596654
20
65.3505104
40
0.6652776
50
145.8787362
51
153.8146208
0
ARC
8
DEFAULT_255_2_778_1
10
10.4445553
20
65.4248797
40
0.4959714
50
153.770634
51
164.3484794
0
ARC
8
DEFAULT_255_2_778_1
10
10.3432387
20
65.4530786
40
0.3908039
50
164.3220276
51
179.8083066
0
ARC
8
DEFAULT_255_2_778_1
10
10.3642789
20
65.461215
40
0.4118985
50
180.9499449
51
213.8111542
0
ARC
8
DEFAULT_255_2_778_1
10
10.6401828
20
65.6307896
40
0.73561
50
212.8271214
51
224.258472
0
ARC
8
DEFAULT_255_2_778_1
10
11.0230335
20
66.0001236
40
1.267567
50
224.1376218
51
231.4508261
0
ARC
8
DEFAULT_255_2_778_1
10
11.6657195
20
66.8031168
40
2.2960809
50
231.3955893
51
236.1256478
0
ARC
8
DEFAULT_255_2_778_1
10
13.4980223
20
69.5496293
40
5.5976905
50
236.2233172
51
239.1314682
0
ARC
8
DEFAULT_255_2_778_1
10
25.447927
20
89.2773568
40
28.6623793
50
238.8606853
51
239.0711101
0
ARC
8
DEFAULT_255_2_778_1
10
6.2757281
20
57.1802653
40
8.7248518
50
57.2420924
51
59.4062964
0
ARC
8
DEFAULT_255_2_778_1
10
9.5034241
20
62.2112102
40
2.747542
50
52.8289294
51
57.079028
0
ARC
8
DEFAULT_255_2_778_1
10
10.2780783
20
63.2315488
40
1.466457
50
46.3041868
51
52.8596521
0
ARC
8
DEFAULT_255_2_778_1
10
10.7103073
20
63.6816842
40
0.8424061
50
36.2174211
51
46.4090895
0
ARC
8
DEFAULT_255_2_778_1
10
10.9948088
20
63.8865128
40
0.4918609
50
17.400375
51
36.5489745
0
ARC
8
DEFAULT_255_2_778_1
10
11.1088994
20
63.9263754
40
0.3710912
50
0.0676858
51
16.7951297
0
ARC
8
DEFAULT_255_2_778_1
10
11.0878613
20
63.9282428
40
0.3921317
50
343.8035191
51
359.7912046
0
ARC
8
DEFAULT_255_2_778_1
10
10.9815912
20
63.9587167
40
0.5026844
50
333.2506233
51
343.8465691
0
ARC
8
DEFAULT_255_2_778_1
10
10.8277757
20
64.0354313
40
0.6745679
50
325.6600948
51
333.3122657
0
ARC
8
DEFAULT_255_2_778_1
10
10.6323344
20
64.1682296
40
0.9108568
50
319.7560915
51
325.6976089
0
ARC
8
DEFAULT_255_2_778_1
10
10.404199
20
64.3600002
40
1.2088854
50
315.4577584
51
319.8037947
0
ARC
8
DEFAULT_255_2_778_1
10
10.1408127
20
64.6188507
40
1.5781764
50
311.7298824
51
315.4670864
0
ARC
8
DEFAULT_255_2_778_1
10
9.8317879
20
64.9644074
40
2.0417554
50
308.723055
51
311.7470879
0
ARC
8
DEFAULT_255_2_778_1
10
9.477589
20
65.4056492
40
2.6075745
50
306.1165163
51
308.7300151
0
ARC
8
DEFAULT_255_2_778_1
10
9.0746091
20
65.9569523
40
3.2904564
50
303.9559446
51
306.1266333
0
ARC
8
DEFAULT_255_2_778_1
10
8.6630432
20
66.566215
40
4.0257023
50
302.3733397
51
303.9712246
0
ARC
8
DEFAULT_255_2_778_1
10
8.2434347
20
67.2277058
40
4.8090549
50
300.9434827
51
302.3758078
0
LINE
8
DEFAULT_255_2_778
10
10.7161417
20
62.0448075
11
10.7161417
21
5.1594075
0
LINE
8
DEFAULT_255_2_778
10
10.7161417
20
5.1594075
11
9.3932417
21
5.1594075
0
LINE
8
DEFAULT_255_1_234
10
4.9274119
20
131.7616792
11
4.9274119
21
131.6404
0
LINE
8
DEFAULT_255_1_234
10
4.9274119
20
131.6404
11
4.161184
21
131.6404
0
LINE
8
DEFAULT_255_1_234
10
4.161184
20
131.6404
11
4.161184
21
131.7472221
0
LINE
8
DEFAULT_255_1_234
10
4.161184
20
131.7472221
11
4.5659836
21
132.1969995
0
LINE
8
DEFAULT_255_1_234
10
4.2872823
20
132.4652595
11
4.1386952
21
132.4652595
0
LINE
8
DEFAULT_255_1_234
10
4.6535296
20
132.1014218
11
4.3402918
21
131.7616792
0
LINE
8
DEFAULT_255_1_234
10
4.3402918
20
131.7616792
11
4.9274119
21
131.7616792
0
ARC
8
DEFAULT_255_1_234
10
3.216967
20
133.3899527
40
1.8008286
50
318.5132453
51
320.7828378
0
ARC
8
DEFAULT_255_1_234
10
3.7456644
20
132.9596426
40
1.1191493
50
320.7372736
51
323.9737074
0
ARC
8
DEFAULT_255_1_234
10
4.1376501
20
132.6756361
40
0.6350923
50
323.8961724
51
328.6421089
0
ARC
8
DEFAULT_255_1_234
10
4.3423096
20
132.5494031
40
0.3946393
50
328.8299013
51
331.789948
0
ARC
8
DEFAULT_255_1_234
10
4.4420274
20
132.4979509
40
0.2824501
50
331.4255242
51
352.9364833
0
ARC
8
DEFAULT_255_1_234
10
4.4556775
20
132.4948976
40
0.2685315
50
353.2248685
51
0.0169286
0
ARC
8
DEFAULT_255_1_234
10
4.4766652
20
132.497195
40
0.2475536
50
359.4866256
51
15.9339782
0
ARC
8
DEFAULT_255_1_234
10
4.5273637
20
132.5108286
40
0.1950618
50
16.1714718
51
43.5284424
0
ARC
8
DEFAULT_255_1_234
10
4.5350946
20
132.5185573
40
0.184134
50
43.4415429
51
83.1661404
0
ARC
8
DEFAULT_255_1_234
10
4.5216864
20
132.4448771
40
0.258926
50
82.160215
51
90.1505798
0
ARC
8
DEFAULT_255_1_234
10
4.5185291
20
132.3911865
40
0.3126255
50
89.5460705
51
102.5418777
0
ARC
8
DEFAULT_255_1_234
10
4.4942377
20
132.4942665
40
0.2067346
50
102.1739365
51
129.2061916
0
ARC
8
DEFAULT_255_1_234
10
4.4863449
20
132.5067094
40
0.1921118
50
129.7279328
51
135.7542026
0
ARC
8
DEFAULT_255_1_234
10
4.4984977
20
132.4970045
40
0.2075944
50
136.175737
51
166.3674722
0
ARC
8
DEFAULT_255_1_234
10
4.5991896
20
132.4700182
40
0.3118201
50
165.9092917
51
178.8683903
0
ARC
8
DEFAULT_255_1_234
10
4.6856757
20
132.4653179
40
0.3983935
50
178.438168
51
180.0083905
0
ARC
8
DEFAULT_255_1_234
10
4.5455359
20
132.4692231
40
0.4068601
50
163.2878735
51
180.5581814
0
ARC
8
DEFAULT_255_1_234
10
4.4653621
20
132.491284
40
0.3237344
50
133.454115
51
162.9470031
0
ARC
8
DEFAULT_255_1_234
10
4.4832162
20
132.4723
40
0.349795
50
100.7869394
51
133.4384016
0
ARC
8
DEFAULT_255_1_234
10
4.5179934
20
132.3174319
40
0.5084616
50
89.6605301
51
101.3704185
0
ARC
8
DEFAULT_255_1_234
10
4.5246273
20
132.3235496
40
0.502348
50
78.2171172
51
90.4130393
0
ARC
8
DEFAULT_255_1_234
10
4.5601351
20
132.4859637
40
0.3361092
50
55.9268222
51
78.4888551
0
ARC
8
DEFAULT_255_1_234
10
4.5797791
20
132.5198324
40
0.2970617
50
47.9292255
51
55.4054003
0
ARC
8
DEFAULT_255_1_234
10
4.5899352
20
132.5301502
40
0.2825983
50
4.3347696
51
48.0560701
0
ARC
8
DEFAULT_255_1_234
10
4.4803745
20
132.5131601
40
0.393225
50
359.925209
51
5.5967654
0
ARC
8
DEFAULT_255_1_234
10
4.5232637
20
132.5187816
40
0.3503892
50
337.8914096
51
358.9967724
0
ARC
8
DEFAULT_255_1_234
10
4.2519049
20
132.6234706
40
0.6412172
50
326.9135351
51
338.3505194
0
ARC
8
DEFAULT_255_1_234
10
3.8533353
20
132.8789284
40
1.1146189
50
319.6472867
51
327.095818
0
ARC
8
DEFAULT_255_1_234
10
3.4700356
20
133.1951
40
1.6114559
50
317.2586784
51
319.9046139
0
LINE
8
DEFAULT_255_1_234
10
5.7121127
20
132.8098211
11
5.7121127
21
132.033152
0
LINE
8
DEFAULT_255_1_234
10
5.7121127
20
132.033152
11
5.8743538
21
132.033152
0
LINE
8
DEFAULT_255_1_234
10
5.8743538
20
132.033152
11
5.8743538
21
131.9118728
0
LINE
8
DEFAULT_255_1_234
10
5.8743538
20
131.9118728
11
5.7121127
21
131.9118728
0
LINE
8
DEFAULT_255_1_234
10
5.7121127
20
131.9118728
11
5.7121127
21
131.6404
0
LINE
8
DEFAULT_255_1_234
10
5.7121127
20
131.6404
11
5.5627224
21
131.6404
0
LINE
8
DEFAULT_255_1_234
10
5.5627224
20
131.6404
11
5.5627224
21
131.9118728
0
LINE
8
DEFAULT_255_1_234
10
5.5627224
20
131.9118728
11
5.0302181
21
131.9118728
0
LINE
8
DEFAULT_255_1_234
10
5.0302181
20
131.9118728
11
5.0302181
21
131.9994187
0
LINE
8
DEFAULT_255_1_234
10
5.0302181
20
131.9994187
11
5.5538875
21
132.8098211
0
LINE
8
DEFAULT_255_1_234
10
5.5538875
20
132.8098211
11
5.7121127
21
132.8098211
0
LINE
8
DEFAULT_255_1_234
10
5.5450525
20
132.5744912
11
5.1988846
21
132.033152
0
LINE
8
DEFAULT_255_1_234
10
5.1988846
20
132.033152
11
5.5627224
21
132.033152
0
LINE
8
DEFAULT_255_1_234
10
5.5627224
20
132.033152
11
5.5627224
21
132.6066181
0
LINE
8
DEFAULT_255_1_234
10
5.5627224
20
132.6066181
11
5.5450525
21
132.5744912
0
LINE
8
DEFAULT_255_1_234
10
6.101652
20
132.8098211
11
6.434166
21
131.8452093
0
LINE
8
DEFAULT_255_1_234
10
6.434166
20
131.8452093
11
6.7682863
21
132.8098211
0
LINE
8
DEFAULT_255_1_234
10
6.7682863
20
132.8098211
11
6.9369528
21
132.8098211
0
LINE
8
DEFAULT_255_1_234
10
6.9369528
20
132.8098211
11
6.5032389
21
131.6404
0
LINE
8
DEFAULT_255_1_234
10
6.5032389
20
131.6404
11
6.3666994
21
131.6404
0
LINE
8
DEFAULT_255_1_234
10
6.3666994
20
131.6404
11
5.9337887
21
132.8098211
0
LINE
8
DEFAULT_255_1_234
10
5.9337887
20
132.8098211
11
6.101652
21
132.8098211
0
LINE
8
DEFAULT_255_1_234
10
4.3141902
20
5.8098211
11
4.3141902
21
4.6404
0
LINE
8
DEFAULT_255_1_234
10
4.3141902
20
4.6404
11
4.1599808
21
4.6404
0
LINE
8
DEFAULT_255_1_234
10
4.1599808
20
4.6404
11
4.1599808
21
5.8098211
0
LINE
8
DEFAULT_255_1_234
10
4.1599808
20
5.8098211
11
4.3141902
21
5.8098211
0
ARC
8
DEFAULT_255_1_234
10
4.9845302
20
5.5020703
40
0.2822356
50
338.8763615
51
0.5166041
0
ARC
8
DEFAULT_255_1_234
10
5.0013957
20
5.4975208
40
0.2648703
50
325.8412414
51
338.4795939
0
ARC
8
DEFAULT_255_1_234
10
4.9623324
20
5.5246042
40
0.3124019
50
296.7586019
51
325.753654
0
ARC
8
DEFAULT_255_1_234
10
4.9335433
20
5.5730789
40
0.368668
50
296.0902311
51
297.3618122
0
ARC
8
DEFAULT_255_1_234
10
4.959289
20
4.9176041
40
0.3518806
50
47.9009248
51
67.1946869
0
ARC
8
DEFAULT_255_1_234
10
4.9789132
20
4.9422395
40
0.320451
50
35.236241
51
47.551371
0
ARC
8
DEFAULT_255_1_234
10
5.005075
20
4.9596993
40
0.2890103
50
359.2759738
51
35.4014081
0
ARC
8
DEFAULT_255_1_234
10
4.9305781
20
4.9523826
40
0.3635026
50
343.1294516
51
0.5776525
0
ARC
8
DEFAULT_255_1_234
10
5.0030326
20
4.932433
40
0.2883832
50
310.8497458
51
342.744803
0
ARC
8
DEFAULT_255_1_234
10
4.9612439
20
4.9801294
40
0.3517954
50
281.5473923
51
310.9169905
0
ARC
8
DEFAULT_255_1_234
10
4.9255889
20
5.1354084
40
0.5110832
50
269.6192722
51
281.9789957
0
ARC
8
DEFAULT_255_1_234
10
4.9183678
20
5.1354828
40
0.5111606
50
257.4584469
51
270.4287458
0
ARC
8
DEFAULT_255_1_234
10
4.8802821
20
4.9751344
40
0.3463762
50
228.7553743
51
257.8484423
0
ARC
8
DEFAULT_255_1_234
10
4.8493019
20
4.9378442
40
0.297916
50
184.0104442
51
228.5071787
0
ARC
8
DEFAULT_255_1_234
10
4.9655963
20
4.9555512
40
0.4152734
50
179.9315461
51
185.3254504
0
ARC
8
DEFAULT_255_1_234
10
4.8479609
20
4.9592992
40
0.2976554
50
145.6795913
51
180.6259649
0
ARC
8
DEFAULT_255_1_234
10
4.8642958
20
4.9478929
40
0.3175776
50
115.5537925
51
145.6416199
0
ARC
8
DEFAULT_255_1_234
10
4.8983889
20
4.8868028
40
0.3874232
50
113.2437915
51
116.2054627
0
ARC
8
DEFAULT_255_1_234
10
4.8831101
20
5.526658
40
0.3154751
50
222.9548379
51
244.1372485
0
ARC
8
DEFAULT_255_1_234
10
4.8709176
20
5.5129834
40
0.2972382
50
213.3439227
51
222.6271327
0
ARC
8
DEFAULT_255_1_234
10
4.8517111
20
5.4999308
40
0.274019
50
180.4316517
51
213.2713999
0
ARC
8
DEFAULT_255_1_234
10
4.9092112
20
5.504611
40
0.33158
50
179.9992944
51
181.1655061
0
ARC
8
DEFAULT_255_1_234
10
4.9501529
20
5.5080561
40
0.3725376
50
164.6186108
51
180.5292368
0
ARC
8
DEFAULT_255_1_234
10
4.8603392
20
5.5322101
40
0.2795349
50
132.2454369
51
164.5092287
0
ARC
8
DEFAULT_255_1_234
10
4.8890496
20
5.4997028
40
0.3229019
50
100.7052766
51
132.1387266
0
ARC
8
DEFAULT_255_1_234
10
4.9195468
20
5.3619086
40
0.4639835
50
89.6732617
51
101.2449487
0
ARC
8
DEFAULT_255_1_234
10
4.9257667
20
5.379399
40
0.4464999
50
76.2876631
51
90.4586123
0
ARC
8
DEFAULT_255_1_234
10
4.9563898
20
5.501622
40
0.3205023
50
47.8240157
51
76.4266918
0
ARC
8
DEFAULT_255_1_234
10
4.9786448
20
5.527659
40
0.2862661
50
6.9168658
51
47.6261438
0
ARC
8
DEFAULT_255_1_234
10
4.8599851
20
5.505737
40
0.4067708
50
359.8419705
51
7.9694496
0
ARC
8
DEFAULT_255_1_234
10
4.8941748
20
4.9616925
40
0.2513121
50
359.4454068
51
16.9256425
0
ARC
8
DEFAULT_255_1_234
10
4.9410559
20
4.9746033
40
0.2027071
50
17.292259
51
45.462717
0
ARC
8
DEFAULT_255_1_234
10
4.9356495
20
4.9699434
40
0.2098212
50
45.3028762
51
83.1921472
0
ARC
8
DEFAULT_255_1_234
10
4.9213179
20
4.8897895
40
0.2911472
50
82.2614531
51
90.143954
0
ARC
8
DEFAULT_255_1_234
10
4.9182299
20
4.913095
40
0.2678513
50
89.4959189
51
104.8579811
0
ARC
8
DEFAULT_255_1_234
10
4.9005558
20
4.980089
40
0.1985654
50
104.8855873
51
135.2448349
0
ARC
8
DEFAULT_255_1_234
10
4.9055331
20
4.9756336
40
0.2052373
50
135.3398955
51
172.104394
0
ARC
8
DEFAULT_255_1_234
10
4.9862389
20
4.9601925
40
0.2873299
50
171.2651929
51
180.1859362
0
ARC
8
DEFAULT_255_1_234
10
4.969309
20
4.9569733
40
0.2704083
50
179.515471
51
193.6466734
0
ARC
8
DEFAULT_255_1_234
10
4.8876859
20
4.9361777
40
0.1861855
50
193.3540587
51
225.8256931
0
ARC
8
DEFAULT_255_1_234
10
4.8917617
20
4.9432524
40
0.1941102
50
226.418029
51
255.8553723
0
ARC
8
DEFAULT_255_1_234
10
4.9174049
20
5.0368998
40
0.2911917
50
255.4655572
51
268.7985967
0
ARC
8
DEFAULT_255_1_234
10
4.9221241
20
5.1207491
40
0.3751331
50
268.3464808
51
270.0104874
0
ARC
8
DEFAULT_255_1_234
10
4.9244629
20
5.0523138
40
0.3067064
50
269.575914
51
282.0823146
0
ARC
8
DEFAULT_255_1_234
10
4.9469538
20
4.9528803
40
0.2047712
50
281.7522535
51
306.6056425
0
ARC
8
DEFAULT_255_1_234
10
4.9567964
20
4.9367487
40
0.1859604
50
307.1350025
51
314.0277951
0
ARC
8
DEFAULT_255_1_234
10
4.9532049
20
4.9393766
40
0.1903475
50
314.2553419
51
350.169324
0
ARC
8
DEFAULT_255_1_234
10
4.8680517
20
4.9578409
40
0.2774269
50
349.4145679
51
0.2930737
0
ARC
8
DEFAULT_255_1_234
10
4.920095
20
5.4737353
40
0.2300764
50
89.477591
51
105.729794
0
ARC
8
DEFAULT_255_1_234
10
4.9064864
20
5.5242637
40
0.1777519
50
105.922966
51
135.1662921
0
ARC
8
DEFAULT_255_1_234
10
4.9085366
20
5.5228419
40
0.1802087
50
135.3053131
51
168.9882338
0
ARC
8
DEFAULT_255_1_234
10
4.9912939
20
5.5038721
40
0.2650806
50
168.3802067
51
180.3602358
0
ARC
8
DEFAULT_255_1_234
10
4.9684518
20
5.5001041
40
0.2422425
50
179.5029707
51
194.9126783
0
ARC
8
DEFAULT_255_1_234
10
4.9099179
20
5.484711
40
0.1817188
50
194.9722181
51
224.1943972
0
ARC
8
DEFAULT_255_1_234
10
4.9071046
20
5.4824169
40
0.1781027
50
224.2961434
51
262.0157375
0
ARC
8
DEFAULT_255_1_234
10
4.9213289
20
5.5555661
40
0.2525492
50
261.1250369
51
270.1959853
0
ARC
8
DEFAULT_255_1_234
10
4.9243044
20
5.5368339
40
0.233825
50
269.4825617
51
285.0988277
0
ARC
8
DEFAULT_255_1_234
10
4.9397203
20
5.478999
40
0.1739712
50
285.1585659
51
315.9484648
0
ARC
8
DEFAULT_255_1_234
10
4.9308215
20
5.4871886
40
0.1860616
50
316.0412958
51
351.9162715
0
ARC
8
DEFAULT_255_1_234
10
4.857517
20
5.5013245
40
0.2606517
50
351.1056823
51
0.1936567
0
ARC
8
DEFAULT_255_1_234
10
4.8837999
20
5.5043369
40
0.234377
50
359.4789506
51
16.0679113
0
ARC
8
DEFAULT_255_1_234
10
4.9313958
20
5.517181
40
0.1850875
50
16.3251951
51
44.791304
0
ARC
8
DEFAULT_255_1_234
10
4.9296239
20
5.5172339
40
0.186312
50
44.3958661
51
88.2498933
0
ARC
8
DEFAULT_255_1_234
10
4.9222793
20
5.4561154
40
0.2476868
50
86.9833827
51
90.0200148
0
LINE
8
DEFAULT_255_1_234
10
5.805684
20
5.1978026
11
5.805684
21
5.0765234
0
LINE
8
DEFAULT_255_1_234
10
5.805684
20
5.0765234
11
5.4137352
21
5.0765234
0
LINE
8
DEFAULT_255_1_234
10
5.4137352
20
5.0765234
11
5.4137352
21
5.1978026
0
LINE
8
DEFAULT_255_1_234
10
5.4137352
20
5.1978026
11
5.805684
21
5.1978026
0
LINE
8
DEFAULT_255_1_234
10
4.2860902
20
13.7473211
11
4.2860902
21
12.5779
0
LINE
8
DEFAULT_255_1_234
10
4.2860902
20
12.5779
11
4.1318808
21
12.5779
0
LINE
8
DEFAULT_255_1_234
10
4.1318808
20
12.5779
11
4.1318808
21
13.7473211
0
LINE
8
DEFAULT_255_1_234
10
4.1318808
20
13.7473211
11
4.2860902
21
13.7473211
0
ARC
8
DEFAULT_255_1_234
10
4.9564302
20
13.4395703
40
0.2822356
50
338.8763615
51
0.5166041
0
ARC
8
DEFAULT_255_1_234
10
4.9732957
20
13.4350208
40
0.2648703
50
325.8412414
51
338.4795939
0
ARC
8
DEFAULT_255_1_234
10
4.9342324
20
13.4621042
40
0.3124019
50
296.7586019
51
325.753654
0
ARC
8
DEFAULT_255_1_234
10
4.9054433
20
13.5105789
40
0.368668
50
296.0902311
51
297.3618122
0
ARC
8
DEFAULT_255_1_234
10
4.931189
20
12.8551041
40
0.3518806
50
47.9009248
51
67.1946869
0
ARC
8
DEFAULT_255_1_234
10
4.9508132
20
12.8797395
40
0.320451
50
35.236241
51
47.551371
0
ARC
8
DEFAULT_255_1_234
10
4.976975
20
12.8971993
40
0.2890103
50
359.2759738
51
35.4014081
0
ARC
8
DEFAULT_255_1_234
10
4.9024781
20
12.8898826
40
0.3635026
50
343.1294516
51
0.5776525
0
ARC
8
DEFAULT_255_1_234
10
4.9749326
20
12.869933
40
0.2883832
50
310.8497458
51
342.744803
0
ARC
8
DEFAULT_255_1_234
10
4.9331439
20
12.9176294
40
0.3517954
50
281.5473923
51
310.9169905
0
ARC
8
DEFAULT_255_1_234
10
4.8974889
20
13.0729084
40
0.5110832
50
269.6192722
51
281.9789957
0
ARC
8
DEFAULT_255_1_234
10
4.8902678
20
13.0729828
40
0.5111606
50
257.4584469
51
270.4287458
0
ARC
8
DEFAULT_255_1_234
10
4.8521821
20
12.9126344
40
0.3463762
50
228.7553743
51
257.8484423
0
ARC
8
DEFAULT_255_1_234
10
4.8212019
20
12.8753442
40
0.297916
50
184.0104442
51
228.5071787
0
ARC
8
DEFAULT_255_1_234
10
4.9374963
20
12.8930512
40
0.4152734
50
179.9315461
51
185.3254504
0
ARC
8
DEFAULT_255_1_234
10
4.8198609
20
12.8967992
40
0.2976554
50
145.6795913
51
180.6259649
0
ARC
8
DEFAULT_255_1_234
10
4.8361958
20
12.8853929
40
0.3175776
50
115.5537925
51
145.6416199
0
ARC
8
DEFAULT_255_1_234
10
4.8702889
20
12.8243028
40
0.3874232
50
113.2437915
51
116.2054627
0
ARC
8
DEFAULT_255_1_234
10
4.8550101
20
13.464158
40
0.3154751
50
222.9548379
51
244.1372485
0
ARC
8
DEFAULT_255_1_234
10
4.8428176
20
13.4504834
40
0.2972382
50
213.3439227
51
222.6271327
0
ARC
8
DEFAULT_255_1_234
10
4.8236111
20
13.4374308
40
0.274019
50
180.4316517
51
213.2713999
0
ARC
8
DEFAULT_255_1_234
10
4.8811112
20
13.442111
40
0.33158
50
179.9992944
51
181.1655061
0
ARC
8
DEFAULT_255_1_234
10
4.9220529
20
13.4455561
40
0.3725376
50
164.6186108
51
180.5292368
0
ARC
8
DEFAULT_255_1_234
10
4.8322392
20
13.4697101
40
0.2795349
50
132.2454369
51
164.5092287
0
ARC
8
DEFAULT_255_1_234
10
4.8609496
20
13.4372028
40
0.3229019
50
100.7052766
51
132.1387266
0
ARC
8
DEFAULT_255_1_234
10
4.8914468
20
13.2994086
40
0.4639835
50
89.6732617
51
101.2449487
0
ARC
8
DEFAULT_255_1_234
10
4.8976667
20
13.316899
40
0.4464999
50
76.2876631
51
90.4586123
0
ARC
8
DEFAULT_255_1_234
10
4.9282898
20
13.439122
40
0.3205023
50
47.8240157
51
76.4266918
0
ARC
8
DEFAULT_255_1_234
10
4.9505448
20
13.465159
40
0.2862661
50
6.9168658
51
47.6261438
0
ARC
8
DEFAULT_255_1_234
10
4.8318851
20
13.443237
40
0.4067708
50
359.8419705
51
7.9694496
0
ARC
8
DEFAULT_255_1_234
10
4.8660748
20
12.8991925
40
0.2513121
50
359.4454068
51
16.9256425
0
ARC
8
DEFAULT_255_1_234
10
4.9129559
20
12.9121033
40
0.2027071
50
17.292259
51
45.462717
0
ARC
8
DEFAULT_255_1_234
10
4.9075495
20
12.9074434
40
0.2098212
50
45.3028762
51
83.1921472
0
ARC
8
DEFAULT_255_1_234
10
4.8932179
20
12.8272895
40
0.2911472
50
82.2614531
51
90.143954
0
ARC
8
DEFAULT_255_1_234
10
4.8901299
20
12.850595
40
0.2678513
50
89.4959189
51
104.8579811
0
ARC
8
DEFAULT_255_1_234
10
4.8724558
20
12.917589
40
0.1985654
50
104.8855873
51
135.2448349
0
ARC
8
DEFAULT_255_1_234
10
4.8774331
20
12.9131336
40
0.2052373
50
135.3398955
51
172.104394
0
ARC
8
DEFAULT_255_1_234
10
4.9581389
20
12.8976925
40
0.2873299
50
171.2651929
51
180.1859362
0
ARC
8
DEFAULT_255_1_234
10
4.941209
20
12.8944733
40
0.2704083
50
179.515471
51
193.6466734
0
ARC
8
DEFAULT_255_1_234
10
4.8595859
20
12.8736777
40
0.1861855
50
193.3540587
51
225.8256931
0
ARC
8
DEFAULT_255_1_234
10
4.8636617
20
12.8807524
40
0.1941102
50
226.418029
51
255.8553723
0
ARC
8
DEFAULT_255_1_234
10
4.8893049
20
12.9743998
40
0.2911917
50
255.4655572
51
268.7985967
0
ARC
8
DEFAULT_255_1_234
10
4.8940241
20
13.0582491
40
0.3751331
50
268.3464808
51
270.0104874
0
ARC
8
DEFAULT_255_1_234
10
4.8963629
20
12.9898138
40
0.3067064
50
269.575914
51
282.0823146
0
ARC
8
DEFAULT_255_1_234
10
4.9188538
20
12.8903803
40
0.2047712
50
281.7522535
51
306.6056425
0
ARC
8
DEFAULT_255_1_234
10
4.9286964
20
12.8742487
40
0.1859604
50
307.1350025
51
314.0277951
0
ARC
8
DEFAULT_255_1_234
10
4.9251049
20
12.8768766
40
0.1903475
50
314.2553419
51
350.169324
0
ARC
8
DEFAULT_255_1_234
10
4.8399517
20
12.8953409
40
0.2774269
50
349.4145679
51
0.2930737
0
ARC
8
DEFAULT_255_1_234
10
4.891995
20
13.4112353
40
0.2300764
50
89.477591
51
105.729794
0
ARC
8
DEFAULT_255_1_234
10
4.8783864
20
13.4617637
40
0.1777519
50
105.922966
51
135.1662921
0
ARC
8
DEFAULT_255_1_234
10
4.8804366
20
13.4603419
40
0.1802087
50
135.3053131
51
168.9882338
0
ARC
8
DEFAULT_255_1_234
10
4.9631939
20
13.4413721
40
0.2650806
50
168.3802067
51
180.3602358
0
ARC
8
DEFAULT_255_1_234
10
4.9403518
20
13.4376041
40
0.2422425
50
179.5029707
51
194.9126783
0
ARC
8
DEFAULT_255_1_234
10
4.8818179
20
13.422211
40
0.1817188
50
194.9722181
51
224.1943972
0
ARC
8
DEFAULT_255_1_234
10
4.8790046
20
13.4199169
40
0.1781027
50
224.2961434
51
262.0157375
0
ARC
8
DEFAULT_255_1_234
10
4.8932289
20
13.4930661
40
0.2525492
50
261.1250369
51
270.1959853
0
ARC
8
DEFAULT_255_1_234
10
4.8962044
20
13.4743339
40
0.233825
50
269.4825617
51
285.0988277
0
ARC
8
DEFAULT_255_1_234
10
4.9116203
20
13.416499
40
0.1739712
50
285.1585659
51
315.9484648
0
ARC
8
DEFAULT_255_1_234
10
4.9027215
20
13.4246886
40
0.1860616
50
316.0412958
51
351.9162715
0
ARC
8
DEFAULT_255_1_234
10
4.829417
20
13.4388245
40
0.2606517
50
351.1056823
51
0.1936567
0
ARC
8
DEFAULT_255_1_234
10
4.8556999
20
13.4418369
40
0.234377
50
359.4789506
51
16.0679113
0
ARC
8
DEFAULT_255_1_234
10
4.9032958
20
13.454681
40
0.1850875
50
16.3251951
51
44.791304
0
ARC
8
DEFAULT_255_1_234
10
4.9015239
20
13.4547339
40
0.186312
50
44.3958661
51
88.2498933
0
ARC
8
DEFAULT_255_1_234
10
4.8941793
20
13.3936154
40
0.2476868
50
86.9833827
51
90.0200148
0
LINE
8
DEFAULT_255_1_234
10
5.8940442
20
13.5465276
11
5.8940442
21
13.2051788
0
LINE
8
DEFAULT_255_1_234
10
5.8940442
20
13.2051788
11
6.2201328
21
13.2051788
0
LINE
8
DEFAULT_255_1_234
10
6.2201328
20
13.2051788
11
6.2201328
21
13.0646233
0
LINE
8
DEFAULT_255_1_234
10
6.2201328
20
13.0646233
11
5.8940442
21
13.0646233
0
LINE
8
DEFAULT_255_1_234
10
5.8940442
20
13.0646233
11
5.8940442
21
12.6951634
0
LINE
8
DEFAULT_255_1_234
10
5.8940442
20
12.6951634
11
5.7446539
21
12.6951634
0
LINE
8
DEFAULT_255_1_234
10
5.7446539
20
12.6951634
11
5.7446539
21
13.0646233
0
LINE
8
DEFAULT_255_1_234
10
5.7446539
20
13.0646233
11
5.4185653
21
13.0646233
0
LINE
8
DEFAULT_255_1_234
10
5.4185653
20
13.0646233
11
5.4185653
21
13.2051788
0
LINE
8
DEFAULT_255_1_234
10
5.4185653
20
13.2051788
11
5.7446539
21
13.2051788
0
LINE
8
DEFAULT_255_1_234
10
5.7446539
20
13.2051788
11
5.7446539
21
13.5465276
0
LINE
8
DEFAULT_255_1_234
10
5.7446539
20
13.5465276
11
5.8940442
21
13.5465276
0
LINE
8
DEFAULT_255_1_234
10
4.3141902
20
21.6848211
11
4.3141902
21
20.5154
0
LINE
8
DEFAULT_255_1_234
10
4.3141902
20
20.5154
11
4.1599808
21
20.5154
0
LINE
8
DEFAULT_255_1_234
10
4.1599808
20
20.5154
11
4.1599808
21
21.6848211
0
LINE
8
DEFAULT_255_1_234
10
4.1599808
20
21.6848211
11
4.3141902
21
21.6848211
0
LINE
8
DEFAULT_255_1_234
10
5.3125353
20
21.6848211
11
5.3125353
21
21.601291
0
LINE
8
DEFAULT_255_1_234
10
5.3125353
20
21.601291
11
4.8282214
21
20.5154
0
LINE
8
DEFAULT_255_1_234
10
4.8282214
20
20.5154
11
4.6724057
21
20.5154
0
LINE
8
DEFAULT_255_1_234
10
4.6724057
20
20.5154
11
5.1551132
21
21.5627387
0
LINE
8
DEFAULT_255_1_234
10
5.1551132
20
21.5627387
11
4.5222122
21
21.5627387
0
LINE
8
DEFAULT_255_1_234
10
4.5222122
20
21.5627387
11
4.5222122
21
21.6848211
0
LINE
8
DEFAULT_255_1_234
10
4.5222122
20
21.6848211
11
5.3125353
21
21.6848211
0
LINE
8
DEFAULT_255_1_234
10
5.805684
20
21.0728026
11
5.805684
21
20.9515234
0
LINE
8
DEFAULT_255_1_234
10
5.805684
20
20.9515234
11
5.4137352
21
20.9515234
0
LINE
8
DEFAULT_255_1_234
10
5.4137352
20
20.9515234
11
5.4137352
21
21.0728026
0
LINE
8
DEFAULT_255_1_234
10
5.4137352
20
21.0728026
11
5.805684
21
21.0728026
0
LINE
8
DEFAULT_255_1_234
10
4.2860902
20
29.6223211
11
4.2860902
21
28.4529
0
LINE
8
DEFAULT_255_1_234
10
4.2860902
20
28.4529
11
4.1318808
21
28.4529
0
LINE
8
DEFAULT_255_1_234
10
4.1318808
20
28.4529
11
4.1318808
21
29.6223211
0
LINE
8
DEFAULT_255_1_234
10
4.1318808
20
29.6223211
11
4.2860902
21
29.6223211
0
LINE
8
DEFAULT_255_1_234
10
5.2844353
20
29.6223211
11
5.2844353
21
29.538791
0
LINE
8
DEFAULT_255_1_234
10
5.2844353
20
29.538791
11
4.8001214
21
28.4529
0
LINE
8
DEFAULT_255_1_234
10
4.8001214
20
28.4529
11
4.6443057
21
28.4529
0
LINE
8
DEFAULT_255_1_234
10
4.6443057
20
28.4529
11
5.1270132
21
29.5002387
0
LINE
8
DEFAULT_255_1_234
10
5.1270132
20
29.5002387
11
4.4941122
21
29.5002387
0
LINE
8
DEFAULT_255_1_234
10
4.4941122
20
29.5002387
11
4.4941122
21
29.6223211
0
LINE
8
DEFAULT_255_1_234
10
4.4941122
20
29.6223211
11
5.2844353
21
29.6223211
0
LINE
8
DEFAULT_255_1_234
10
5.8940442
20
29.4215276
11
5.8940442
21
29.0801788
0
LINE
8
DEFAULT_255_1_234
10
5.8940442
20
29.0801788
11
6.2201328
21
29.0801788
0
LINE
8
DEFAULT_255_1_234
10
6.2201328
20
29.0801788
11
6.2201328
21
28.9396233
0
LINE
8
DEFAULT_255_1_234
10
6.2201328
20
28.9396233
11
5.8940442
21
28.9396233
0
LINE
8
DEFAULT_255_1_234
10
5.8940442
20
28.9396233
11
5.8940442
21
28.5701634
0
LINE
8
DEFAULT_255_1_234
10
5.8940442
20
28.5701634
11
5.7446539
21
28.5701634
0
LINE
8
DEFAULT_255_1_234
10
5.7446539
20
28.5701634
11
5.7446539
21
28.9396233
0
LINE
8
DEFAULT_255_1_234
10
5.7446539
20
28.9396233
11
5.4185653
21
28.9396233
0
LINE
8
DEFAULT_255_1_234
10
5.4185653
20
28.9396233
11
5.4185653
21
29.0801788
0
LINE
8
DEFAULT_255_1_234
10
5.4185653
20
29.0801788
11
5.7446539
21
29.0801788
0
LINE
8
DEFAULT_255_1_234
10
5.7446539
20
29.0801788
11
5.7446539
21
29.4215276
0
LINE
8
DEFAULT_255_1_234
10
5.7446539
20
29.4215276
11
5.8940442
21
29.4215276
0
LINE
8
DEFAULT_255_1_234
10
4.3141902
20
37.5598211
11
4.3141902
21
36.3904
0
LINE
8
DEFAULT_255_1_234
10
4.3141902
20
36.3904
11
4.1599808
21
36.3904
0
LINE
8
DEFAULT_255_1_234
10
4.1599808
20
36.3904
11
4.1599808
21
37.5598211
0
LINE
8
DEFAULT_255_1_234
10
4.1599808
20
37.5598211
11
4.3141902
21
37.5598211
0
LINE
8
DEFAULT_255_1_234
10
5.1141513
20
37.5606243
11
5.1406561
21
37.5606243
0
LINE
8
DEFAULT_255_1_234
10
5.1406561
20
37.5606243
11
5.1406561
21
37.434526
0
LINE
8
DEFAULT_255_1_234
10
5.1406561
20
37.434526
11
5.1133481
21
37.434526
0
LINE
8
DEFAULT_255_1_234
10
4.5663868
20
36.8353583
11
4.5663868
21
36.8923836
0
LINE
8
DEFAULT_255_1_234
10
4.7157771
20
36.8731075
11
4.7157771
21
36.8184917
0
ARC
8
DEFAULT_255_1_234
10
5.1185829
20
36.9347455
40
0.4998079
50
90.6001036
51
104.514704
0
ARC
8
DEFAULT_255_1_234
10
5.0797345
20
37.0792131
40
0.3502176
50
104.2855254
51
133.862935
0
ARC
8
DEFAULT_255_1_234
10
5.0961102
20
37.068383
40
0.3693984
50
134.5302688
51
161.6210873
0
ARC
8
DEFAULT_255_1_234
10
5.2614291
20
37.0100895
40
0.5446739
50
161.2849839
51
174.2076652
0
ARC
8
DEFAULT_255_1_234
10
5.4021228
20
36.9906787
40
0.6866274
50
173.7810589
51
174.9254635
0
ARC
8
DEFAULT_255_1_234
10
4.947106
20
36.8523839
40
0.3033419
50
95.8330959
51
138.9954921
0
ARC
8
DEFAULT_255_1_234
10
4.9694416
20
36.7245375
40
0.4328947
50
89.8753725
51
97.0544009
0
ARC
8
DEFAULT_255_1_234
10
4.9741882
20
36.8080748
40
0.3493769
50
71.6407809
51
90.6240094
0
ARC
8
DEFAULT_255_1_234
10
4.9892456
20
36.8635082
40
0.2920396
50
39.6367836
51
71.019018
0
ARC
8
DEFAULT_255_1_234
10
4.9255928
20
36.8084998
40
0.3761538
50
10.658731
51
39.9043955
0
ARC
8
DEFAULT_255_1_234
10
4.7708011
20
36.7748686
40
0.5345136
50
359.682601
51
11.132623
0
ARC
8
DEFAULT_255_1_234
10
4.7668142
20
36.767801
40
0.5385081
50
347.2486944
51
0.4369317
0
ARC
8
DEFAULT_255_1_234
10
4.9335619
20
36.7276807
40
0.3670249
50
318.1409698
51
347.6118597
0
ARC
8
DEFAULT_255_1_234
10
4.9660612
20
36.7009702
40
0.3250007
50
275.6342139
51
317.8248465
0
ARC
8
DEFAULT_255_1_234
10
4.9439724
20
36.8309219
40
0.4565864
50
269.8874292
51
276.7917694
0
ARC
8
DEFAULT_255_1_234
10
4.9384794
20
36.7283743
40
0.3540676
50
246.9140195
51
270.7437342
0
ARC
8
DEFAULT_255_1_234
10
4.9391184
20
36.7141384
40
0.3412781
50
218.1665114
51
245.878116
0
ARC
8
DEFAULT_255_1_234
10
5.0270645
20
36.7877279
40
0.455911
50
191.4115814
51
218.6077802
0
ARC
8
DEFAULT_255_1_234
10
5.2208735
20
36.8311833
40
0.6545001
50
179.6345085
51
191.7836486
0
ARC
8
DEFAULT_255_1_234
10
5.7791071
20
36.8990697
40
1.2127388
50
171.4525249
51
180.3158839
0
ARC
8
DEFAULT_255_1_234
10
5.3395947
20
36.9674608
40
0.7679464
50
157.9802646
51
171.6246686
0
ARC
8
DEFAULT_255_1_234
10
5.1181968
20
37.0557421
40
0.5296008
50
141.4298019
51
157.854097
0
ARC
8
DEFAULT_255_1_234
10
5.0540289
20
37.1011381
40
0.4511509
50
102.8715806
51
140.8564722
0
ARC
8
DEFAULT_255_1_234
10
5.1187904
20
36.8571552
40
0.7034845
50
90.3778349
51
103.5869322
0
ARC
8
DEFAULT_255_1_234
10
4.944968
20
36.796673
40
0.2370698
50
89.8751008
51
126.2071704
0
ARC
8
DEFAULT_255_1_234
10
4.949547
20
36.7812303
40
0.2522934
50
124.9745049
51
144.895901
0
ARC
8
DEFAULT_255_1_234
10
4.9319661
20
36.795556
40
0.2296779
50
145.2974905
51
160.2660252
0
ARC
8
DEFAULT_255_1_234
10
5.2392199
20
36.8153071
40
0.5234525
50
179.6514266
51
190.2855912
0
ARC
8
DEFAULT_255_1_234
10
5.0698337
20
36.7833786
40
0.3510893
50
190.0945431
51
207.5098196
0
ARC
8
DEFAULT_255_1_234
10
5.0132606
20
36.7564623
40
0.288489
50
207.9583163
51
216.3251085
0
ARC
8
DEFAULT_255_1_234
10
4.9792714
20
36.7285105
40
0.2445587
50
215.7661442
51
232.5456785
0
ARC
8
DEFAULT_255_1_234
10
4.9409697
20
36.6798482
40
0.1826382
50
232.8005391
51
270.6605633
0
ARC
8
DEFAULT_255_1_234
10
4.9455398
20
36.7162612
40
0.2190529
50
269.35537
51
288.4744281
0
ARC
8
DEFAULT_255_1_234
10
4.9548295
20
36.6813118
40
0.1829749
50
289.1833337
51
322.9683818
0
ARC
8
DEFAULT_255_1_234
10
4.8936818
20
36.7295391
40
0.2608399
50
322.6007884
51
346.5182367
0
ARC
8
DEFAULT_255_1_234
10
4.7779413
20
36.7590616
40
0.3802777
50
346.2582162
51
358.7741648
0
ARC
8
DEFAULT_255_1_234
10
4.6761082
20
36.7645965
40
0.4822176
50
358.3755224
51
0.0098023
0
ARC
8
DEFAULT_255_1_234
10
4.7517269
20
36.7673657
40
0.4066078
50
359.6214041
51
11.2839074
0
ARC
8
DEFAULT_255_1_234
10
4.8794416
20
36.7940066
40
0.2761514
50
11.0482309
51
31.8146458
0
ARC
8
DEFAULT_255_1_234
10
4.9103459
20
36.8107584
40
0.2410679
50
32.3035391
51
38.082671
0
ARC
8
DEFAULT_255_1_234
10
4.9524119
20
36.8488662
40
0.1844966
50
36.825067
51
85.7415724
0
ARC
8
DEFAULT_255_1_234
10
4.9456953
20
36.7988301
40
0.2349122
50
85.0140713
51
90.0513278
0
LINE
8
DEFAULT_255_1_234
10
5.805684
20
36.9478026
11
5.805684
21
36.8265234
0
LINE
8
DEFAULT_255_1_234
10
5.805684
20
36.8265234
11
5.4137352
21
36.8265234
0
LINE
8
DEFAULT_255_1_234
10
5.4137352
20
36.8265234
11
5.4137352
21
36.9478026
0
LINE
8
DEFAULT_255_1_234
10
5.4137352
20
36.9478026
11
5.805684
21
36.9478026
0
LINE
8
DEFAULT_255_1_234
10
4.2860902
20
45.4973211
11
4.2860902
21
44.3279
0
LINE
8
DEFAULT_255_1_234
10
4.2860902
20
44.3279
11
4.1318808
21
44.3279
0
LINE
8
DEFAULT_255_1_234
10
4.1318808
20
44.3279
11
4.1318808
21
45.4973211
0
LINE
8
DEFAULT_255_1_234
10
4.1318808
20
45.4973211
11
4.2860902
21
45.4973211
0
LINE
8
DEFAULT_255_1_234
10
5.0860513
20
45.4981243
11
5.1125561
21
45.4981243
0
LINE
8
DEFAULT_255_1_234
10
5.1125561
20
45.4981243
11
5.1125561
21
45.372026
0
LINE
8
DEFAULT_255_1_234
10
5.1125561
20
45.372026
11
5.0852481
21
45.372026
0
LINE
8
DEFAULT_255_1_234
10
4.5382868
20
44.7728583
11
4.5382868
21
44.8298836
0
LINE
8
DEFAULT_255_1_234
10
4.6876771
20
44.8106075
11
4.6876771
21
44.7559917
0
ARC
8
DEFAULT_255_1_234
10
5.0904829
20
44.8722455
40
0.4998079
50
90.6001036
51
104.514704
0
ARC
8
DEFAULT_255_1_234
10
5.0516345
20
45.0167131
40
0.3502176
50
104.2855254
51
133.862935
0
ARC
8
DEFAULT_255_1_234
10
5.0680102
20
45.005883
40
0.3693984
50
134.5302688
51
161.6210873
0
ARC
8
DEFAULT_255_1_234
10
5.2333291
20
44.9475895
40
0.5446739
50
161.2849839
51
174.2076652
0
ARC
8
DEFAULT_255_1_234
10
5.3740228
20
44.9281787
40
0.6866274
50
173.7810589
51
174.9254635
0
ARC
8
DEFAULT_255_1_234
10
4.919006
20
44.7898839
40
0.3033419
50
95.8330959
51
138.9954921
0
ARC
8
DEFAULT_255_1_234
10
4.9413416
20
44.6620375
40
0.4328947
50
89.8753725
51
97.0544009
0
ARC
8
DEFAULT_255_1_234
10
4.9460882
20
44.7455748
40
0.3493769
50
71.6407809
51
90.6240094
0
ARC
8
DEFAULT_255_1_234
10
4.9611456
20
44.8010082
40
0.2920396
50
39.6367836
51
71.019018
0
ARC
8
DEFAULT_255_1_234
10
4.8974928
20
44.7459998
40
0.3761538
50
10.658731
51
39.9043955
0
ARC
8
DEFAULT_255_1_234
10
4.7427011
20
44.7123686
40
0.5345136
50
359.682601
51
11.132623
0
ARC
8
DEFAULT_255_1_234
10
4.7387142
20
44.705301
40
0.5385081
50
347.2486944
51
0.4369317
0
ARC
8
DEFAULT_255_1_234
10
4.9054619
20
44.6651807
40
0.3670249
50
318.1409698
51
347.6118597
0
ARC
8
DEFAULT_255_1_234
10
4.9379612
20
44.6384702
40
0.3250007
50
275.6342139
51
317.8248465
0
ARC
8
DEFAULT_255_1_234
10
4.9158724
20
44.7684219
40
0.4565864
50
269.8874292
51
276.7917694
0
ARC
8
DEFAULT_255_1_234
10
4.9103794
20
44.6658743
40
0.3540676
50
246.9140195
51
270.7437342
0
ARC
8
DEFAULT_255_1_234
10
4.9110184
20
44.6516384
40
0.3412781
50
218.1665114
51
245.878116
0
ARC
8
DEFAULT_255_1_234
10
4.9989645
20
44.7252279
40
0.455911
50
191.4115814
51
218.6077802
0
ARC
8
DEFAULT_255_1_234
10
5.1927735
20
44.7686833
40
0.6545001
50
179.6345085
51
191.7836486
0
ARC
8
DEFAULT_255_1_234
10
5.7510071
20
44.8365697
40
1.2127388
50
171.4525249
51
180.3158839
0
ARC
8
DEFAULT_255_1_234
10
5.3114947
20
44.9049608
40
0.7679464
50
157.9802646
51
171.6246686
0
ARC
8
DEFAULT_255_1_234
10
5.0900968
20
44.9932421
40
0.5296008
50
141.4298019
51
157.854097
0
ARC
8
DEFAULT_255_1_234
10
5.0259289
20
45.0386381
40
0.4511509
50
102.8715806
51
140.8564722
0
ARC
8
DEFAULT_255_1_234
10
5.0906904
20
44.7946552
40
0.7034845
50
90.3778349
51
103.5869322
0
ARC
8
DEFAULT_255_1_234
10
4.916868
20
44.734173
40
0.2370698
50
89.8751008
51
126.2071704
0
ARC
8
DEFAULT_255_1_234
10
4.921447
20
44.7187303
40
0.2522934
50
124.9745049
51
144.895901
0
ARC
8
DEFAULT_255_1_234
10
4.9038661
20
44.733056
40
0.2296779
50
145.2974905
51
160.2660252
0
ARC
8
DEFAULT_255_1_234
10
5.2111199
20
44.7528071
40
0.5234525
50
179.6514266
51
190.2855912
0
ARC
8
DEFAULT_255_1_234
10
5.0417337
20
44.7208786
40
0.3510893
50
190.0945431
51
207.5098196
0
ARC
8
DEFAULT_255_1_234
10
4.9851606
20
44.6939623
40
0.288489
50
207.9583163
51
216.3251085
0
ARC
8
DEFAULT_255_1_234
10
4.9511714
20
44.6660105
40
0.2445587
50
215.7661442
51
232.5456785
0
ARC
8
DEFAULT_255_1_234
10
4.9128697
20
44.6173482
40
0.1826382
50
232.8005391
51
270.6605633
0
ARC
8
DEFAULT_255_1_234
10
4.9174398
20
44.6537612
40
0.2190529
50
269.35537
51
288.4744281
0
ARC
8
DEFAULT_255_1_234
10
4.9267295
20
44.6188118
40
0.1829749
50
289.1833337
51
322.9683818
0
ARC
8
DEFAULT_255_1_234
10
4.8655818
20
44.6670391
40
0.2608399
50
322.6007884
51
346.5182367
0
ARC
8
DEFAULT_255_1_234
10
4.7498413
20
44.6965616
40
0.3802777
50
346.2582162
51
358.7741648
0
ARC
8
DEFAULT_255_1_234
10
4.6480082
20
44.7020965
40
0.4822176
50
358.3755224
51
0.0098023
0
ARC
8
DEFAULT_255_1_234
10
4.7236269
20
44.7048657
40
0.4066078
50
359.6214041
51
11.2839074
0
ARC
8
DEFAULT_255_1_234
10
4.8513416
20
44.7315066
40
0.2761514
50
11.0482309
51
31.8146458
0
ARC
8
DEFAULT_255_1_234
10
4.8822459
20
44.7482584
40
0.2410679
50
32.3035391
51
38.082671
0
ARC
8
DEFAULT_255_1_234
10
4.9243119
20
44.7863662
40
0.1844966
50
36.825067
51
85.7415724
0
ARC
8
DEFAULT_255_1_234
10
4.9175953
20
44.7363301
40
0.2349122
50
85.0140713
51
90.0513278
0
LINE
8
DEFAULT_255_1_234
10
5.8940442
20
45.2965276
11
5.8940442
21
44.9551788
0
LINE
8
DEFAULT_255_1_234
10
5.8940442
20
44.9551788
11
6.2201328
21
44.9551788
0
LINE
8
DEFAULT_255_1_234
10
6.2201328
20
44.9551788
11
6.2201328
21
44.8146233
0
LINE
8
DEFAULT_255_1_234
10
6.2201328
20
44.8146233
11
5.8940442
21
44.8146233
0
LINE
8
DEFAULT_255_1_234
10
5.8940442
20
44.8146233
11
5.8940442
21
44.4451634
0
LINE
8
DEFAULT_255_1_234
10
5.8940442
20
44.4451634
11
5.7446539
21
44.4451634
0
LINE
8
DEFAULT_255_1_234
10
5.7446539
20
44.4451634
11
5.7446539
21
44.8146233
0
LINE
8
DEFAULT_255_1_234
10
5.7446539
20
44.8146233
11
5.4185653
21
44.8146233
0
LINE
8
DEFAULT_255_1_234
10
5.4185653
20
44.8146233
11
5.4185653
21
44.9551788
0
LINE
8
DEFAULT_255_1_234
10
5.4185653
20
44.9551788
11
5.7446539
21
44.9551788
0
LINE
8
DEFAULT_255_1_234
10
5.7446539
20
44.9551788
11
5.7446539
21
45.2965276
0
LINE
8
DEFAULT_255_1_234
10
5.7446539
20
45.2965276
11
5.8940442
21
45.2965276
0
LINE
8
DEFAULT_255_1_234
10
4.3141902
20
53.4348211
11
4.3141902
21
52.2654
0
LINE
8
DEFAULT_255_1_234
10
4.3141902
20
52.2654
11
4.1599808
21
52.2654
0
LINE
8
DEFAULT_255_1_234
10
4.1599808
20
52.2654
11
4.1599808
21
53.4348211
0
LINE
8
DEFAULT_255_1_234
10
4.1599808
20
53.4348211
11
4.3141902
21
53.4348211
0
LINE
8
DEFAULT_255_1_234
10
4.7446914
20
52.8211963
11
4.6258216
21
52.8517169
0
LINE
8
DEFAULT_255_1_234
10
4.6258216
20
52.8517169
11
4.6852565
21
53.4348211
0
LINE
8
DEFAULT_255_1_234
10
4.6852565
20
53.4348211
11
5.2844242
21
53.4348211
0
LINE
8
DEFAULT_255_1_234
10
5.2844242
20
53.4348211
11
5.2844242
21
53.2974784
0
LINE
8
DEFAULT_255_1_234
10
5.2844242
20
53.2974784
11
4.8113548
21
53.2974784
0
LINE
8
DEFAULT_255_1_234
10
4.8113548
20
53.2974784
11
4.7760151
21
52.9786184
0
LINE
8
DEFAULT_255_1_234
10
4.5840566
20
52.5730156
11
4.724612
21
52.5730156
0
LINE
8
DEFAULT_255_1_234
10
4.7840469
20
52.8533232
11
4.7446914
21
52.8211963
0
ARC
8
DEFAULT_255_1_234
10
4.9614935
20
52.660623
40
0.3681349
50
93.7182161
51
120.2538958
0
ARC
8
DEFAULT_255_1_234
10
4.9709198
20
52.5798394
40
0.449379
50
89.9660152
51
94.2496022
0
ARC
8
DEFAULT_255_1_234
10
4.9749932
20
52.6387549
40
0.390482
50
73.8043271
51
90.5585896
0
ARC
8
DEFAULT_255_1_234
10
4.9984829
20
52.7245602
40
0.3015334
50
41.3071453
51
73.5430202
0
ARC
8
DEFAULT_255_1_234
10
4.9568657
20
52.6887324
40
0.3564457
50
13.5075983
51
41.2174222
0
ARC
8
DEFAULT_255_1_234
10
4.792686
20
52.6457486
40
0.5261351
50
1.1331335
51
13.8829381
0
ARC
8
DEFAULT_255_1_234
10
4.6515229
20
52.6381665
40
0.6674378
50
359.9919444
51
1.544251
0
ARC
8
DEFAULT_255_1_234
10
4.7792056
20
52.634028
40
0.5397702
50
347.8572367
51
0.4293338
0
ARC
8
DEFAULT_255_1_234
10
4.9542373
20
52.5943736
40
0.3603188
50
323.673004
51
348.1672506
0
ARC
8
DEFAULT_255_1_234
10
4.9836881
20
52.5764168
40
0.3259678
50
316.8171152
51
323.1492751
0
ARC
8
DEFAULT_255_1_234
10
4.989807
20
52.572746
40
0.3189975
50
281.8396411
51
316.5457803
0
ARC
8
DEFAULT_255_1_234
10
4.9522334
20
52.7282762
40
0.4789527
50
269.5770101
51
282.4214771
0
ARC
8
DEFAULT_255_1_234
10
4.9451146
20
52.7069125
40
0.45759
50
256.2427136
51
270.4486331
0
ARC
8
DEFAULT_255_1_234
10
4.9152048
20
52.5869229
40
0.3339303
50
228.9023911
51
256.3314342
0
ARC
8
DEFAULT_255_1_234
10
4.9078281
20
52.5752746
40
0.32031
50
193.753695
51
228.5271154
0
ARC
8
DEFAULT_255_1_234
10
5.0316234
20
52.61158
40
0.4492253
50
184.924711
51
194.497588
0
ARC
8
DEFAULT_255_1_234
10
5.0508801
20
52.6151591
40
0.3289787
50
187.3600538
51
198.6732863
0
ARC
8
DEFAULT_255_1_234
10
4.9459095
20
52.5787674
40
0.217884
50
198.4451669
51
217.794479
0
ARC
8
DEFAULT_255_1_234
10
4.916327
20
52.5578085
40
0.1816698
50
218.2887171
51
228.5612368
0
ARC
8
DEFAULT_255_1_234
10
4.9261057
20
52.5709963
40
0.1980329
50
228.9654866
51
258.1234728
0
ARC
8
DEFAULT_255_1_234
10
4.9466767
20
52.6590833
40
0.2884748
50
257.7258293
51
270.401361
0
ARC
8
DEFAULT_255_1_234
10
4.9511654
20
52.6145821
40
0.2439788
50
269.4204404
51
286.4209037
0
ARC
8
DEFAULT_255_1_234
10
4.9660141
20
52.5606657
40
0.1880666
50
286.7251356
51
320.600362
0
ARC
8
DEFAULT_255_1_234
10
4.9276966
20
52.5917595
40
0.2374121
50
320.6712579
51
344.5441685
0
ARC
8
DEFAULT_255_1_234
10
4.8120292
20
52.6257045
40
0.3579479
50
344.2412205
51
356.7357071
0
ARC
8
DEFAULT_255_1_234
10
4.6871441
20
52.6360444
40
0.4832297
50
356.3548756
51
0.0500261
0
ARC
8
DEFAULT_255_1_234
10
4.820795
20
52.639165
40
0.3495889
50
359.5576869
51
12.953486
0
ARC
8
DEFAULT_255_1_234
10
4.9262847
20
52.6647434
40
0.2410532
50
12.6490276
51
41.6081334
0
ARC
8
DEFAULT_255_1_234
10
4.9493218
20
52.6843321
40
0.2108218
50
41.7850273
51
85.9892764
0
ARC
8
DEFAULT_255_1_234
10
4.9369955
20
52.6030462
40
0.2928454
50
84.6957577
51
90.0676183
0
ARC
8
DEFAULT_255_1_234
10
4.9346439
20
52.5361716
40
0.3597255
50
89.6804936
51
99.1614436
0
ARC
8
DEFAULT_255_1_234
10
4.914107
20
52.6589131
40
0.235281
50
98.9830931
51
113.8908934
0
ARC
8
DEFAULT_255_1_234
10
4.8911481
20
52.7130587
40
0.176479
50
114.1950727
51
127.3641004
0
LINE
8
DEFAULT_255_1_234
10
5.805684
20
52.8228026
11
5.805684
21
52.7015234
0
LINE
8
DEFAULT_255_1_234
10
5.805684
20
52.7015234
11
5.4137352
21
52.7015234
0
LINE
8
DEFAULT_255_1_234
10
5.4137352
20
52.7015234
11
5.4137352
21
52.8228026
0
LINE
8
DEFAULT_255_1_234
10
5.4137352
20
52.8228026
11
5.805684
21
52.8228026
0
LINE
8
DEFAULT_255_1_234
10
4.2860902
20
61.3723211
11
4.2860902
21
60.2029
0
LINE
8
DEFAULT_255_1_234
10
4.2860902
20
60.2029
11
4.1318808
21
60.2029
0
LINE
8
DEFAULT_255_1_234
10
4.1318808
20
60.2029
11
4.1318808
21
61.3723211
0
LINE
8
DEFAULT_255_1_234
10
4.1318808
20
61.3723211
11
4.2860902
21
61.3723211
0
LINE
8
DEFAULT_255_1_234
10
4.7165914
20
60.7586963
11
4.5977216
21
60.7892169
0
LINE
8
DEFAULT_255_1_234
10
4.5977216
20
60.7892169
11
4.6571565
21
61.3723211
0
LINE
8
DEFAULT_255_1_234
10
4.6571565
20
61.3723211
11
5.2563242
21
61.3723211
0
LINE
8
DEFAULT_255_1_234
10
5.2563242
20
61.3723211
11
5.2563242
21
61.2349784
0
LINE
8
DEFAULT_255_1_234
10
5.2563242
20
61.2349784
11
4.7832548
21
61.2349784
0
LINE
8
DEFAULT_255_1_234
10
4.7832548
20
61.2349784
11
4.7479151
21
60.9161184
0
LINE
8
DEFAULT_255_1_234
10
4.5559566
20
60.5105156
11
4.696512
21
60.5105156
0
LINE
8
DEFAULT_255_1_234
10
4.7559469
20
60.7908232
11
4.7165914
21
60.7586963
0
ARC
8
DEFAULT_255_1_234
10
4.9333935
20
60.598123
40
0.3681349
50
93.7182161
51
120.2538958
0
ARC
8
DEFAULT_255_1_234
10
4.9428198
20
60.5173394
40
0.449379
50
89.9660152
51
94.2496022
0
ARC
8
DEFAULT_255_1_234
10
4.9468932
20
60.5762549
40
0.390482
50
73.8043271
51
90.5585896
0
ARC
8
DEFAULT_255_1_234
10
4.9703829
20
60.6620602
40
0.3015334
50
41.3071453
51
73.5430202
0
ARC
8
DEFAULT_255_1_234
10
4.9287657
20
60.6262324
40
0.3564457
50
13.5075983
51
41.2174222
0
ARC
8
DEFAULT_255_1_234
10
4.764586
20
60.5832486
40
0.5261351
50
1.1331335
51
13.8829381
0
ARC
8
DEFAULT_255_1_234
10
4.6234229
20
60.5756665
40
0.6674378
50
359.9919444
51
1.544251
0
ARC
8
DEFAULT_255_1_234
10
4.7511056
20
60.571528
40
0.5397702
50
347.8572367
51
0.4293338
0
ARC
8
DEFAULT_255_1_234
10
4.9261373
20
60.5318736
40
0.3603188
50
323.673004
51
348.1672506
0
ARC
8
DEFAULT_255_1_234
10
4.9555881
20
60.5139168
40
0.3259678
50
316.8171152
51
323.1492751
0
ARC
8
DEFAULT_255_1_234
10
4.961707
20
60.510246
40
0.3189975
50
281.8396411
51
316.5457803
0
ARC
8
DEFAULT_255_1_234
10
4.9241334
20
60.6657762
40
0.4789527
50
269.5770101
51
282.4214771
0
ARC
8
DEFAULT_255_1_234
10
4.9170146
20
60.6444125
40
0.45759
50
256.2427136
51
270.4486331
0
ARC
8
DEFAULT_255_1_234
10
4.8871048
20
60.5244229
40
0.3339303
50
228.9023911
51
256.3314342
0
ARC
8
DEFAULT_255_1_234
10
4.8797281
20
60.5127746
40
0.32031
50
193.753695
51
228.5271154
0
ARC
8
DEFAULT_255_1_234
10
5.0035234
20
60.54908
40
0.4492253
50
184.924711
51
194.497588
0
ARC
8
DEFAULT_255_1_234
10
5.0227801
20
60.5526591
40
0.3289787
50
187.3600538
51
198.6732863
0
ARC
8
DEFAULT_255_1_234
10
4.9178095
20
60.5162674
40
0.217884
50
198.4451669
51
217.794479
0
ARC
8
DEFAULT_255_1_234
10
4.888227
20
60.4953085
40
0.1816698
50
218.2887171
51
228.5612368
0
ARC
8
DEFAULT_255_1_234
10
4.8980057
20
60.5084963
40
0.1980329
50
228.9654866
51
258.1234728
0
ARC
8
DEFAULT_255_1_234
10
4.9185767
20
60.5965833
40
0.2884748
50
257.7258293
51
270.401361
0
ARC
8
DEFAULT_255_1_234
10
4.9230654
20
60.5520821
40
0.2439788
50
269.4204404
51
286.4209037
0
ARC
8
DEFAULT_255_1_234
10
4.9379141
20
60.4981657
40
0.1880666
50
286.7251356
51
320.600362
0
ARC
8
DEFAULT_255_1_234
10
4.8995966
20
60.5292595
40
0.2374121
50
320.6712579
51
344.5441685
0
ARC
8
DEFAULT_255_1_234
10
4.7839292
20
60.5632045
40
0.3579479
50
344.2412205
51
356.7357071
0
ARC
8
DEFAULT_255_1_234
10
4.6590441
20
60.5735444
40
0.4832297
50
356.3548756
51
0.0500261
0
ARC
8
DEFAULT_255_1_234
10
4.792695
20
60.576665
40
0.3495889
50
359.5576869
51
12.953486
0
ARC
8
DEFAULT_255_1_234
10
4.8981847
20
60.6022434
40
0.2410532
50
12.6490276
51
41.6081334
0
ARC
8
DEFAULT_255_1_234
10
4.9212218
20
60.6218321
40
0.2108218
50
41.7850273
51
85.9892764
0
ARC
8
DEFAULT_255_1_234
10
4.9088955
20
60.5405462
40
0.2928454
50
84.6957577
51
90.0676183
0
ARC
8
DEFAULT_255_1_234
10
4.9065439
20
60.4736716
40
0.3597255
50
89.6804936
51
99.1614436
0
ARC
8
DEFAULT_255_1_234
10
4.886007
20
60.5964131
40
0.235281
50
98.9830931
51
113.8908934
0
ARC
8
DEFAULT_255_1_234
10
4.8630481
20
60.6505587
40
0.176479
50
114.1950727
51
127.3641004
0
LINE
8
DEFAULT_255_1_234
10
5.8940442
20
61.1715276
11
5.8940442
21
60.8301788
0
LINE
8
DEFAULT_255_1_234
10
5.8940442
20
60.8301788
11
6.2201328
21
60.8301788
0
LINE
8
DEFAULT_255_1_234
10
6.2201328
20
60.8301788
11
6.2201328
21
60.6896233
0
LINE
8
DEFAULT_255_1_234
10
6.2201328
20
60.6896233
11
5.8940442
21
60.6896233
0
LINE
8
DEFAULT_255_1_234
10
5.8940442
20
60.6896233
11
5.8940442
21
60.3201634
0
LINE
8
DEFAULT_255_1_234
10
5.8940442
20
60.3201634
11
5.7446539
21
60.3201634
0
LINE
8
DEFAULT_255_1_234
10
5.7446539
20
60.3201634
11
5.7446539
21
60.6896233
0
LINE
8
DEFAULT_255_1_234
10
5.7446539
20
60.6896233
11
5.4185653
21
60.6896233
0
LINE
8
DEFAULT_255_1_234
10
5.4185653
20
60.6896233
11
5.4185653
21
60.8301788
0
LINE
8
DEFAULT_255_1_234
10
5.4185653
20
60.8301788
11
5.7446539
21
60.8301788
0
LINE
8
DEFAULT_255_1_234
10
5.7446539
20
60.8301788
11
5.7446539
21
61.1715276
0
LINE
8
DEFAULT_255_1_234
10
5.7446539
20
61.1715276
11
5.8940442
21
61.1715276
0
LINE
8
DEFAULT_255_1_234
10
4.3141902
20
69.3098211
11
4.3141902
21
68.1404
0
LINE
8
DEFAULT_255_1_234
10
4.3141902
20
68.1404
11
4.1599808
21
68.1404
0
LINE
8
DEFAULT_255_1_234
10
4.1599808
20
68.1404
11
4.1599808
21
69.3098211
0
LINE
8
DEFAULT_255_1_234
10
4.1599808
20
69.3098211
11
4.3141902
21
69.3098211
0
LINE
8
DEFAULT_255_1_234
10
5.1848306
20
69.3098211
11
5.1848306
21
68.533152
0
LINE
8
DEFAULT_255_1_234
10
5.1848306
20
68.533152
11
5.3470717
21
68.533152
0
LINE
8
DEFAULT_255_1_234
10
5.3470717
20
68.533152
11
5.3470717
21
68.4118728
0
LINE
8
DEFAULT_255_1_234
10
5.3470717
20
68.4118728
11
5.1848306
21
68.4118728
0
LINE
8
DEFAULT_255_1_234
10
5.1848306
20
68.4118728
11
5.1848306
21
68.1404
0
LINE
8
DEFAULT_255_1_234
10
5.1848306
20
68.1404
11
5.0354403
21
68.1404
0
LINE
8
DEFAULT_255_1_234
10
5.0354403
20
68.1404
11
5.0354403
21
68.4118728
0
LINE
8
DEFAULT_255_1_234
10
5.0354403
20
68.4118728
11
4.502936
21
68.4118728
0
LINE
8
DEFAULT_255_1_234
10
4.502936
20
68.4118728
11
4.502936
21
68.4994187
0
LINE
8
DEFAULT_255_1_234
10
4.502936
20
68.4994187
11
5.0266054
21
69.3098211
0
LINE
8
DEFAULT_255_1_234
10
5.0266054
20
69.3098211
11
5.1848306
21
69.3098211
0
LINE
8
DEFAULT_255_1_234
10
5.0177705
20
69.0744912
11
4.6716025
21
68.533152
0
LINE
8
DEFAULT_255_1_234
10
4.6716025
20
68.533152
11
5.0354403
21
68.533152
0
LINE
8
DEFAULT_255_1_234
10
5.0354403
20
68.533152
11
5.0354403
21
69.1066181
0
LINE
8
DEFAULT_255_1_234
10
5.0354403
20
69.1066181
11
5.0177705
21
69.0744912
0
LINE
8
DEFAULT_255_1_234
10
5.805684
20
68.6978026
11
5.805684
21
68.5765234
0
LINE
8
DEFAULT_255_1_234
10
5.805684
20
68.5765234
11
5.4137352
21
68.5765234
0
LINE
8
DEFAULT_255_1_234
10
5.4137352
20
68.5765234
11
5.4137352
21
68.6978026
0
LINE
8
DEFAULT_255_1_234
10
5.4137352
20
68.6978026
11
5.805684
21
68.6978026
0
LINE
8
DEFAULT_255_1_234
10
4.2860902
20
77.2473211
11
4.2860902
21
76.0779
0
LINE
8
DEFAULT_255_1_234
10
4.2860902
20
76.0779
11
4.1318808
21
76.0779
0
LINE
8
DEFAULT_255_1_234
10
4.1318808
20
76.0779
11
4.1318808
21
77.2473211
0
LINE
8
DEFAULT_255_1_234
10
4.1318808
20
77.2473211
11
4.2860902
21
77.2473211
0
LINE
8
DEFAULT_255_1_234
10
5.1567306
20
77.2473211
11
5.1567306
21
76.470652
0
LINE
8
DEFAULT_255_1_234
10
5.1567306
20
76.470652
11
5.3189717
21
76.470652
0
LINE
8
DEFAULT_255_1_234
10
5.3189717
20
76.470652
11
5.3189717
21
76.3493728
0
LINE
8
DEFAULT_255_1_234
10
5.3189717
20
76.3493728
11
5.1567306
21
76.3493728
0
LINE
8
DEFAULT_255_1_234
10
5.1567306
20
76.3493728
11
5.1567306
21
76.0779
0
LINE
8
DEFAULT_255_1_234
10
5.1567306
20
76.0779
11
5.0073403
21
76.0779
0
LINE
8
DEFAULT_255_1_234
10
5.0073403
20
76.0779
11
5.0073403
21
76.3493728
0
LINE
8
DEFAULT_255_1_234
10
5.0073403
20
76.3493728
11
4.474836
21
76.3493728
0
LINE
8
DEFAULT_255_1_234
10
4.474836
20
76.3493728
11
4.474836
21
76.4369187
0
LINE
8
DEFAULT_255_1_234
10
4.474836
20
76.4369187
11
4.9985054
21
77.2473211
0
LINE
8
DEFAULT_255_1_234
10
4.9985054
20
77.2473211
11
5.1567306
21
77.2473211
0
LINE
8
DEFAULT_255_1_234
10
4.9896705
20
77.0119912
11
4.6435025
21
76.470652
0
LINE
8
DEFAULT_255_1_234
10
4.6435025
20
76.470652
11
5.0073403
21
76.470652
0
LINE
8
DEFAULT_255_1_234
10
5.0073403
20
76.470652
11
5.0073403
21
77.0441181
0
LINE
8
DEFAULT_255_1_234
10
5.0073403
20
77.0441181
11
4.9896705
21
77.0119912
0
LINE
8
DEFAULT_255_1_234
10
5.8940442
20
77.0465276
11
5.8940442
21
76.7051788
0
LINE
8
DEFAULT_255_1_234
10
5.8940442
20
76.7051788
11
6.2201328
21
76.7051788
0
LINE
8
DEFAULT_255_1_234
10
6.2201328
20
76.7051788
11
6.2201328
21
76.5646233
0
LINE
8
DEFAULT_255_1_234
10
6.2201328
20
76.5646233
11
5.8940442
21
76.5646233
0
LINE
8
DEFAULT_255_1_234
10
5.8940442
20
76.5646233
11
5.8940442
21
76.1951634
0
LINE
8
DEFAULT_255_1_234
10
5.8940442
20
76.1951634
11
5.7446539
21
76.1951634
0
LINE
8
DEFAULT_255_1_234
10
5.7446539
20
76.1951634
11
5.7446539
21
76.5646233
0
LINE
8
DEFAULT_255_1_234
10
5.7446539
20
76.5646233
11
5.4185653
21
76.5646233
0
LINE
8
DEFAULT_255_1_234
10
5.4185653
20
76.5646233
11
5.4185653
21
76.7051788
0
LINE
8
DEFAULT_255_1_234
10
5.4185653
20
76.7051788
11
5.7446539
21
76.7051788
0
LINE
8
DEFAULT_255_1_234
10
5.7446539
20
76.7051788
11
5.7446539
21
77.0465276
0
LINE
8
DEFAULT_255_1_234
10
5.7446539
20
77.0465276
11
5.8940442
21
77.0465276
0
LINE
8
DEFAULT_255_1_234
10
4.3141902
20
85.1848211
11
4.3141902
21
84.0154
0
LINE
8
DEFAULT_255_1_234
10
4.3141902
20
84.0154
11
4.1599808
21
84.0154
0
LINE
8
DEFAULT_255_1_234
10
4.1599808
20
84.0154
11
4.1599808
21
85.1848211
0
LINE
8
DEFAULT_255_1_234
10
4.1599808
20
85.1848211
11
4.3141902
21
85.1848211
0
LINE
8
DEFAULT_255_1_234
10
4.7736056
20
84.5511169
11
4.7736056
21
84.6723962
0
LINE
8
DEFAULT_255_1_234
10
4.7736056
20
84.6723962
11
4.8852468
21
84.6723962
0
LINE
8
DEFAULT_255_1_234
10
4.6948946
20
84.8780087
11
4.5463074
21
84.8780087
0
LINE
8
DEFAULT_255_1_234
10
4.5358662
20
84.3238188
11
4.6852565
21
84.3238188
0
LINE
8
DEFAULT_255_1_234
10
4.8852468
20
84.5511169
11
4.7736056
21
84.5511169
0
ARC
8
DEFAULT_255_1_234
10
4.8823334
20
85.0116713
40
0.3392876
50
270.4919872
51
281.8951556
0
ARC
8
DEFAULT_255_1_234
10
4.9064596
20
84.9014702
40
0.2264817
50
281.6691735
51
301.2943132
0
ARC
8
DEFAULT_255_1_234
10
4.9234806
20
84.8703304
40
0.1910381
50
301.7833094
51
311.7545298
0
ARC
8
DEFAULT_255_1_234
10
4.9326382
20
84.8601748
40
0.1773635
50
311.7323931
51
354.2802411
0
ARC
8
DEFAULT_255_1_234
10
4.8600007
20
84.8726722
40
0.2509385
50
353.0937916
51
0.1181479
0
ARC
8
DEFAULT_255_1_234
10
4.8138792
20
84.8774386
40
0.2970898
50
359.1805295
51
15.0453146
0
ARC
8
DEFAULT_255_1_234
10
4.9484629
20
84.9166992
40
0.1569564
50
13.9577229
51
77.6713066
0
ARC
8
DEFAULT_255_1_234
10
4.9098158
20
84.7781949
40
0.3006298
50
76.1116566
51
90.7026153
0
ARC
8
DEFAULT_255_1_234
10
4.9038996
20
84.8055545
40
0.2732568
50
89.5324876
51
103.531937
0
ARC
8
DEFAULT_255_1_234
10
4.8838441
20
84.8854884
40
0.1908508
50
103.2931773
51
133.5619022
0
ARC
8
DEFAULT_255_1_234
10
4.8793929
20
84.8914375
40
0.1834746
50
133.8349307
51
173.5344437
0
ARC
8
DEFAULT_255_1_234
10
4.9516972
20
84.8786213
40
0.2568033
50
172.5096846
51
180.1366907
0
ARC
8
DEFAULT_255_1_234
10
4.8565866
20
84.8820622
40
0.3103056
50
155.3484492
51
180.7484736
0
ARC
8
DEFAULT_255_1_234
10
4.8516955
20
84.8791846
40
0.3070957
50
131.5744599
51
154.4798489
0
ARC
8
DEFAULT_255_1_234
10
4.8830102
20
84.847531
40
0.3515643
50
96.9875458
51
131.9690667
0
ARC
8
DEFAULT_255_1_234
10
4.9049582
20
84.7229636
40
0.4779224
50
89.8596053
51
97.7825159
0
ARC
8
DEFAULT_255_1_234
10
4.9097645
20
84.6967616
40
0.5041361
50
78.3655447
51
90.4131539
0
ARC
8
DEFAULT_255_1_234
10
4.9455563
20
84.8626887
40
0.3344039
50
56.6229102
51
78.638727
0
ARC
8
DEFAULT_255_1_234
10
4.9670507
20
84.9002805
40
0.2912001
50
47.0253525
51
56.0854072
0
ARC
8
DEFAULT_255_1_234
10
4.9690287
20
84.9042223
40
0.2869704
50
10.9208013
51
46.7778124
0
ARC
8
DEFAULT_255_1_234
10
4.8326354
20
84.8726857
40
0.426899
50
359.6364486
51
11.6087304
0
ARC
8
DEFAULT_255_1_234
10
5.0161198
20
84.8711752
40
0.243409
50
332.3549906
51
359.7179418
0
ARC
8
DEFAULT_255_1_234
10
4.9510799
20
84.9020142
40
0.3153459
50
325.2333722
51
332.8745602
0
ARC
8
DEFAULT_255_1_234
10
4.9663423
20
84.8913828
40
0.2967456
50
292.9802137
51
325.2392345
0
ARC
8
DEFAULT_255_1_234
10
4.9388797
20
84.9447863
40
0.3566604
50
292.5402179
51
293.6924929
0
ARC
8
DEFAULT_255_1_234
10
4.9781393
20
84.2993091
40
0.3307468
50
57.6435486
51
72.8625112
0
ARC
8
DEFAULT_255_1_234
10
5.0135892
20
84.3567549
40
0.2632492
50
36.7248896
51
57.4697979
0
ARC
8
DEFAULT_255_1_234
10
5.0124525
20
84.358022
40
0.2634081
50
8.0545065
51
36.356114
0
ARC
8
DEFAULT_255_1_234
10
4.926171
20
84.3425174
40
0.3510261
50
359.8320645
51
8.5869982
0
ARC
8
DEFAULT_255_1_234
10
4.8886486
20
84.3377101
40
0.3885653
50
343.9829931
51
0.5571613
0
ARC
8
DEFAULT_255_1_234
10
4.9772684
20
84.3134438
40
0.2966924
50
311.6359546
51
343.7651759
0
ARC
8
DEFAULT_255_1_234
10
4.9394253
20
84.3561102
40
0.3537231
50
279.7829875
51
311.6255694
0
ARC
8
DEFAULT_255_1_234
10
4.9093029
20
84.499828
40
0.5004971
50
269.7286406
51
280.3856417
0
ARC
8
DEFAULT_255_1_234
10
4.9031102
20
84.4956996
40
0.4963778
50
256.6828919
51
270.4412052
0
ARC
8
DEFAULT_255_1_234
10
4.8692397
20
84.3572394
40
0.3538406
50
229.4223008
51
256.8556159
0
ARC
8
DEFAULT_255_1_234
10
4.827779
20
84.3105736
40
0.2914296
50
181.818294
51
229.6455059
0
ARC
8
DEFAULT_255_1_234
10
4.9317746
20
84.3236496
40
0.3959084
50
179.9755256
51
183.2323064
0
ARC
8
DEFAULT_255_1_234
10
4.9145492
20
84.3216037
40
0.2293034
50
179.4465117
51
196.2869258
0
ARC
8
DEFAULT_255_1_234
10
4.86579
20
84.3082651
40
0.1787621
50
196.5661473
51
227.705904
0
ARC
8
DEFAULT_255_1_234
10
4.8821995
20
84.3266155
40
0.2033784
50
227.7652068
51
257.8762805
0
ARC
8
DEFAULT_255_1_234
10
4.9046965
20
84.4209156
40
0.3003081
50
257.4584385
51
270.426602
0
ARC
8
DEFAULT_255_1_234
10
4.9092531
20
84.4498996
40
0.329292
50
269.5962073
51
280.8789248
0
ARC
8
DEFAULT_255_1_234
10
4.932206
20
84.3352685
40
0.2123908
50
280.6346389
51
299.8595945
0
ARC
8
DEFAULT_255_1_234
10
4.9512967
20
84.2990212
40
0.171457
50
300.3576302
51
314.5517981
0
ARC
8
DEFAULT_255_1_234
10
4.9430027
20
84.3050919
40
0.1816095
50
315.0728369
51
345.0431014
0
ARC
8
DEFAULT_255_1_234
10
4.8506841
20
84.3319841
40
0.2777492
50
344.5986631
51
357.9269593
0
ARC
8
DEFAULT_255_1_234
10
4.7611168
20
84.3381276
40
0.3674917
50
357.4748886
51
0.0231117
0
ARC
8
DEFAULT_255_1_234
10
4.8634277
20
84.3405679
40
0.2651907
50
359.5047933
51
13.4239635
0
ARC
8
DEFAULT_255_1_234
10
4.9500921
20
84.3627478
40
0.1757509
50
12.9498199
51
48.7551375
0
ARC
8
DEFAULT_255_1_234
10
4.9318655
20
84.33784
40
0.2065134
50
49.5088623
51
72.1836453
0
ARC
8
DEFAULT_255_1_234
10
4.8960807
20
84.2316291
40
0.3185836
50
71.9010081
51
84.3554254
0
ARC
8
DEFAULT_255_1_234
10
4.8799439
20
84.0955326
40
0.4556151
50
84.0193428
51
89.333121
0
LINE
8
DEFAULT_255_1_234
10
5.805684
20
84.5728026
11
5.805684
21
84.4515234
0
LINE
8
DEFAULT_255_1_234
10
5.805684
20
84.4515234
11
5.4137352
21
84.4515234
0
LINE
8
DEFAULT_255_1_234
10
5.4137352
20
84.4515234
11
5.4137352
21
84.5728026
0
LINE
8
DEFAULT_255_1_234
10
5.4137352
20
84.5728026
11
5.805684
21
84.5728026
0
LINE
8
DEFAULT_255_1_234
10
4.2860902
20
93.1223211
11
4.2860902
21
91.9529
0
LINE
8
DEFAULT_255_1_234
10
4.2860902
20
91.9529
11
4.1318808
21
91.9529
0
LINE
8
DEFAULT_255_1_234
10
4.1318808
20
91.9529
11
4.1318808
21
93.1223211
0
LINE
8
DEFAULT_255_1_234
10
4.1318808
20
93.1223211
11
4.2860902
21
93.1223211
0
LINE
8
DEFAULT_255_1_234
10
4.7455056
20
92.4886169
11
4.7455056
21
92.6098962
0
LINE
8
DEFAULT_255_1_234
10
4.7455056
20
92.6098962
11
4.8571468
21
92.6098962
0
LINE
8
DEFAULT_255_1_234
10
4.6667946
20
92.8155087
11
4.5182074
21
92.8155087
0
LINE
8
DEFAULT_255_1_234
10
4.5077662
20
92.2613188
11
4.6571565
21
92.2613188
0
LINE
8
DEFAULT_255_1_234
10
4.8571468
20
92.4886169
11
4.7455056
21
92.4886169
0
ARC
8
DEFAULT_255_1_234
10
4.8542334
20
92.9491713
40
0.3392876
50
270.4919872
51
281.8951556
0
ARC
8
DEFAULT_255_1_234
10
4.8783596
20
92.8389702
40
0.2264817
50
281.6691735
51
301.2943132
0
ARC
8
DEFAULT_255_1_234
10
4.8953806
20
92.8078304
40
0.1910381
50
301.7833094
51
311.7545298
0
ARC
8
DEFAULT_255_1_234
10
4.9045382
20
92.7976748
40
0.1773635
50
311.7323931
51
354.2802411
0
ARC
8
DEFAULT_255_1_234
10
4.8319007
20
92.8101722
40
0.2509385
50
353.0937916
51
0.1181479
0
ARC
8
DEFAULT_255_1_234
10
4.7857792
20
92.8149386
40
0.2970898
50
359.1805295
51
15.0453146
0
ARC
8
DEFAULT_255_1_234
10
4.9203629
20
92.8541992
40
0.1569564
50
13.9577229
51
77.6713066
0
ARC
8
DEFAULT_255_1_234
10
4.8817158
20
92.7156949
40
0.3006298
50
76.1116566
51
90.7026153
0
ARC
8
DEFAULT_255_1_234
10
4.8757996
20
92.7430545
40
0.2732568
50
89.5324876
51
103.531937
0
ARC
8
DEFAULT_255_1_234
10
4.8557441
20
92.8229884
40
0.1908508
50
103.2931773
51
133.5619022
0
ARC
8
DEFAULT_255_1_234
10
4.8512929
20
92.8289375
40
0.1834746
50
133.8349307
51
173.5344437
0
ARC
8
DEFAULT_255_1_234
10
4.9235972
20
92.8161213
40
0.2568033
50
172.5096846
51
180.1366907
0
ARC
8
DEFAULT_255_1_234
10
4.8284866
20
92.8195622
40
0.3103056
50
155.3484492
51
180.7484736
0
ARC
8
DEFAULT_255_1_234
10
4.8235955
20
92.8166846
40
0.3070957
50
131.5744599
51
154.4798489
0
ARC
8
DEFAULT_255_1_234
10
4.8549102
20
92.785031
40
0.3515643
50
96.9875458
51
131.9690667
0
ARC
8
DEFAULT_255_1_234
10
4.8768582
20
92.6604636
40
0.4779224
50
89.8596053
51
97.7825159
0
ARC
8
DEFAULT_255_1_234
10
4.8816645
20
92.6342616
40
0.5041361
50
78.3655447
51
90.4131539
0
ARC
8
DEFAULT_255_1_234
10
4.9174563
20
92.8001887
40
0.3344039
50
56.6229102
51
78.638727
0
ARC
8
DEFAULT_255_1_234
10
4.9389507
20
92.8377805
40
0.2912001
50
47.0253525
51
56.0854072
0
ARC
8
DEFAULT_255_1_234
10
4.9409287
20
92.8417223
40
0.2869704
50
10.9208013
51
46.7778124
0
ARC
8
DEFAULT_255_1_234
10
4.8045354
20
92.8101857
40
0.426899
50
359.6364486
51
11.6087304
0
ARC
8
DEFAULT_255_1_234
10
4.9880198
20
92.8086752
40
0.243409
50
332.3549906
51
359.7179418
0
ARC
8
DEFAULT_255_1_234
10
4.9229799
20
92.8395142
40
0.3153459
50
325.2333722
51
332.8745602
0
ARC
8
DEFAULT_255_1_234
10
4.9382423
20
92.8288828
40
0.2967456
50
292.9802137
51
325.2392345
0
ARC
8
DEFAULT_255_1_234
10
4.9107797
20
92.8822863
40
0.3566604
50
292.5402179
51
293.6924929
0
ARC
8
DEFAULT_255_1_234
10
4.9500393
20
92.2368091
40
0.3307468
50
57.6435486
51
72.8625112
0
ARC
8
DEFAULT_255_1_234
10
4.9854892
20
92.2942549
40
0.2632492
50
36.7248896
51
57.4697979
0
ARC
8
DEFAULT_255_1_234
10
4.9843525
20
92.295522
40
0.2634081
50
8.0545065
51
36.356114
0
ARC
8
DEFAULT_255_1_234
10
4.898071
20
92.2800174
40
0.3510261
50
359.8320645
51
8.5869982
0
ARC
8
DEFAULT_255_1_234
10
4.8605486
20
92.2752101
40
0.3885653
50
343.9829931
51
0.5571613
0
ARC
8
DEFAULT_255_1_234
10
4.9491684
20
92.2509438
40
0.2966924
50
311.6359546
51
343.7651759
0
ARC
8
DEFAULT_255_1_234
10
4.9113253
20
92.2936102
40
0.3537231
50
279.7829875
51
311.6255694
0
ARC
8
DEFAULT_255_1_234
10
4.8812029
20
92.437328
40
0.5004971
50
269.7286406
51
280.3856417
0
ARC
8
DEFAULT_255_1_234
10
4.8750102
20
92.4331996
40
0.4963778
50
256.6828919
51
270.4412052
0
ARC
8
DEFAULT_255_1_234
10
4.8411397
20
92.2947394
40
0.3538406
50
229.4223008
51
256.8556159
0
ARC
8
DEFAULT_255_1_234
10
4.799679
20
92.2480736
40
0.2914296
50
181.818294
51
229.6455059
0
ARC
8
DEFAULT_255_1_234
10
4.9036746
20
92.2611496
40
0.3959084
50
179.9755256
51
183.2323064
0
ARC
8
DEFAULT_255_1_234
10
4.8864492
20
92.2591037
40
0.2293034
50
179.4465117
51
196.2869258
0
ARC
8
DEFAULT_255_1_234
10
4.83769
20
92.2457651
40
0.1787621
50
196.5661473
51
227.705904
0
ARC
8
DEFAULT_255_1_234
10
4.8540995
20
92.2641155
40
0.2033784
50
227.7652068
51
257.8762805
0
ARC
8
DEFAULT_255_1_234
10
4.8765965
20
92.3584156
40
0.3003081
50
257.4584385
51
270.426602
0
ARC
8
DEFAULT_255_1_234
10
4.8811531
20
92.3873996
40
0.329292
50
269.5962073
51
280.8789248
0
ARC
8
DEFAULT_255_1_234
10
4.904106
20
92.2727685
40
0.2123908
50
280.6346389
51
299.8595945
0
ARC
8
DEFAULT_255_1_234
10
4.9231967
20
92.2365212
40
0.171457
50
300.3576302
51
314.5517981
0
ARC
8
DEFAULT_255_1_234
10
4.9149027
20
92.2425919
40
0.1816095
50
315.0728369
51
345.0431014
0
ARC
8
DEFAULT_255_1_234
10
4.8225841
20
92.2694841
40
0.2777492
50
344.5986631
51
357.9269593
0
ARC
8
DEFAULT_255_1_234
10
4.7330168
20
92.2756276
40
0.3674917
50
357.4748886
51
0.0231117
0
ARC
8
DEFAULT_255_1_234
10
4.8353277
20
92.2780679
40
0.2651907
50
359.5047933
51
13.4239635
0
ARC
8
DEFAULT_255_1_234
10
4.9219921
20
92.3002478
40
0.1757509
50
12.9498199
51
48.7551375
0
ARC
8
DEFAULT_255_1_234
10
4.9037655
20
92.27534
40
0.2065134
50
49.5088623
51
72.1836453
0
ARC
8
DEFAULT_255_1_234
10
4.8679807
20
92.1691291
40
0.3185836
50
71.9010081
51
84.3554254
0
ARC
8
DEFAULT_255_1_234
10
4.8518439
20
92.0330326
40
0.4556151
50
84.0193428
51
89.333121
0
LINE
8
DEFAULT_255_1_234
10
5.8940442
20
92.9215276
11
5.8940442
21
92.5801788
0
LINE
8
DEFAULT_255_1_234
10
5.8940442
20
92.5801788
11
6.2201328
21
92.5801788
0
LINE
8
DEFAULT_255_1_234
10
6.2201328
20
92.5801788
11
6.2201328
21
92.4396233
0
LINE
8
DEFAULT_255_1_234
10
6.2201328
20
92.4396233
11
5.8940442
21
92.4396233
0
LINE
8
DEFAULT_255_1_234
10
5.8940442
20
92.4396233
11
5.8940442
21
92.0701634
0
LINE
8
DEFAULT_255_1_234
10
5.8940442
20
92.0701634
11
5.7446539
21
92.0701634
0
LINE
8
DEFAULT_255_1_234
10
5.7446539
20
92.0701634
11
5.7446539
21
92.4396233
0
LINE
8
DEFAULT_255_1_234
10
5.7446539
20
92.4396233
11
5.4185653
21
92.4396233
0
LINE
8
DEFAULT_255_1_234
10
5.4185653
20
92.4396233
11
5.4185653
21
92.5801788
0
LINE
8
DEFAULT_255_1_234
10
5.4185653
20
92.5801788
11
5.7446539
21
92.5801788
0
LINE
8
DEFAULT_255_1_234
10
5.7446539
20
92.5801788
11
5.7446539
21
92.9215276
0
LINE
8
DEFAULT_255_1_234
10
5.7446539
20
92.9215276
11
5.8940442
21
92.9215276
0
LINE
8
DEFAULT_255_1_234
10
4.3141902
20
101.0598211
11
4.3141902
21
99.8904
0
LINE
8
DEFAULT_255_1_234
10
4.3141902
20
99.8904
11
4.1599808
21
99.8904
0
LINE
8
DEFAULT_255_1_234
10
4.1599808
20
99.8904
11
4.1599808
21
101.0598211
0
LINE
8
DEFAULT_255_1_234
10
4.1599808
20
101.0598211
11
4.3141902
21
101.0598211
0
LINE
8
DEFAULT_255_1_234
10
5.3237797
20
100.0116792
11
5.3237797
21
99.8904
0
LINE
8
DEFAULT_255_1_234
10
5.3237797
20
99.8904
11
4.5575519
21
99.8904
0
LINE
8
DEFAULT_255_1_234
10
4.5575519
20
99.8904
11
4.5575519
21
99.9972221
0
LINE
8
DEFAULT_255_1_234
10
4.5575519
20
99.9972221
11
4.9623515
21
100.4469995
0
LINE
8
DEFAULT_255_1_234
10
4.6836501
20
100.7152595
11
4.535063
21
100.7152595
0
LINE
8
DEFAULT_255_1_234
10
5.0498974
20
100.3514218
11
4.7366596
21
100.0116792
0
LINE
8
DEFAULT_255_1_234
10
4.7366596
20
100.0116792
11
5.3237797
21
100.0116792
0
ARC
8
DEFAULT_255_1_234
10
3.6133348
20
101.6399527
40
1.8008286
50
318.5132453
51
320.7828378
0
ARC
8
DEFAULT_255_1_234
10
4.1420322
20
101.2096426
40
1.1191493
50
320.7372736
51
323.9737074
0
ARC
8
DEFAULT_255_1_234
10
4.5340179
20
100.9256361
40
0.6350923
50
323.8961724
51
328.6421089
0
ARC
8
DEFAULT_255_1_234
10
4.7386774
20
100.7994031
40
0.3946393
50
328.8299013
51
331.789948
0
ARC
8
DEFAULT_255_1_234
10
4.8383953
20
100.7479509
40
0.2824501
50
331.4255242
51
352.9364833
0
ARC
8
DEFAULT_255_1_234
10
4.8520453
20
100.7448976
40
0.2685315
50
353.2248685
51
0.0169286
0
ARC
8
DEFAULT_255_1_234
10
4.873033
20
100.747195
40
0.2475536
50
359.4866256
51
15.9339782
0
ARC
8
DEFAULT_255_1_234
10
4.9237316
20
100.7608286
40
0.1950618
50
16.1714718
51
43.5284424
0
ARC
8
DEFAULT_255_1_234
10
4.9314624
20
100.7685573
40
0.184134
50
43.4415429
51
83.1661404
0
ARC
8
DEFAULT_255_1_234
10
4.9180542
20
100.6948771
40
0.258926
50
82.160215
51
90.1505798
0
ARC
8
DEFAULT_255_1_234
10
4.914897
20
100.6411865
40
0.3126255
50
89.5460705
51
102.5418777
0
ARC
8
DEFAULT_255_1_234
10
4.8906056
20
100.7442665
40
0.2067346
50
102.1739365
51
129.2061916
0
ARC
8
DEFAULT_255_1_234
10
4.8827127
20
100.7567094
40
0.1921118
50
129.7279328
51
135.7542026
0
ARC
8
DEFAULT_255_1_234
10
4.8948655
20
100.7470045
40
0.2075944
50
136.175737
51
166.3674722
0
ARC
8
DEFAULT_255_1_234
10
4.9955574
20
100.7200182
40
0.3118201
50
165.9092917
51
178.8683903
0
ARC
8
DEFAULT_255_1_234
10
5.0820436
20
100.7153179
40
0.3983935
50
178.438168
51
180.0083905
0
ARC
8
DEFAULT_255_1_234
10
4.9419038
20
100.7192231
40
0.4068601
50
163.2878735
51
180.5581814
0
ARC
8
DEFAULT_255_1_234
10
4.8617299
20
100.741284
40
0.3237344
50
133.454115
51
162.9470031
0
ARC
8
DEFAULT_255_1_234
10
4.8795841
20
100.7223
40
0.349795
50
100.7869394
51
133.4384016
0
ARC
8
DEFAULT_255_1_234
10
4.9143612
20
100.5674319
40
0.5084616
50
89.6605301
51
101.3704185
0
ARC
8
DEFAULT_255_1_234
10
4.9209951
20
100.5735496
40
0.502348
50
78.2171172
51
90.4130393
0
ARC
8
DEFAULT_255_1_234
10
4.9565029
20
100.7359637
40
0.3361092
50
55.9268222
51
78.4888551
0
ARC
8
DEFAULT_255_1_234
10
4.9761469
20
100.7698324
40
0.2970617
50
47.9292255
51
55.4054003
0
ARC
8
DEFAULT_255_1_234
10
4.986303
20
100.7801502
40
0.2825983
50
4.3347696
51
48.0560701
0
ARC
8
DEFAULT_255_1_234
10
4.8767424
20
100.7631601
40
0.393225
50
359.925209
51
5.5967654
0
ARC
8
DEFAULT_255_1_234
10
4.9196315
20
100.7687816
40
0.3503892
50
337.8914096
51
358.9967724
0
ARC
8
DEFAULT_255_1_234
10
4.6482727
20
100.8734706
40
0.6412172
50
326.9135351
51
338.3505194
0
ARC
8
DEFAULT_255_1_234
10
4.2497031
20
101.1289284
40
1.1146189
50
319.6472867
51
327.095818
0
ARC
8
DEFAULT_255_1_234
10
3.8664034
20
101.4451
40
1.6114559
50
317.2586784
51
319.9046139
0
LINE
8
DEFAULT_255_1_234
10
5.805684
20
100.4478026
11
5.805684
21
100.3265234
0
LINE
8
DEFAULT_255_1_234
10
5.805684
20
100.3265234
11
5.4137352
21
100.3265234
0
LINE
8
DEFAULT_255_1_234
10
5.4137352
20
100.3265234
11
5.4137352
21
100.4478026
0
LINE
8
DEFAULT_255_1_234
10
5.4137352
20
100.4478026
11
5.805684
21
100.4478026
0
LINE
8
DEFAULT_255_1_234
10
4.2860902
20
108.9973211
11
4.2860902
21
107.8279
0
LINE
8
DEFAULT_255_1_234
10
4.2860902
20
107.8279
11
4.1318808
21
107.8279
0
LINE
8
DEFAULT_255_1_234
10
4.1318808
20
107.8279
11
4.1318808
21
108.9973211
0
LINE
8
DEFAULT_255_1_234
10
4.1318808
20
108.9973211
11
4.2860902
21
108.9973211
0
LINE
8
DEFAULT_255_1_234
10
5.2956797
20
107.9491792
11
5.2956797
21
107.8279
0
LINE
8
DEFAULT_255_1_234
10
5.2956797
20
107.8279
11
4.5294519
21
107.8279
0
LINE
8
DEFAULT_255_1_234
10
4.5294519
20
107.8279
11
4.5294519
21
107.9347221
0
LINE
8
DEFAULT_255_1_234
10
4.5294519
20
107.9347221
11
4.9342515
21
108.3844995
0
LINE
8
DEFAULT_255_1_234
10
4.6555501
20
108.6527595
11
4.506963
21
108.6527595
0
LINE
8
DEFAULT_255_1_234
10
5.0217974
20
108.2889218
11
4.7085596
21
107.9491792
0
LINE
8
DEFAULT_255_1_234
10
4.7085596
20
107.9491792
11
5.2956797
21
107.9491792
0
ARC
8
DEFAULT_255_1_234
10
3.5852348
20
109.5774527
40
1.8008286
50
318.5132453
51
320.7828378
0
ARC
8
DEFAULT_255_1_234
10
4.1139322
20
109.1471426
40
1.1191493
50
320.7372736
51
323.9737074
0
ARC
8
DEFAULT_255_1_234
10
4.5059179
20
108.8631361
40
0.6350923
50
323.8961724
51
328.6421089
0
ARC
8
DEFAULT_255_1_234
10
4.7105774
20
108.7369031
40
0.3946393
50
328.8299013
51
331.789948
0
ARC
8
DEFAULT_255_1_234
10
4.8102953
20
108.6854509
40
0.2824501
50
331.4255242
51
352.9364833
0
ARC
8
DEFAULT_255_1_234
10
4.8239453
20
108.6823976
40
0.2685315
50
353.2248685
51
0.0169286
0
ARC
8
DEFAULT_255_1_234
10
4.844933
20
108.684695
40
0.2475536
50
359.4866256
51
15.9339782
0
ARC
8
DEFAULT_255_1_234
10
4.8956316
20
108.6983286
40
0.1950618
50
16.1714718
51
43.5284424
0
ARC
8
DEFAULT_255_1_234
10
4.9033624
20
108.7060573
40
0.184134
50
43.4415429
51
83.1661404
0
ARC
8
DEFAULT_255_1_234
10
4.8899542
20
108.6323771
40
0.258926
50
82.160215
51
90.1505798
0
ARC
8
DEFAULT_255_1_234
10
4.886797
20
108.5786865
40
0.3126255
50
89.5460705
51
102.5418777
0
ARC
8
DEFAULT_255_1_234
10
4.8625056
20
108.6817665
40
0.2067346
50
102.1739365
51
129.2061916
0
ARC
8
DEFAULT_255_1_234
10
4.8546127
20
108.6942094
40
0.1921118
50
129.7279328
51
135.7542026
0
ARC
8
DEFAULT_255_1_234
10
4.8667655
20
108.6845045
40
0.2075944
50
136.175737
51
166.3674722
0
ARC
8
DEFAULT_255_1_234
10
4.9674574
20
108.6575182
40
0.3118201
50
165.9092917
51
178.8683903
0
ARC
8
DEFAULT_255_1_234
10
5.0539436
20
108.6528179
40
0.3983935
50
178.438168
51
180.0083905
0
ARC
8
DEFAULT_255_1_234
10
4.9138038
20
108.6567231
40
0.4068601
50
163.2878735
51
180.5581814
0
ARC
8
DEFAULT_255_1_234
10
4.8336299
20
108.678784
40
0.3237344
50
133.454115
51
162.9470031
0
ARC
8
DEFAULT_255_1_234
10
4.8514841
20
108.6598
40
0.349795
50
100.7869394
51
133.4384016
0
ARC
8
DEFAULT_255_1_234
10
4.8862612
20
108.5049319
40
0.5084616
50
89.6605301
51
101.3704185
0
ARC
8
DEFAULT_255_1_234
10
4.8928951
20
108.5110496
40
0.502348
50
78.2171172
51
90.4130393
0
ARC
8
DEFAULT_255_1_234
10
4.9284029
20
108.6734637
40
0.3361092
50
55.9268222
51
78.4888551
0
ARC
8
DEFAULT_255_1_234
10
4.9480469
20
108.7073324
40
0.2970617
50
47.9292255
51
55.4054003
0
ARC
8
DEFAULT_255_1_234
10
4.958203
20
108.7176502
40
0.2825983
50
4.3347696
51
48.0560701
0
ARC
8
DEFAULT_255_1_234
10
4.8486424
20
108.7006601
40
0.393225
50
359.925209
51
5.5967654
0
ARC
8
DEFAULT_255_1_234
10
4.8915315
20
108.7062816
40
0.3503892
50
337.8914096
51
358.9967724
0
ARC
8
DEFAULT_255_1_234
10
4.6201727
20
108.8109706
40
0.6412172
50
326.9135351
51
338.3505194
0
ARC
8
DEFAULT_255_1_234
10
4.2216031
20
109.0664284
40
1.1146189
50
319.6472867
51
327.095818
0
ARC
8
DEFAULT_255_1_234
10
3.8383034
20
109.3826
40
1.6114559
50
317.2586784
51
319.9046139
0
LINE
8
DEFAULT_255_1_234
10
5.8940442
20
108.7965276
11
5.8940442
21
108.4551788
0
LINE
8
DEFAULT_255_1_234
10
5.8940442
20
108.4551788
11
6.2201328
21
108.4551788
0
LINE
8
DEFAULT_255_1_234
10
6.2201328
20
108.4551788
11
6.2201328
21
108.3146233
0
LINE
8
DEFAULT_255_1_234
10
6.2201328
20
108.3146233
11
5.8940442
21
108.3146233
0
LINE
8
DEFAULT_255_1_234
10
5.8940442
20
108.3146233
11
5.8940442
21
107.9451634
0
LINE
8
DEFAULT_255_1_234
10
5.8940442
20
107.9451634
11
5.7446539
21
107.9451634
0
LINE
8
DEFAULT_255_1_234
10
5.7446539
20
107.9451634
11
5.7446539
21
108.3146233
0
LINE
8
DEFAULT_255_1_234
10
5.7446539
20
108.3146233
11
5.4185653
21
108.3146233
0
LINE
8
DEFAULT_255_1_234
10
5.4185653
20
108.3146233
11
5.4185653
21
108.4551788
0
LINE
8
DEFAULT_255_1_234
10
5.4185653
20
108.4551788
11
5.7446539
21
108.4551788
0
LINE
8
DEFAULT_255_1_234
10
5.7446539
20
108.4551788
11
5.7446539
21
108.7965276
0
LINE
8
DEFAULT_255_1_234
10
5.7446539
20
108.7965276
11
5.8940442
21
108.7965276
0
LINE
8
DEFAULT_255_1_234
10
4.3141902
20
116.9348211
11
4.3141902
21
115.7654
0
LINE
8
DEFAULT_255_1_234
10
4.3141902
20
115.7654
11
4.1599808
21
115.7654
0
LINE
8
DEFAULT_255_1_234
10
4.1599808
20
115.7654
11
4.1599808
21
116.9348211
0
LINE
8
DEFAULT_255_1_234
10
4.1599808
20
116.9348211
11
4.3141902
21
116.9348211
0
LINE
8
DEFAULT_255_1_234
10
5.0458815
20
116.9404433
11
5.0458815
21
115.7654
0
LINE
8
DEFAULT_255_1_234
10
5.0458815
20
115.7654
11
4.8964912
21
115.7654
0
LINE
8
DEFAULT_255_1_234
10
4.8964912
20
115.7654
11
4.8964912
21
116.7557133
0
LINE
8
DEFAULT_255_1_234
10
4.8964912
20
116.7557133
11
4.5969074
21
116.6456785
0
LINE
8
DEFAULT_255_1_234
10
4.5969074
20
116.6456785
11
4.5969074
21
116.7806117
0
LINE
8
DEFAULT_255_1_234
10
4.5969074
20
116.7806117
11
5.0225895
21
116.9404433
0
LINE
8
DEFAULT_255_1_234
10
5.0225895
20
116.9404433
11
5.0458815
21
116.9404433
0
LINE
8
DEFAULT_255_1_234
10
5.805684
20
116.3228026
11
5.805684
21
116.2015234
0
LINE
8
DEFAULT_255_1_234
10
5.805684
20
116.2015234
11
5.4137352
21
116.2015234
0
LINE
8
DEFAULT_255_1_234
10
5.4137352
20
116.2015234
11
5.4137352
21
116.3228026
0
LINE
8
DEFAULT_255_1_234
10
5.4137352
20
116.3228026
11
5.805684
21
116.3228026
0
LINE
8
DEFAULT_255_1_234
10
4.2860902
20
124.8723211
11
4.2860902
21
123.7029
0
LINE
8
DEFAULT_255_1_234
10
4.2860902
20
123.7029
11
4.1318808
21
123.7029
0
LINE
8
DEFAULT_255_1_234
10
4.1318808
20
123.7029
11
4.1318808
21
124.8723211
0
LINE
8
DEFAULT_255_1_234
10
4.1318808
20
124.8723211
11
4.2860902
21
124.8723211
0
LINE
8
DEFAULT_255_1_234
10
5.0177815
20
124.8779433
11
5.0177815
21
123.7029
0
LINE
8
DEFAULT_255_1_234
10
5.0177815
20
123.7029
11
4.8683912
21
123.7029
0
LINE
8
DEFAULT_255_1_234
10
4.8683912
20
123.7029
11
4.8683912
21
124.6932133
0
LINE
8
DEFAULT_255_1_234
10
4.8683912
20
124.6932133
11
4.5688074
21
124.5831785
0
LINE
8
DEFAULT_255_1_234
10
4.5688074
20
124.5831785
11
4.5688074
21
124.7181117
0
LINE
8
DEFAULT_255_1_234
10
4.5688074
20
124.7181117
11
4.9944895
21
124.8779433
0
LINE
8
DEFAULT_255_1_234
10
4.9944895
20
124.8779433
11
5.0177815
21
124.8779433
0
LINE
8
DEFAULT_255_1_234
10
5.8940442
20
124.6715276
11
5.8940442
21
124.3301788
0
LINE
8
DEFAULT_255_1_234
10
5.8940442
20
124.3301788
11
6.2201328
21
124.3301788
0
LINE
8
DEFAULT_255_1_234
10
6.2201328
20
124.3301788
11
6.2201328
21
124.1896233
0
LINE
8
DEFAULT_255_1_234
10
6.2201328
20
124.1896233
11
5.8940442
21
124.1896233
0
LINE
8
DEFAULT_255_1_234
10
5.8940442
20
124.1896233
11
5.8940442
21
123.8201634
0
LINE
8
DEFAULT_255_1_234
10
5.8940442
20
123.8201634
11
5.7446539
21
123.8201634
0
LINE
8
DEFAULT_255_1_234
10
5.7446539
20
123.8201634
11
5.7446539
21
124.1896233
0
LINE
8
DEFAULT_255_1_234
10
5.7446539
20
124.1896233
11
5.4185653
21
124.1896233
0
LINE
8
DEFAULT_255_1_234
10
5.4185653
20
124.1896233
11
5.4185653
21
124.3301788
0
LINE
8
DEFAULT_255_1_234
10
5.4185653
20
124.3301788
11
5.7446539
21
124.3301788
0
LINE
8
DEFAULT_255_1_234
10
5.7446539
20
124.3301788
11
5.7446539
21
124.6715276
0
LINE
8
DEFAULT_255_1_234
10
5.7446539
20
124.6715276
11
5.8940442
21
124.6715276
0
LINE
8
DEFAULT_255_1_234
10
23.1643817
20
132.3319327
11
23.1643817
21
132.1391709
0
LINE
8
DEFAULT_255_1_234
10
22.426265
20
132.1190916
11
22.426265
21
132.3174755
0
LINE
8
DEFAULT_255_1_234
10
23.0157946
20
132.0990123
11
23.0157946
21
132.3423739
0
LINE
8
DEFAULT_255_1_234
10
22.5748521
20
132.3536184
11
22.5748521
21
132.1158789
0
ARC
8
DEFAULT_255_1_234
10
21.9396707
20
132.1342805
40
1.2247208
50
353.8441951
51
0.2287902
0
ARC
8
DEFAULT_255_1_234
10
22.4036211
20
132.0824806
40
0.7578929
50
344.4934747
51
353.9765454
0
ARC
8
DEFAULT_255_1_234
10
22.7028801
20
131.9973981
40
0.4467846
50
329.2803592
51
344.7472793
0
ARC
8
DEFAULT_255_1_234
10
22.8021626
20
131.9429018
40
0.3336173
50
324.9352394
51
328.6160465
0
ARC
8
DEFAULT_255_1_234
10
22.8398734
20
131.9165427
40
0.2876076
50
280.580143
51
324.9173126
0
ARC
8
DEFAULT_255_1_234
10
22.7997527
20
132.0836099
40
0.4592847
50
269.5977311
51
281.6734359
0
ARC
8
DEFAULT_255_1_234
10
22.7925433
20
132.0716173
40
0.4472986
50
256.6228859
51
270.51044
0
ARC
8
DEFAULT_255_1_234
10
22.752341
20
131.9167877
40
0.2873874
50
215.8618325
51
257.2788573
0
ARC
8
DEFAULT_255_1_234
10
22.8544442
20
131.9852977
40
0.4102928
50
197.9693508
51
215.2623606
0
ARC
8
DEFAULT_255_1_234
10
23.1029558
20
132.0691709
40
0.6725652
50
187.8816417
51
198.2346507
0
ARC
8
DEFAULT_255_1_234
10
23.4987766
20
132.1263079
40
1.0724845
50
180.8976217
51
188.0055519
0
ARC
8
DEFAULT_255_1_234
10
23.7787954
20
132.1366777
40
1.3526448
50
180.7449369
51
181.1510016
0
ARC
8
DEFAULT_255_1_234
10
23.6210683
20
132.3223042
40
1.1948131
50
173.7675579
51
180.231553
0
ARC
8
DEFAULT_255_1_234
10
23.169283
20
132.3733666
40
0.7401564
50
164.3058563
51
173.9002247
0
ARC
8
DEFAULT_255_1_234
10
22.8780899
20
132.4572656
40
0.4371288
50
148.7922025
51
164.568378
0
ARC
8
DEFAULT_255_1_234
10
22.7829351
20
132.5103929
40
0.3282386
50
144.5883898
51
148.1176286
0
ARC
8
DEFAULT_255_1_234
10
22.7486249
20
132.5343315
40
0.2864044
50
101.6440918
51
144.514236
0
ARC
8
DEFAULT_255_1_234
10
22.7911315
20
132.3654069
40
0.4604934
50
89.5284041
51
102.5819763
0
ARC
8
DEFAULT_255_1_234
10
22.7990403
20
132.3615018
40
0.464401
50
77.0437873
51
90.5081339
0
ARC
8
DEFAULT_255_1_234
10
22.8392405
20
132.5257615
40
0.2953195
50
48.2778575
51
77.4994676
0
ARC
8
DEFAULT_255_1_234
10
22.8465036
20
132.5386746
40
0.2808655
50
36.3142134
51
47.6305865
0
ARC
8
DEFAULT_255_1_234
10
22.7596343
20
132.4801515
40
0.3855453
50
18.2931786
51
35.6769206
0
ARC
8
DEFAULT_255_1_234
10
22.5053102
20
132.3928593
40
0.654423
50
8.024666
51
18.5605216
0
ARC
8
DEFAULT_255_1_234
10
22.0890022
20
132.3313792
40
1.0752407
50
1.1274072
51
8.1718305
0
ARC
8
DEFAULT_255_1_234
10
21.7654213
20
132.3186885
40
1.3990231
50
0.5424119
51
1.3863029
0
ARC
8
DEFAULT_255_1_234
10
21.947559
20
132.3459342
40
1.0682415
50
359.8090433
51
4.9407866
0
ARC
8
DEFAULT_255_1_234
10
22.3685604
20
132.3835113
40
0.6455691
50
4.8362157
51
12.2904523
0
ARC
8
DEFAULT_255_1_234
10
22.6440719
20
132.4448965
40
0.3633074
50
12.0805627
51
23.8173984
0
ARC
8
DEFAULT_255_1_234
10
22.7614425
20
132.4945919
40
0.2358723
50
24.2871213
51
31.3935614
0
ARC
8
DEFAULT_255_1_234
10
22.8139122
20
132.5289233
40
0.1732111
50
30.7407893
51
82.4657128
0
ARC
8
DEFAULT_255_1_234
10
22.7959256
20
132.4405691
40
0.263235
50
81.1060089
51
90.2184952
0
ARC
8
DEFAULT_255_1_234
10
22.7923555
20
132.4663924
40
0.2374236
50
89.3806855
51
105.6762551
0
ARC
8
DEFAULT_255_1_234
10
22.7740186
20
132.5330567
40
0.1682847
50
105.7981136
51
149.7388061
0
ARC
8
DEFAULT_255_1_234
10
22.8804264
20
132.469095
40
0.2924306
50
149.4208916
51
163.6286378
0
ARC
8
DEFAULT_255_1_234
10
23.0895152
20
132.405325
40
0.5110213
50
163.3763315
51
172.1410975
0
ARC
8
DEFAULT_255_1_234
10
23.4195871
20
132.3580518
40
0.8444586
50
172.0259487
51
178.0703232
0
ARC
8
DEFAULT_255_1_234
10
23.722596
20
132.3436906
40
1.1477868
50
177.8631668
51
179.5044149
0
ARC
8
DEFAULT_255_1_234
10
23.6153365
20
132.1122389
40
1.0404907
50
179.7995573
51
185.2460446
0
ARC
8
DEFAULT_255_1_234
10
23.2110404
20
132.0739513
40
0.6343885
50
185.1411642
51
193.0079639
0
ARC
8
DEFAULT_255_1_234
10
22.9466877
20
132.0114641
40
0.3627568
50
192.7897626
51
205.2507664
0
ARC
8
DEFAULT_255_1_234
10
22.8420424
20
131.9647415
40
0.2481908
50
205.8005384
51
211.2537509
0
ARC
8
DEFAULT_255_1_234
10
22.7896864
20
131.929658
40
0.1852521
50
210.3789793
51
238.4008143
0
ARC
8
DEFAULT_255_1_234
10
22.7877386
20
131.9343376
40
0.1882621
50
239.6520629
51
265.9793761
0
ARC
8
DEFAULT_255_1_234
10
22.7962586
20
132.0015427
40
0.2559272
50
265.1315437
51
270.060332
0
ARC
8
DEFAULT_255_1_234
10
22.7991365
20
131.9691534
40
0.2235528
50
269.3314664
51
287.2178029
0
ARC
8
DEFAULT_255_1_234
10
22.8129217
20
131.9188279
40
0.1714108
50
287.7958004
51
329.080874
0
ARC
8
DEFAULT_255_1_234
10
22.7171674
20
131.978593
40
0.2842745
50
328.6634704
51
343.3325132
0
ARC
8
DEFAULT_255_1_234
10
22.4998694
20
132.0462863
40
0.5118644
50
343.0499468
51
351.9393422
0
ARC
8
DEFAULT_255_1_234
10
22.1531994
20
132.0973949
40
0.8622784
50
351.8069023
51
357.7959224
0
ARC
8
DEFAULT_255_1_234
10
21.829655
20
132.1141721
40
1.1862365
50
357.5871873
51
359.2677531
0
LINE
8
DEFAULT_255_1_234
10
23.4479021
20
132.8098211
11
23.7804161
21
131.8452093
0
LINE
8
DEFAULT_255_1_234
10
23.7804161
20
131.8452093
11
24.1145364
21
132.8098211
0
LINE
8
DEFAULT_255_1_234
10
24.1145364
20
132.8098211
11
24.2832029
21
132.8098211
0
LINE
8
DEFAULT_255_1_234
10
24.2832029
20
132.8098211
11
23.849489
21
131.6404
0
LINE
8
DEFAULT_255_1_234
10
23.849489
20
131.6404
11
23.7129495
21
131.6404
0
LINE
8
DEFAULT_255_1_234
10
23.7129495
20
131.6404
11
23.2800388
21
132.8098211
0
LINE
8
DEFAULT_255_1_234
10
23.2800388
20
132.8098211
11
23.4479021
21
132.8098211
0
ENDSEC
0
EOF