0
SECTION
2
HEADER
9
$MEASUREMENT
70
1
0
ENDSEC
0
SECTION
2
TABLES
0
TABLE
2
LTYPE
0
LTYPE
72
65
70
64
2
CONTINUOUS
3
______
73
0
40
0
0
ENDTAB
0
TABLE
2
LAYER
0
LAYER
2
DEFAULT_255_2_778
70
0
62
255
6
CONTINUOUS
0
LAYER
2
DEFAULT_255_1_388
70
0
62
255
6
CONTINUOUS
0
LAYER
2
DEFAULT_255_2_778_1
70
0
62
255
6
CONTINUOUS
0
ENDTAB
0
ENDSEC
0
SECTION
2
ENTITIES
0
ARC
8
DEFAULT_255_2_778
10
3.5700693
20
67.8676531
40
0.7914215
50
129.1312896
51
180.1450914
0
ARC
8
DEFAULT_255_2_778
10
3.5703345
20
67.8681402
40
0.7912112
50
89.854026
51
129.1684493
0
ARC
8
DEFAULT_255_2_778
10
25.7993937
20
67.8678268
40
0.7915249
50
39.4792447
51
90.147911
0
ARC
8
DEFAULT_255_2_778
10
25.7999935
20
67.8676734
40
0.7911595
50
359.8533901
51
39.5154338
0
ARC
8
DEFAULT_255_2_778
10
25.7996693
20
-1.9863991
40
0.7914836
50
309.4761667
51
0.1482649
0
ARC
8
DEFAULT_255_2_778
10
25.799398
20
-1.9868302
40
0.7913235
50
269.8517415
51
309.511178
0
ARC
8
DEFAULT_255_2_778
10
3.570342
20
-1.986772
40
0.7913815
50
219.1282118
51
270.1454017
0
ARC
8
DEFAULT_255_2_778
10
3.5700247
20
-1.9863896
40
0.7913769
50
179.8524075
51
219.1641908
0
LINE
8
DEFAULT_255_2_778
10
3.5723503
20
68.659349
11
25.7973503
21
68.659349
0
LINE
8
DEFAULT_255_2_778
10
26.5911503
20
67.865649
11
26.5911503
21
-1.984351
0
LINE
8
DEFAULT_255_2_778
10
25.7973503
20
-2.778151
11
3.5723503
21
-2.778151
0
LINE
8
DEFAULT_255_2_778
10
2.7786503
20
-1.984351
11
2.7786503
21
67.865649
0
LINE
8
DEFAULT_255_1_388
10
10.560091
20
0.6757898
11
10.560091
21
-0.6398
0
LINE
8
DEFAULT_255_1_388
10
10.560091
20
-0.6398
11
10.3857031
21
-0.6398
0
LINE
8
DEFAULT_255_1_388
10
10.3857031
20
-0.6398
11
9.7233903
21
0.3739993
0
LINE
8
DEFAULT_255_1_388
10
9.7233903
20
0.3739993
11
9.7233903
21
-0.6398
0
LINE
8
DEFAULT_255_1_388
10
9.7233903
20
-0.6398
11
9.5490024
21
-0.6398
0
LINE
8
DEFAULT_255_1_388
10
9.5490024
20
-0.6398
11
9.5490024
21
0.6757898
0
LINE
8
DEFAULT_255_1_388
10
9.5490024
20
0.6757898
11
9.7233903
21
0.6757898
0
LINE
8
DEFAULT_255_1_388
10
9.7233903
20
0.6757898
11
10.3875102
21
-0.3425273
0
LINE
8
DEFAULT_255_1_388
10
10.3875102
20
-0.3425273
11
10.3875102
21
0.6757898
0
LINE
8
DEFAULT_255_1_388
10
10.3875102
20
0.6757898
11
10.560091
21
0.6757898
0
LINE
8
DEFAULT_255_1_388
10
10.9956091
20
0.6757898
11
11.3127602
21
0.1716009
0
LINE
8
DEFAULT_255_1_388
10
11.3127602
20
0.1716009
11
11.6281042
21
0.6757898
0
LINE
8
DEFAULT_255_1_388
10
11.6281042
20
0.6757898
11
11.8323098
21
0.6757898
0
LINE
8
DEFAULT_255_1_388
10
11.8323098
20
0.6757898
11
11.4166701
21
0.0234163
0
LINE
8
DEFAULT_255_1_388
10
11.4166701
20
0.0234163
11
11.842249
21
-0.6398
0
LINE
8
DEFAULT_255_1_388
10
11.842249
20
-0.6398
11
11.6362363
21
-0.6398
0
LINE
8
DEFAULT_255_1_388
10
11.6362363
20
-0.6398
11
11.3127602
21
-0.1265754
0
LINE
8
DEFAULT_255_1_388
10
11.3127602
20
-0.1265754
11
10.987477
21
-0.6398
0
LINE
8
DEFAULT_255_1_388
10
10.987477
20
-0.6398
11
10.7823679
21
-0.6398
0
LINE
8
DEFAULT_255_1_388
10
10.7823679
20
-0.6398
11
11.2088503
21
0.0234163
0
LINE
8
DEFAULT_255_1_388
10
11.2088503
20
0.0234163
11
10.7923071
21
0.6757898
0
LINE
8
DEFAULT_255_1_388
10
10.7923071
20
0.6757898
11
10.9956091
21
0.6757898
0
LINE
8
DEFAULT_255_1_388
10
12.3238488
20
-0.0127263
11
12.3238488
21
-0.1491645
0
LINE
8
DEFAULT_255_1_388
10
12.3238488
20
-0.1491645
11
11.8829094
21
-0.1491645
0
LINE
8
DEFAULT_255_1_388
10
11.8829094
20
-0.1491645
11
11.8829094
21
-0.0127263
0
LINE
8
DEFAULT_255_1_388
10
11.8829094
20
-0.0127263
11
12.3238488
21
-0.0127263
0
LINE
8
DEFAULT_255_1_388
10
12.8768303
20
-0.6398
11
12.5126938
21
-0.6398
0
LINE
8
DEFAULT_255_1_388
10
12.5126938
20
-0.6398
11
12.5126938
21
0.6757898
0
LINE
8
DEFAULT_255_1_388
10
12.5126938
20
0.6757898
11
12.8840588
21
0.6757898
0
LINE
8
DEFAULT_255_1_388
10
13.4641472
20
0.0622696
11
13.4641472
21
-0.0217619
0
LINE
8
DEFAULT_255_1_388
10
12.8885766
20
0.5330267
11
12.6861782
21
0.5330267
0
LINE
8
DEFAULT_255_1_388
10
12.6861782
20
0.5330267
11
12.6861782
21
-0.4979404
0
LINE
8
DEFAULT_255_1_388
10
12.6861782
20
-0.4979404
11
12.8686982
21
-0.4979404
0
LINE
8
DEFAULT_255_1_388
10
13.2924699
20
-0.0181477
11
13.2924699
21
0.0586553
0
ARC
8
DEFAULT_255_1_388
10
12.8884383
20
0.0159436
40
0.6598608
50
75.4100343
51
90.3802731
0
ARC
8
DEFAULT_255_1_388
10
12.9142628
20
0.1235691
40
0.5492049
50
60.1455157
51
75.1889627
0
ARC
8
DEFAULT_255_1_388
10
12.932122
20
0.1546914
40
0.5133226
50
26.525419
51
60.1451222
0
ARC
8
DEFAULT_255_1_388
10
12.8061006
20
0.0878642
40
0.6559324
50
7.4029944
51
26.832209
0
ARC
8
DEFAULT_255_1_388
10
12.6267403
20
0.0599229
40
0.8374103
50
0.1605597
51
7.7176135
0
ARC
8
DEFAULT_255_1_388
10
12.6451803
20
-0.0260679
40
0.8189782
50
348.7289744
51
0.30125
0
ARC
8
DEFAULT_255_1_388
10
12.8315267
20
-0.0630844
40
0.628991
50
333.0706936
51
348.7181455
0
ARC
8
DEFAULT_255_1_388
10
12.9402895
20
-0.1221551
40
0.5052808
50
299.2531435
51
333.4571133
0
ARC
8
DEFAULT_255_1_388
10
12.8996926
20
-0.0450371
40
0.5924066
50
278.1072193
51
299.0340218
0
ARC
8
DEFAULT_255_1_388
10
12.8708975
20
0.1245979
40
0.7644209
50
270.4446841
51
278.4508355
0
ARC
8
DEFAULT_255_1_388
10
12.8732459
20
0.02003
40
0.5179903
50
269.4969684
51
284.0204874
0
ARC
8
DEFAULT_255_1_388
10
12.9132177
20
-0.1335585
40
0.3592968
50
283.7699076
51
318.1557121
0
ARC
8
DEFAULT_255_1_388
10
12.8752722
20
-0.1051601
40
0.4065308
50
318.7417595
51
343.687252
0
ARC
8
DEFAULT_255_1_388
10
12.6723301
20
-0.0417725
40
0.6191194
50
343.3324891
51
355.8548594
0
ARC
8
DEFAULT_255_1_388
10
12.4362339
20
-0.0193281
40
0.856237
50
355.4988754
51
0.0789913
0
ARC
8
DEFAULT_255_1_388
10
12.5243138
20
0.063408
40
0.7681709
50
359.6455047
51
9.8607559
0
ARC
8
DEFAULT_255_1_388
10
12.7898861
20
0.1113664
40
0.498312
50
9.6573037
51
26.1931522
0
ARC
8
DEFAULT_255_1_388
10
12.8942936
20
0.1598587
40
0.3832303
50
26.5777895
51
40.1533752
0
ARC
8
DEFAULT_255_1_388
10
12.9230601
20
0.182302
40
0.3467742
50
40.3839958
51
80.1430923
0
ARC
8
DEFAULT_255_1_388
10
12.8862857
20
0.0192486
40
0.5137832
50
79.2153636
51
89.7445174
0
LINE
8
DEFAULT_255_1_388
10
14.5592673
20
-0.6398
11
14.4336718
21
-0.2964455
0
LINE
8
DEFAULT_255_1_388
10
14.4336718
20
-0.2964455
11
13.8824975
21
-0.2964455
0
LINE
8
DEFAULT_255_1_388
10
13.8824975
20
-0.2964455
11
13.7587092
21
-0.6398
0
LINE
8
DEFAULT_255_1_388
10
13.7587092
20
-0.6398
11
13.5798034
21
-0.6398
0
LINE
8
DEFAULT_255_1_388
10
13.5798034
20
-0.6398
11
14.0821853
21
0.6757898
0
LINE
8
DEFAULT_255_1_388
10
14.0821853
20
0.6757898
11
14.2339841
21
0.6757898
0
LINE
8
DEFAULT_255_1_388
10
14.2339841
20
0.6757898
11
14.7372695
21
-0.6398
0
LINE
8
DEFAULT_255_1_388
10
14.7372695
20
-0.6398
11
14.5592673
21
-0.6398
0
LINE
8
DEFAULT_255_1_388
10
14.1580847
20
0.4616451
11
13.9349042
21
-0.1536823
0
LINE
8
DEFAULT_255_1_388
10
13.9349042
20
-0.1536823
11
14.3821687
21
-0.1536823
0
LINE
8
DEFAULT_255_1_388
10
14.3821687
20
-0.1536823
11
14.1580847
21
0.4616451
0
LINE
8
DEFAULT_255_1_388
10
15.7329975
20
-0.5033618
11
15.7329975
21
-0.6398
0
LINE
8
DEFAULT_255_1_388
10
15.7329975
20
-0.6398
11
14.870997
21
-0.6398
0
LINE
8
DEFAULT_255_1_388
10
14.870997
20
-0.6398
11
14.870997
21
-0.5196259
0
LINE
8
DEFAULT_255_1_388
10
14.870997
20
-0.5196259
11
15.3263935
21
-0.0136298
0
LINE
8
DEFAULT_255_1_388
10
15.0128566
20
0.2881607
11
14.8456972
21
0.2881607
0
LINE
8
DEFAULT_255_1_388
10
15.424882
20
-0.121154
11
15.0724919
21
-0.5033618
0
LINE
8
DEFAULT_255_1_388
10
15.0724919
20
-0.5033618
11
15.7329975
21
-0.5033618
0
ARC
8
DEFAULT_255_1_388
10
13.8087995
20
1.3283983
40
2.0258655
50
318.5132526
51
320.7829045
0
ARC
8
DEFAULT_255_1_388
10
14.4035952
20
0.8442929
40
1.2589638
50
320.7372878
51
323.9739031
0
ARC
8
DEFAULT_255_1_388
10
14.8444883
20
0.5248554
40
0.7145141
50
323.8962701
51
328.64194
0
ARC
8
DEFAULT_255_1_388
10
15.0747141
20
0.3828545
40
0.4440242
50
328.8294576
51
331.7891185
0
ARC
8
DEFAULT_255_1_388
10
15.1869461
20
0.3249374
40
0.3177517
50
331.4254512
51
352.9365785
0
ARC
8
DEFAULT_255_1_388
10
15.2022461
20
0.321505
40
0.3021496
50
353.2257659
51
0.0166158
0
ARC
8
DEFAULT_255_1_388
10
15.2259221
20
0.3240894
40
0.2784847
50
359.486299
51
15.9343185
0
ARC
8
DEFAULT_255_1_388
10
15.2829488
20
0.3394269
40
0.2194403
50
16.1712913
51
43.5286088
0
ARC
8
DEFAULT_255_1_388
10
15.2916433
20
0.3481191
40
0.2071504
50
43.4417391
51
83.1661095
0
ARC
8
DEFAULT_255_1_388
10
15.2765594
20
0.2652316
40
0.2912888
50
82.160179
51
90.1505708
0
ARC
8
DEFAULT_255_1_388
10
15.2730076
20
0.2048279
40
0.3517025
50
89.5460741
51
102.5418361
0
ARC
8
DEFAULT_255_1_388
10
15.2456796
20
0.3207933
40
0.2325748
50
102.1738499
51
129.206123
0
ARC
8
DEFAULT_255_1_388
10
15.2368249
20
0.3347664
40
0.2161591
50
129.72865
51
135.753947
0
ARC
8
DEFAULT_255_1_388
10
15.2504731
20
0.3238728
40
0.2335433
50
136.1757367
51
166.3673339
0
ARC
8
DEFAULT_255_1_388
10
15.363742
20
0.2935148
40
0.3507873
50
165.9090694
51
178.8684636
0
ARC
8
DEFAULT_255_1_388
10
15.4613191
20
0.2882263
40
0.4484624
50
178.4391136
51
180.0083808
0
ARC
8
DEFAULT_255_1_388
10
15.3033893
20
0.2926197
40
0.4577138
50
163.2878482
51
180.5581842
0
ARC
8
DEFAULT_255_1_388
10
15.2131934
20
0.3174393
40
0.3641968
50
133.4540601
51
162.947111
0
ARC
8
DEFAULT_255_1_388
10
15.2332815
20
0.2960789
40
0.3935189
50
100.7869829
51
133.4382499
0
ARC
8
DEFAULT_255_1_388
10
15.272406
20
0.1218399
40
0.5720313
50
89.660664
51
101.3702276
0
ARC
8
DEFAULT_255_1_388
10
15.2798669
20
0.1287263
40
0.5651495
50
78.2172678
51
90.412935
0
ARC
8
DEFAULT_255_1_388
10
15.3198135
20
0.3114511
40
0.378122
50
55.9269121
51
78.4888449
0
ARC
8
DEFAULT_255_1_388
10
15.341885
20
0.3495187
40
0.3342379
50
47.929771
51
55.4049217
0
ARC
8
DEFAULT_255_1_388
10
15.3533381
20
0.3611618
40
0.3179217
50
4.334829
51
48.0560205
0
ARC
8
DEFAULT_255_1_388
10
15.2301182
20
0.3420487
40
0.442341
50
359.9251713
51
5.5971671
0
ARC
8
DEFAULT_255_1_388
10
15.2783337
20
0.3483728
40
0.3941854
50
337.8914027
51
358.9967534
0
ARC
8
DEFAULT_255_1_388
10
14.9730907
20
0.4661295
40
0.7213271
50
326.9132501
51
338.3508308
0
ARC
8
DEFAULT_255_1_388
10
14.5247019
20
0.7535105
40
1.2538973
50
319.6471833
51
327.0959558
0
ARC
8
DEFAULT_255_1_388
10
14.0933677
20
1.109305
40
1.8129975
50
317.2588228
51
319.9045804
0
LINE
8
DEFAULT_255_1_388
10
16.5362663
20
0.6766934
11
16.5660839
21
0.6766934
0
LINE
8
DEFAULT_255_1_388
10
16.5660839
20
0.6766934
11
16.5660839
21
0.5348338
0
LINE
8
DEFAULT_255_1_388
10
16.5660839
20
0.5348338
11
16.5353627
21
0.5348338
0
LINE
8
DEFAULT_255_1_388
10
15.9200354
20
-0.1392253
11
15.9200354
21
-0.0750722
0
LINE
8
DEFAULT_255_1_388
10
16.0880983
20
-0.0967578
11
16.0880983
21
-0.1582001
0
ARC
8
DEFAULT_255_1_388
10
16.5412519
20
-0.0274174
40
0.562282
50
90.6001079
51
104.5146616
0
ARC
8
DEFAULT_255_1_388
10
16.4975478
20
0.13511
40
0.3939917
50
104.2855758
51
133.8630124
0
ARC
8
DEFAULT_255_1_388
10
16.5159731
20
0.1229243
40
0.4155734
50
134.5304124
51
161.6210222
0
ARC
8
DEFAULT_255_1_388
10
16.7019663
20
0.0573421
40
0.6127682
50
161.2850533
51
174.2074364
0
ARC
8
DEFAULT_255_1_388
10
16.860923
20
0.0354437
40
0.7731446
50
173.7817938
51
174.9251711
0
ARC
8
DEFAULT_255_1_388
10
16.3483424
20
-0.120073
40
0.3412588
50
95.8332067
51
138.995412
0
ARC
8
DEFAULT_255_1_388
10
16.3734704
20
-0.2639305
40
0.4870358
50
89.8755506
51
97.0540979
0
ARC
8
DEFAULT_255_1_388
10
16.3788093
20
-0.1699159
40
0.3930432
50
71.6407016
51
90.6240821
0
ARC
8
DEFAULT_255_1_388
10
16.3957487
20
-0.1075567
40
0.3285421
50
39.6368051
51
71.0190743
0
ARC
8
DEFAULT_255_1_388
10
16.3241394
20
-0.1694414
40
0.4231706
50
10.6588054
51
39.9044509
0
ARC
8
DEFAULT_255_1_388
10
16.149994
20
-0.2072777
40
0.60133
50
359.6827842
51
11.1326896
0
ARC
8
DEFAULT_255_1_388
10
16.1455276
20
-0.2152285
40
0.6058047
50
347.2485908
51
0.4371098
0
ARC
8
DEFAULT_255_1_388
10
16.3331061
20
-0.2603621
40
0.4128987
50
318.1408565
51
347.6118497
0
ARC
8
DEFAULT_255_1_388
10
16.3696658
20
-0.2904097
40
0.3656244
50
275.6342406
51
317.824739
0
ARC
8
DEFAULT_255_1_388
10
16.3448179
20
-0.1442173
40
0.513655
50
269.8872513
51
276.7916069
0
ARC
8
DEFAULT_255_1_388
10
16.3386371
20
-0.2595819
40
0.398323
50
246.9139443
51
270.7436787
0
ARC
8
DEFAULT_255_1_388
10
16.3393567
20
-0.2755956
40
0.3839368
50
218.1665534
51
245.8780431
0
ARC
8
DEFAULT_255_1_388
10
16.4382939
20
-0.1928097
40
0.5128958
50
191.4115343
51
218.6077624
0
ARC
8
DEFAULT_255_1_388
10
16.6563256
20
-0.1439223
40
0.7363054
50
179.6344971
51
191.7836758
0
ARC
8
DEFAULT_255_1_388
10
17.284313
20
-0.0675505
40
1.3642984
50
171.4523743
51
180.3158856
0
ARC
8
DEFAULT_255_1_388
10
16.7898857
20
0.0093895
40
0.8639311
50
157.9802296
51
171.6246761
0
ARC
8
DEFAULT_255_1_388
10
16.5408208
20
0.1087038
40
0.5958004
50
141.4299236
51
157.8541251
0
ARC
8
DEFAULT_255_1_388
10
16.4686291
20
0.1597746
40
0.5075416
50
102.871586
51
140.8564533
0
ARC
8
DEFAULT_255_1_388
10
16.5414844
20
-0.1147057
40
0.7914163
50
90.377773
51
103.5868422
0
ARC
8
DEFAULT_255_1_388
10
16.3459365
20
-0.1827457
40
0.2667015
50
89.8751238
51
126.2072139
0
ARC
8
DEFAULT_255_1_388
10
16.3510836
20
-0.2001153
40
0.2838229
50
124.9742447
51
144.8960197
0
ARC
8
DEFAULT_255_1_388
10
16.3313081
20
-0.1840019
40
0.2583845
50
145.2974778
51
160.2660922
0
ARC
8
DEFAULT_255_1_388
10
16.6769569
20
-0.1617849
40
0.5888695
50
179.6512124
51
190.285571
0
ARC
8
DEFAULT_255_1_388
10
16.4864049
20
-0.1977032
40
0.3949683
50
190.0944895
51
207.5099647
0
ARC
8
DEFAULT_255_1_388
10
16.4227631
20
-0.2279823
40
0.3245464
50
207.9585471
51
216.325377
0
ARC
8
DEFAULT_255_1_388
10
16.3845268
20
-0.2594288
40
0.2751259
50
215.7661336
51
232.5457193
0
ARC
8
DEFAULT_255_1_388
10
16.3414384
20
-0.3141727
40
0.2054668
50
232.8005815
51
270.6605497
0
ARC
8
DEFAULT_255_1_388
10
16.3465808
20
-0.2732147
40
0.2464268
50
269.3550767
51
288.474612
0
ARC
8
DEFAULT_255_1_388
10
16.3570315
20
-0.3125279
40
0.2058436
50
289.1831976
51
322.9685307
0
ARC
8
DEFAULT_255_1_388
10
16.2882417
20
-0.2582721
40
0.2934408
50
322.6007085
51
346.5183319
0
ARC
8
DEFAULT_255_1_388
10
16.1580173
20
-0.2250566
40
0.4278249
50
346.2584622
51
358.7739592
0
ARC
8
DEFAULT_255_1_388
10
16.0428748
20
-0.2188171
40
0.5430876
50
358.3757628
51
0.0082477
0
ARC
8
DEFAULT_255_1_388
10
16.1285566
20
-0.2157144
40
0.4574157
50
359.6211417
51
11.28403
0
ARC
8
DEFAULT_255_1_388
10
16.2722173
20
-0.1857465
40
0.3106708
50
11.0483152
51
31.8145585
0
ARC
8
DEFAULT_255_1_388
10
16.3069878
20
-0.1668955
40
0.2711963
50
32.3028554
51
38.0820598
0
ARC
8
DEFAULT_255_1_388
10
16.3543111
20
-0.1240283
40
0.2075566
50
36.8249851
51
85.741667
0
ARC
8
DEFAULT_255_1_388
10
16.3467524
20
-0.1803935
40
0.2643487
50
85.0150021
51
90.050843
0
LINE
8
DEFAULT_255_1_388
10
17.7741496
20
0.138169
11
17.7741496
21
-0.0786865
0
LINE
8
DEFAULT_255_1_388
10
16.9437739
20
-0.1012756
11
16.9437739
21
0.1219048
0
LINE
8
DEFAULT_255_1_388
10
17.6069902
20
-0.1238647
11
17.6069902
21
0.1499153
0
LINE
8
DEFAULT_255_1_388
10
17.1109333
20
0.1625652
11
17.1109333
21
-0.1048898
0
ARC
8
DEFAULT_255_1_388
10
16.396383
20
-0.0841882
40
1.3777776
50
353.8440855
51
0.2287917
0
ARC
8
DEFAULT_255_1_388
10
16.9182847
20
-0.1424586
40
0.852639
50
344.4934746
51
353.9763743
0
ARC
8
DEFAULT_255_1_388
10
17.2549655
20
-0.2381809
40
0.5026273
50
329.2803599
51
344.7473406
0
ARC
8
DEFAULT_255_1_388
10
17.366515
20
-0.2993962
40
0.3754848
50
324.9361395
51
328.6153007
0
ARC
8
DEFAULT_255_1_388
10
17.40908
20
-0.3291414
40
0.3235566
50
280.5801797
51
324.9173226
0
ARC
8
DEFAULT_255_1_388
10
17.3639429
20
-0.1411764
40
0.5167077
50
269.5979457
51
281.6732777
0
ARC
8
DEFAULT_255_1_388
10
17.3558332
20
-0.1546887
40
0.5032026
50
256.6228565
51
270.5105488
0
ARC
8
DEFAULT_255_1_388
10
17.3106075
20
-0.3288655
40
0.3233092
50
215.8618351
51
257.2787793
0
ARC
8
DEFAULT_255_1_388
10
17.4254782
20
-0.2517894
40
0.4615831
50
197.9695203
51
215.2622745
0
ARC
8
DEFAULT_255_1_388
10
17.7050458
20
-0.1574359
40
0.7566307
50
187.8816486
51
198.2346584
0
ARC
8
DEFAULT_255_1_388
10
18.1503696
20
-0.0931547
40
1.2065653
50
180.8977266
51
188.0054894
0
ARC
8
DEFAULT_255_1_388
10
18.455391
20
-0.08166
40
1.5117443
50
180.7434591
51
181.152202
0
ARC
8
DEFAULT_255_1_388
10
18.2878906
20
0.1273371
40
1.3441277
50
173.7674302
51
180.2315596
0
ARC
8
DEFAULT_255_1_388
10
17.7796774
20
0.1847779
40
0.8326847
50
164.3058537
51
173.9000553
0
ARC
8
DEFAULT_255_1_388
10
17.4520775
20
0.2791652
40
0.4917711
50
148.7922028
51
164.5682288
0
ARC
8
DEFAULT_255_1_388
10
17.3451512
20
0.3388457
40
0.3694204
50
144.5883979
51
148.1161588
0
ARC
8
DEFAULT_255_1_388
10
17.3064257
20
0.3658667
40
0.322202
50
101.6440149
51
144.5142619
0
ARC
8
DEFAULT_255_1_388
10
17.3542449
20
0.1758337
40
0.5180451
50
89.528284
51
102.5820197
0
ARC
8
DEFAULT_255_1_388
10
17.3631441
20
0.1714376
40
0.5224441
50
77.0437914
51
90.508231
0
ARC
8
DEFAULT_255_1_388
10
17.4083695
20
0.3562272
40
0.3322297
50
48.2777708
51
77.4996087
0
ARC
8
DEFAULT_255_1_388
10
17.4165435
20
0.3707557
40
0.315966
50
36.3141586
51
47.6307332
0
ARC
8
DEFAULT_255_1_388
10
17.3188157
20
0.3049159
40
0.4337313
50
18.2931065
51
35.6770203
0
ARC
8
DEFAULT_255_1_388
10
17.0326998
20
0.2067107
40
0.7362203
50
8.0246996
51
18.5605636
0
ARC
8
DEFAULT_255_1_388
10
16.5643354
20
0.1375432
40
1.2096583
50
1.127539
51
8.1718423
0
ARC
8
DEFAULT_255_1_388
10
16.1994487
20
0.1232374
40
1.5747719
50
0.5432713
51
1.38669
0
ARC
8
DEFAULT_255_1_388
10
16.4051866
20
0.1539163
40
1.2018103
50
359.8092569
51
4.9408001
0
ARC
8
DEFAULT_255_1_388
10
16.8788447
20
0.19619
40
0.7262727
50
4.8364937
51
12.2906017
0
ARC
8
DEFAULT_255_1_388
10
17.1887912
20
0.2652485
40
0.4087324
50
12.0806994
51
23.8171225
0
ARC
8
DEFAULT_255_1_388
10
17.3208308
20
0.3211508
40
0.2653719
50
24.2874621
51
31.3934353
0
ARC
8
DEFAULT_255_1_388
10
17.3798744
20
0.3597822
40
0.1948607
50
30.7407708
51
82.4658033
0
ARC
8
DEFAULT_255_1_388
10
17.3596404
20
0.2604017
40
0.2961198
50
81.1057101
51
90.2187368
0
ARC
8
DEFAULT_255_1_388
10
17.3556216
20
0.2894421
40
0.2670929
50
89.380395
51
105.6763916
0
ARC
8
DEFAULT_255_1_388
10
17.3349938
20
0.364432
40
0.1893189
50
105.7980655
51
149.7387869
0
ARC
8
DEFAULT_255_1_388
10
17.4547078
20
0.2924719
40
0.3289892
50
149.4208441
51
163.628295
0
ARC
8
DEFAULT_255_1_388
10
17.6899308
20
0.2207345
40
0.5749004
50
163.3764549
51
172.141138
0
ARC
8
DEFAULT_255_1_388
10
18.0612029
20
0.1675582
40
0.9499585
50
172.0258462
51
178.0705453
0
ARC
8
DEFAULT_255_1_388
10
18.4033582
20
0.1513682
40
1.2924734
50
177.8639301
51
179.5036263
0
ARC
8
DEFAULT_255_1_388
10
18.2814601
20
-0.1089849
40
1.170534
50
179.7995545
51
185.246089
0
ARC
8
DEFAULT_255_1_388
10
17.8266194
20
-0.1520596
40
0.7136613
50
185.1411911
51
193.0082205
0
ARC
8
DEFAULT_255_1_388
10
17.5292455
20
-0.2223559
40
0.4080987
50
192.7897338
51
205.2507384
0
ARC
8
DEFAULT_255_1_388
10
17.4114665
20
-0.2749462
40
0.2791522
50
205.8001921
51
211.2545876
0
ARC
8
DEFAULT_255_1_388
10
17.3526204
20
-0.3143868
40
0.2084074
50
210.3789935
51
238.4007996
0
ARC
8
DEFAULT_255_1_388
10
17.350429
20
-0.3091214
40
0.2117943
50
239.6521916
51
265.9793852
0
ARC
8
DEFAULT_255_1_388
10
17.3600139
20
-0.2334642
40
0.2879689
50
265.1324455
51
270.0603288
0
ARC
8
DEFAULT_255_1_388
10
17.3632516
20
-0.2699582
40
0.2514919
50
269.3314378
51
287.2180039
0
ARC
8
DEFAULT_255_1_388
10
17.3787598
20
-0.3265709
40
0.1928357
50
287.7957942
51
329.0808983
0
ARC
8
DEFAULT_255_1_388
10
17.2710355
20
-0.2593349
40
0.319808
50
328.6635261
51
343.3325043
0
ARC
8
DEFAULT_255_1_388
10
17.0265814
20
-0.1831805
40
0.5758408
50
343.0498092
51
351.9392499
0
ARC
8
DEFAULT_255_1_388
10
16.6365135
20
-0.1256795
40
0.9701202
50
351.8071632
51
357.7957897
0
ARC
8
DEFAULT_255_1_388
10
16.2730612
20
-0.1068276
40
1.3340376
50
357.5870923
51
359.2682493
0
LINE
8
DEFAULT_255_1_388
10
18.2313532
20
-0.0371225
11
18.2313532
21
0.0993157
0
LINE
8
DEFAULT_255_1_388
10
18.2313532
20
0.0993157
11
18.3569487
21
0.0993157
0
LINE
8
DEFAULT_255_1_388
10
18.1428039
20
0.3306282
11
17.9756445
21
0.3306282
0
LINE
8
DEFAULT_255_1_388
10
17.9638981
20
-0.2928312
11
18.1319611
21
-0.2928312
0
LINE
8
DEFAULT_255_1_388
10
18.3569487
20
-0.0371225
11
18.2313532
21
-0.0371225
0
ARC
8
DEFAULT_255_1_388
10
18.3536713
20
0.4809922
40
0.3816905
50
270.491971
51
281.8953028
0
ARC
8
DEFAULT_255_1_388
10
18.380814
20
0.3570199
40
0.2547877
50
281.6690378
51
301.2943765
0
ARC
8
DEFAULT_255_1_388
10
18.3999591
20
0.3219926
40
0.2149197
50
301.7834992
51
311.754567
0
ARC
8
DEFAULT_255_1_388
10
18.4102633
20
0.310565
40
0.1995326
50
311.7325027
51
354.2803031
0
ARC
8
DEFAULT_255_1_388
10
18.3285049
20
0.324628
40
0.2823461
50
353.0941646
51
0.1174696
0
ARC
8
DEFAULT_255_1_388
10
18.2766607
20
0.3299874
40
0.3342238
50
359.1804452
51
15.0452323
0
ARC
8
DEFAULT_255_1_388
10
18.4280665
20
0.3741546
40
0.1765747
50
13.957816
51
77.6713812
0
ARC
8
DEFAULT_255_1_388
10
18.3845901
20
0.2183464
40
0.3381982
50
76.111571
51
90.7028736
0
ARC
8
DEFAULT_255_1_388
10
18.3779313
20
0.249125
40
0.3074046
50
89.5321574
51
103.5319393
0
ARC
8
DEFAULT_255_1_388
10
18.3553697
20
0.3390443
40
0.2147041
50
103.2930114
51
133.5619756
0
ARC
8
DEFAULT_255_1_388
10
18.3503638
20
0.3457351
40
0.2064084
50
133.8349761
51
173.5343225
0
ARC
8
DEFAULT_255_1_388
10
18.4317296
20
0.3313144
40
0.2889266
50
172.5097183
51
180.1360699
0
ARC
8
DEFAULT_255_1_388
10
18.324706
20
0.335188
40
0.3490913
50
155.3483706
51
180.7484035
0
ARC
8
DEFAULT_255_1_388
10
18.3192035
20
0.3319519
40
0.3454798
50
131.5745177
51
154.4799474
0
ARC
8
DEFAULT_255_1_388
10
18.3544318
20
0.2963422
40
0.3955058
50
96.9874487
51
131.9690874
0
ARC
8
DEFAULT_255_1_388
10
18.379121
20
0.1562407
40
0.537622
50
89.8592909
51
97.7827481
0
ARC
8
DEFAULT_255_1_388
10
18.3845319
20
0.126736
40
0.5671399
50
78.3654493
51
90.4132586
0
ARC
8
DEFAULT_255_1_388
10
18.4247961
20
0.3133918
40
0.3762034
50
56.6229818
51
78.6387103
0
ARC
8
DEFAULT_255_1_388
10
18.448979
20
0.3556846
40
0.3275964
50
47.0254604
51
56.085558
0
ARC
8
DEFAULT_255_1_388
10
18.4512041
20
0.3601189
40
0.3228382
50
10.9207523
51
46.777927
0
ARC
8
DEFAULT_255_1_388
10
18.2977635
20
0.3246401
40
0.4802559
50
359.6364235
51
11.6087615
0
ARC
8
DEFAULT_255_1_388
10
18.50418
20
0.3229404
40
0.273833
50
332.3549969
51
359.7179765
0
ARC
8
DEFAULT_255_1_388
10
18.4310201
20
0.3576285
40
0.3547505
50
325.2332381
51
332.8746682
0
ARC
8
DEFAULT_255_1_388
10
18.4481784
20
0.3456763
40
0.3338396
50
292.9803892
51
325.2391113
0
ARC
8
DEFAULT_255_1_388
10
18.417098
20
0.4061679
40
0.4016959
50
292.542178
51
293.6931461
0
ARC
8
DEFAULT_255_1_388
10
18.4614552
20
-0.3203964
40
0.372079
50
57.643292
51
72.8626085
0
ARC
8
DEFAULT_255_1_388
10
18.5013386
20
-0.2557727
40
0.2961455
50
36.7246661
51
57.4701329
0
ARC
8
DEFAULT_255_1_388
10
18.5000543
20
-0.254353
40
0.2963321
50
8.054535
51
36.3561529
0
ARC
8
DEFAULT_255_1_388
10
18.4030216
20
-0.2717927
40
0.3948682
50
359.8316595
51
8.5873361
0
ARC
8
DEFAULT_255_1_388
10
18.360769
20
-0.277203
40
0.4371398
50
343.9831631
51
0.557075
0
ARC
8
DEFAULT_255_1_388
10
18.4604739
20
-0.3045037
40
0.3337749
50
311.6358204
51
343.7652116
0
ARC
8
DEFAULT_255_1_388
10
18.4178993
20
-0.2565045
40
0.3979351
50
279.7829743
51
311.625622
0
ARC
8
DEFAULT_255_1_388
10
18.3840128
20
-0.0948358
40
0.5630417
50
269.7285092
51
280.3857694
0
ARC
8
DEFAULT_255_1_388
10
18.3770441
20
-0.0994759
40
0.5584119
50
256.6827433
51
270.4412869
0
ARC
8
DEFAULT_255_1_388
10
18.3389428
20
-0.2552302
40
0.3980715
50
229.4223821
51
256.8554507
0
ARC
8
DEFAULT_255_1_388
10
18.2922981
20
-0.3077317
40
0.3278564
50
181.8183354
51
229.6455015
0
ARC
8
DEFAULT_255_1_388
10
18.4092591
20
-0.2930175
40
0.4453611
50
179.9760419
51
183.2330638
0
ARC
8
DEFAULT_255_1_388
10
18.3899143
20
-0.2953219
40
0.2579652
50
179.4467996
51
196.2871626
0
ARC
8
DEFAULT_255_1_388
10
18.3350597
20
-0.3103291
40
0.2011057
50
196.5661293
51
227.7059371
0
ARC
8
DEFAULT_255_1_388
10
18.3535204
20
-0.2896845
40
0.2287994
50
227.7653015
51
257.8763321
0
ARC
8
DEFAULT_255_1_388
10
18.3788287
20
-0.1836039
40
0.3378385
50
257.4583525
51
270.4267406
0
ARC
8
DEFAULT_255_1_388
10
18.3839537
20
-0.150977
40
0.3704652
50
269.5965319
51
280.8788143
0
ARC
8
DEFAULT_255_1_388
10
18.4097765
20
-0.2799471
40
0.2389415
50
280.6347277
51
299.8594068
0
ARC
8
DEFAULT_255_1_388
10
18.4312534
20
-0.3207264
40
0.19289
50
300.3575552
51
314.5515667
0
ARC
8
DEFAULT_255_1_388
10
18.421921
20
-0.3138975
40
0.204312
50
315.0730962
51
345.0429362
0
ARC
8
DEFAULT_255_1_388
10
18.3180717
20
-0.2836461
40
0.31246
50
344.598526
51
357.9270698
0
ARC
8
DEFAULT_255_1_388
10
18.2171022
20
-0.2767295
40
0.4136265
50
357.4755098
51
0.0224936
0
ARC
8
DEFAULT_255_1_388
10
18.33239
20
-0.2739901
40
0.2983498
50
359.5051035
51
13.4236939
0
ARC
8
DEFAULT_255_1_388
10
18.429899
20
-0.2490363
40
0.1977186
50
12.9497905
51
48.7550905
0
ARC
8
DEFAULT_255_1_388
10
18.4093912
20
-0.2770627
40
0.2323321
50
49.509109
51
72.1832965
0
ARC
8
DEFAULT_255_1_388
10
18.369138
20
-0.3965368
40
0.358397
50
71.9008458
51
84.3555134
0
ARC
8
DEFAULT_255_1_388
10
18.3509775
20
-0.5497288
40
0.512641
50
84.019632
51
89.3326067
0
ARC
8
DEFAULT_255_2_778
10
15.0733635
20
66.4232757
40
0.3782991
50
0.3791625
51
91.2888722
0
ARC
8
DEFAULT_255_2_778
10
15.0712556
20
66.4203625
40
0.3804373
50
269.035893
51
0.8157951
0
ARC
8
DEFAULT_255_2_778
10
15.2298414
20
66.4076903
40
0.764498
50
290.7706876
51
357.5425648
0
ARC
8
DEFAULT_255_2_778
10
15.1444777
20
66.425708
40
0.8506767
50
356.5766106
51
0.0047928
0
LINE
8
DEFAULT_255_2_778
10
15.9951543
20
66.4257791
11
15.9951544
21
66.4261491
0
ARC
8
DEFAULT_255_2_778
10
15.1450863
20
66.4269642
40
0.8500685
50
359.9450654
51
50.5390341
0
ARC
8
DEFAULT_255_2_778
10
15.1444941
20
66.4294565
40
0.8485231
50
50.4011998
51
90.0499498
0
ARC
8
DEFAULT_255_2_778
10
19.9749167
20
66.4168388
40
0.3846416
50
1.3318655
51
90.1433517
0
ARC
8
DEFAULT_255_2_778
10
20.032532
20
66.4101399
40
0.8701301
50
359.7589483
51
41.4305054
0
ARC
8
DEFAULT_255_2_778
10
20.0366159
20
66.4119682
40
0.8658593
50
41.5186192
51
87.8931913
0
ARC
8
DEFAULT_255_2_778
10
20.0318882
20
66.3706194
40
0.9073597
50
87.6908463
51
90.0021405
0
ARC
8
DEFAULT_255_2_778
10
12.7283013
20
66.4236978
40
0.3778587
50
0.315598
51
91.1596115
0
ARC
8
DEFAULT_255_2_778
10
12.780832
20
66.4101399
40
0.8701301
50
359.7589483
51
41.4305054
0
ARC
8
DEFAULT_255_2_778
10
12.7849159
20
66.4119682
40
0.8658593
50
41.5186192
51
87.8931913
0
ARC
8
DEFAULT_255_2_778
10
12.7801882
20
66.3706194
40
0.9073597
50
87.6908463
51
90.0021405
0
ARC
8
DEFAULT_255_2_778
10
17.3607953
20
66.0151363
40
1.2832573
50
232.9444752
51
270.0294264
0
ARC
8
DEFAULT_255_2_778
10
17.3747185
20
66.0377392
40
1.309688
50
187.7220619
51
233.0542317
0
ARC
8
DEFAULT_255_2_778
10
17.394046
20
66.0396092
40
1.3290916
50
179.9840519
51
187.6899902
0
ARC
8
DEFAULT_255_2_778
10
17.3607435
20
66.0367375
40
1.2957932
50
146.5712859
51
179.856664
0
ARC
8
DEFAULT_255_2_778
10
17.3664497
20
66.0351083
40
1.3014542
50
96.2202672
51
146.6498182
0
ARC
8
DEFAULT_255_2_778
10
17.366579
20
66.020172
40
1.3163172
50
90.2230618
51
96.1554199
0
ARC
8
DEFAULT_255_2_778
10
17.3635865
20
66.0329986
40
1.3034823
50
58.1053732
51
90.0937227
0
ARC
8
DEFAULT_255_2_778
10
17.3697488
20
66.0362602
40
1.297462
50
3.9625434
51
58.2603135
0
ARC
8
DEFAULT_255_2_778
10
17.3698045
20
66.040056
40
1.2971498
50
359.9966051
51
3.7954532
0
ARC
8
DEFAULT_255_2_778
10
17.3615109
20
66.0373085
40
1.3054462
50
328.1074285
51
0.1172153
0
ARC
8
DEFAULT_255_2_778
10
17.3626009
20
66.0353496
40
1.3034863
50
276.1451864
51
328.1552184
0
ARC
8
DEFAULT_255_2_778
10
17.361704
20
66.0549075
40
1.3230283
50
269.9891883
51
276.0931369
0
ARC
8
DEFAULT_255_2_778
10
17.365616
20
66.03454
40
0.7573723
50
269.6851627
51
316.0204287
0
ARC
8
DEFAULT_255_2_778
10
17.3607868
20
66.0355889
40
0.7615801
50
316.2159375
51
0.3302942
0
ARC
8
DEFAULT_255_2_778
10
17.3696724
20
66.0392627
40
0.7526823
50
0.0545399
51
85.3801077
0
ARC
8
DEFAULT_255_2_778
10
17.3615889
20
65.9988031
40
0.793676
50
85.0337063
51
90.0097107
0
ARC
8
DEFAULT_255_2_778
10
17.3608055
20
66.0401224
40
0.7523571
50
89.950584
51
177.7945888
0
ARC
8
DEFAULT_255_2_778
10
17.3749575
20
66.0400059
40
0.7665032
50
177.8265967
51
180.0019985
0
ARC
8
DEFAULT_255_2_778
10
17.3738539
20
66.0360227
40
0.7654098
50
179.7038321
51
222.1989357
0
ARC
8
DEFAULT_255_2_778
10
17.3596298
20
66.0239205
40
0.7467434
50
222.2441262
51
270.1399959
0
ARC
8
DEFAULT_255_2_778
10
9.3661953
20
66.0151363
40
1.2832573
50
232.9444752
51
270.0294264
0
ARC
8
DEFAULT_255_2_778
10
9.3801185
20
66.0377392
40
1.309688
50
187.7220619
51
233.0542317
0
ARC
8
DEFAULT_255_2_778
10
9.399446
20
66.0396092
40
1.3290916
50
179.9840519
51
187.6899902
0
ARC
8
DEFAULT_255_2_778
10
9.3661435
20
66.0367375
40
1.2957932
50
146.5712859
51
179.856664
0
ARC
8
DEFAULT_255_2_778
10
9.3718497
20
66.0351083
40
1.3014542
50
96.2202672
51
146.6498182
0
ARC
8
DEFAULT_255_2_778
10
9.371979
20
66.020172
40
1.3163172
50
90.2230618
51
96.1554199
0
ARC
8
DEFAULT_255_2_778
10
9.3689712
20
66.0331994
40
1.3032814
50
58.1028503
51
90.093062
0
ARC
8
DEFAULT_255_2_778
10
9.3750118
20
66.036256
40
1.2974994
50
3.9626176
51
58.2579977
0
ARC
8
DEFAULT_255_2_778
10
9.3751045
20
66.040056
40
1.2971498
50
359.9966051
51
3.7954532
0
ARC
8
DEFAULT_255_2_778
10
9.3665167
20
66.0372699
40
1.3057405
50
328.1174595
51
0.118882
0
ARC
8
DEFAULT_255_2_778
10
9.3681374
20
66.0350655
40
1.3032005
50
276.6132577
51
328.1621178
0
ARC
8
DEFAULT_255_2_778
10
9.3671443
20
66.054488
40
1.3226088
50
269.9874371
51
276.559089
0
ARC
8
DEFAULT_255_2_778
10
9.3709855
20
66.0345111
40
0.7573432
50
269.6874622
51
316.2799796
0
ARC
8
DEFAULT_255_2_778
10
9.3661266
20
66.035641
40
0.7616402
50
316.4711746
51
0.3263467
0
ARC
8
DEFAULT_255_2_778
10
9.3747216
20
66.0389636
40
0.7530334
50
0.0772648
51
85.7305483
0
ARC
8
DEFAULT_255_2_778
10
9.3669682
20
65.9994743
40
0.7930048
50
85.3843136
51
90.0082261
0
ARC
8
DEFAULT_255_2_778
10
9.365942
20
66.0403957
40
0.752084
50
89.9304929
51
177.8146271
0
ARC
8
DEFAULT_255_2_778
10
9.3814728
20
66.0400058
40
0.7676183
50
177.8297522
51
180.0019923
0
ARC
8
DEFAULT_255_2_778
10
9.3792877
20
66.0359968
40
0.7654437
50
179.7019109
51
222.1940298
0
ARC
8
DEFAULT_255_2_778
10
9.3649802
20
66.0238879
40
0.746711
50
222.2430072
51
270.143803
0
LINE
8
DEFAULT_255_2_778
10
13.8784543
20
67.2573791
11
13.8784543
21
64.7914791
0
LINE
8
DEFAULT_255_2_778
10
13.8784543
20
64.7914791
11
14.4219543
21
64.7914791
0
LINE
8
DEFAULT_255_2_778
10
14.4219543
20
64.7914791
11
14.4219543
21
66.8014791
0
LINE
8
DEFAULT_255_2_778
10
14.4219543
20
66.8014791
11
15.0648543
21
66.8014791
0
LINE
8
DEFAULT_255_2_778
10
15.0648543
20
66.0399791
11
14.6002543
21
66.0399791
0
LINE
8
DEFAULT_255_2_778
10
14.6002543
20
66.0399791
11
15.4413543
21
64.7914791
0
LINE
8
DEFAULT_255_2_778
10
15.4413543
20
64.7914791
11
16.1142543
21
64.7914791
0
LINE
8
DEFAULT_255_2_778
10
16.1142543
20
64.7914791
11
15.5009543
21
65.6928791
0
LINE
8
DEFAULT_255_2_778
10
15.1437543
20
67.2779791
11
14.4216543
21
67.2779791
0
LINE
8
DEFAULT_255_2_778
10
14.4216543
20
67.2779791
11
13.8782543
21
67.2573791
0
LINE
8
DEFAULT_255_2_778
10
13.8782543
20
67.2573791
11
13.8784543
21
67.2573791
0
LINE
8
DEFAULT_255_2_778
10
18.8158543
20
67.2573791
11
18.8158543
21
64.7914791
0
LINE
8
DEFAULT_255_2_778
10
18.8158543
20
64.7914791
11
19.3593543
21
64.7914791
0
LINE
8
DEFAULT_255_2_778
10
19.3593543
20
64.7914791
11
19.3593543
21
66.8014791
0
LINE
8
DEFAULT_255_2_778
10
19.3593543
20
66.8014791
11
19.9739543
21
66.8014791
0
LINE
8
DEFAULT_255_2_778
10
20.3594543
20
66.4257791
11
20.3594543
21
64.7914791
0
LINE
8
DEFAULT_255_2_778
10
20.3594543
20
64.7914791
11
20.9026543
21
64.7914791
0
LINE
8
DEFAULT_255_2_778
10
20.9026543
20
64.7914791
11
20.9026543
21
66.4064791
0
LINE
8
DEFAULT_255_2_778
10
20.0318543
20
67.2779791
11
19.3590543
21
67.2779791
0
LINE
8
DEFAULT_255_2_778
10
19.3590543
20
67.2779791
11
18.8156543
21
67.2573791
0
LINE
8
DEFAULT_255_2_778
10
18.8156543
20
67.2573791
11
18.8158543
21
67.2573791
0
LINE
8
DEFAULT_255_2_778
10
10.8212543
20
67.2573791
11
10.8212543
21
64.7914791
0
LINE
8
DEFAULT_255_2_778
10
10.8212543
20
64.7914791
11
11.3646543
21
64.7914791
0
LINE
8
DEFAULT_255_2_778
10
11.3646543
20
64.7914791
11
11.3646543
21
66.8014791
0
LINE
8
DEFAULT_255_2_778
10
11.3646543
20
66.8014791
11
11.9689543
21
66.8014791
0
LINE
8
DEFAULT_255_2_778
10
11.9689543
20
66.8014791
11
11.9689543
21
64.7914791
0
LINE
8
DEFAULT_255_2_778
10
11.9689543
20
64.7914791
11
12.5124543
21
64.7914791
0
LINE
8
DEFAULT_255_2_778
10
12.5124543
20
64.7914791
11
12.5124543
21
66.8014791
0
LINE
8
DEFAULT_255_2_778
10
12.5124543
20
66.8014791
11
12.7206543
21
66.8014791
0
LINE
8
DEFAULT_255_2_778
10
13.1061543
20
66.4257791
11
13.1061543
21
64.7914791
0
LINE
8
DEFAULT_255_2_778
10
13.1061543
20
64.7914791
11
13.6509543
21
64.7914791
0
LINE
8
DEFAULT_255_2_778
10
13.6509543
20
64.7914791
11
13.6509543
21
66.4064791
0
LINE
8
DEFAULT_255_2_778
10
12.7801543
20
67.2779791
11
11.3749543
21
67.2779791
0
LINE
8
DEFAULT_255_2_778
10
11.3749543
20
67.2779791
11
10.8212543
21
67.2573791
0
LINE
8
DEFAULT_255_2_778
10
10.8212543
20
67.2573791
11
10.8212543
21
67.2573791
0
LINE
8
DEFAULT_255_2_778
10
17.3614543
20
64.7318791
11
17.3614543
21
64.7318791
0
LINE
8
DEFAULT_255_2_778
10
9.3668543
20
64.7318791
11
9.3668543
21
64.7318791
0
LINE
8
DEFAULT_255_1_388
10
11.293891
20
63.5143898
11
11.293891
21
62.1988
0
LINE
8
DEFAULT_255_1_388
10
11.293891
20
62.1988
11
11.1195031
21
62.1988
0
LINE
8
DEFAULT_255_1_388
10
11.1195031
20
62.1988
11
10.4571903
21
63.2125993
0
LINE
8
DEFAULT_255_1_388
10
10.4571903
20
63.2125993
11
10.4571903
21
62.1988
0
LINE
8
DEFAULT_255_1_388
10
10.4571903
20
62.1988
11
10.2828024
21
62.1988
0
LINE
8
DEFAULT_255_1_388
10
10.2828024
20
62.1988
11
10.2828024
21
63.5143898
0
LINE
8
DEFAULT_255_1_388
10
10.2828024
20
63.5143898
11
10.4571903
21
63.5143898
0
LINE
8
DEFAULT_255_1_388
10
10.4571903
20
63.5143898
11
11.1213102
21
62.4960727
0
LINE
8
DEFAULT_255_1_388
10
11.1213102
20
62.4960727
11
11.1213102
21
63.5143898
0
LINE
8
DEFAULT_255_1_388
10
11.1213102
20
63.5143898
11
11.293891
21
63.5143898
0
LINE
8
DEFAULT_255_1_388
10
11.7294091
20
63.5143898
11
12.0465602
21
63.0102009
0
LINE
8
DEFAULT_255_1_388
10
12.0465602
20
63.0102009
11
12.3619042
21
63.5143898
0
LINE
8
DEFAULT_255_1_388
10
12.3619042
20
63.5143898
11
12.5661098
21
63.5143898
0
LINE
8
DEFAULT_255_1_388
10
12.5661098
20
63.5143898
11
12.1504701
21
62.8620163
0
LINE
8
DEFAULT_255_1_388
10
12.1504701
20
62.8620163
11
12.576049
21
62.1988
0
LINE
8
DEFAULT_255_1_388
10
12.576049
20
62.1988
11
12.3700363
21
62.1988
0
LINE
8
DEFAULT_255_1_388
10
12.3700363
20
62.1988
11
12.0465602
21
62.7120246
0
LINE
8
DEFAULT_255_1_388
10
12.0465602
20
62.7120246
11
11.721277
21
62.1988
0
LINE
8
DEFAULT_255_1_388
10
11.721277
20
62.1988
11
11.5161679
21
62.1988
0
LINE
8
DEFAULT_255_1_388
10
11.5161679
20
62.1988
11
11.9426503
21
62.8620163
0
LINE
8
DEFAULT_255_1_388
10
11.9426503
20
62.8620163
11
11.5261071
21
63.5143898
0
LINE
8
DEFAULT_255_1_388
10
11.5261071
20
63.5143898
11
11.7294091
21
63.5143898
0
LINE
8
DEFAULT_255_1_388
10
13.0576488
20
62.8258737
11
13.0576488
21
62.6894355
0
LINE
8
DEFAULT_255_1_388
10
13.0576488
20
62.6894355
11
12.6167094
21
62.6894355
0
LINE
8
DEFAULT_255_1_388
10
12.6167094
20
62.6894355
11
12.6167094
21
62.8258737
0
LINE
8
DEFAULT_255_1_388
10
12.6167094
20
62.8258737
11
13.0576488
21
62.8258737
0
LINE
8
DEFAULT_255_1_388
10
14.1193371
20
63.1339892
11
13.9449491
21
63.1339892
0
LINE
8
DEFAULT_255_1_388
10
13.1660766
20
62.5801042
11
13.3404645
21
62.5801042
0
ARC
8
DEFAULT_255_1_388
10
14.0190218
20
64.1403821
40
1.4087688
50
248.9196578
51
254.1442424
0
ARC
8
DEFAULT_255_1_388
10
13.8300098
20
63.6537805
40
0.8867498
50
241.6337352
51
249.0064643
0
ARC
8
DEFAULT_255_1_388
10
13.6580412
20
63.3386764
40
0.5277799
50
230.4982261
51
241.8087583
0
ARC
8
DEFAULT_255_1_388
10
13.5698183
20
63.2262686
40
0.3849419
50
227.4062979
51
229.9877433
0
ARC
8
DEFAULT_255_1_388
10
13.5149529
20
63.1727155
40
0.3084129
50
200.6782127
51
228.1765252
0
ARC
8
DEFAULT_255_1_388
10
13.5230898
20
63.1710277
40
0.315461
50
179.506278
51
199.8695278
0
ARC
8
DEFAULT_255_1_388
10
13.5220487
20
63.1793671
40
0.3144584
50
132.4834401
51
181.0242352
0
ARC
8
DEFAULT_255_1_388
10
13.5889691
20
63.1161788
40
0.4063094
50
129.2526113
51
133.4249077
0
ARC
8
DEFAULT_255_1_388
10
13.6055284
20
63.0913619
40
0.436014
50
101.9878945
51
128.8741833
0
ARC
8
DEFAULT_255_1_388
10
13.6503699
20
62.897736
40
0.6347415
50
89.5906376
51
102.3170567
0
ARC
8
DEFAULT_255_1_388
10
13.6583011
20
62.9335586
40
0.5989122
50
77.2359491
51
90.3248968
0
ARC
8
DEFAULT_255_1_388
10
13.6815942
20
63.0423554
40
0.4876594
50
63.8379856
51
77.0808925
0
ARC
8
DEFAULT_255_1_388
10
13.7128475
20
63.1005882
40
0.4216191
50
45.9863127
51
64.1608798
0
ARC
8
DEFAULT_255_1_388
10
13.7421869
20
63.134099
40
0.3771394
50
32.2747934
51
45.6544796
0
ARC
8
DEFAULT_255_1_388
10
13.7496675
20
63.1362426
40
0.3696765
50
359.6507495
51
32.6129943
0
ARC
8
DEFAULT_255_1_388
10
13.6435858
20
63.1367788
40
0.3013762
50
359.469654
51
14.983205
0
ARC
8
DEFAULT_255_1_388
10
13.722911
20
63.1580288
40
0.2192542
50
14.9781954
51
48.2004799
0
ARC
8
DEFAULT_255_1_388
10
13.7044221
20
63.1347937
40
0.2489048
50
48.5926661
51
74.1242559
0
ARC
8
DEFAULT_255_1_388
10
13.6669024
20
63.0109607
40
0.3782845
50
73.7889321
51
86.6653996
0
ARC
8
DEFAULT_255_1_388
10
13.6553838
20
62.8751955
40
0.5145025
50
86.2642725
51
90.0533288
0
ARC
8
DEFAULT_255_1_388
10
13.6521931
20
62.9196376
40
0.4700681
50
89.669455
51
99.2313411
0
ARC
8
DEFAULT_255_1_388
10
13.6249091
20
63.0821401
40
0.3052945
50
99.0695987
51
113.7659242
0
ARC
8
DEFAULT_255_1_388
10
13.5941085
20
63.1547772
40
0.226407
50
114.0402885
51
127.9848946
0
ARC
8
DEFAULT_255_1_388
10
13.5670561
20
63.1880884
40
0.1835045
50
127.7287217
51
176.7106493
0
ARC
8
DEFAULT_255_1_388
10
13.6434226
20
63.176721
40
0.2604907
50
175.1780759
51
180.0581213
0
ARC
8
DEFAULT_255_1_388
10
13.548557
20
63.1753411
40
0.1656287
50
179.6140658
51
228.124674
0
ARC
8
DEFAULT_255_1_388
10
13.5982927
20
63.221394
40
0.2332038
50
226.5785315
51
230.8792476
0
ARC
8
DEFAULT_255_1_388
10
13.6512414
20
63.2916908
40
0.3211664
50
231.4636401
51
241.9261664
0
ARC
8
DEFAULT_255_1_388
10
13.7859197
20
63.5395349
40
0.6032345
50
241.7177136
51
248.3259138
0
ARC
8
DEFAULT_255_1_388
10
13.9417792
20
63.9256771
40
1.0196417
50
248.2007377
51
252.4527713
0
ARC
8
DEFAULT_255_1_388
10
14.0771319
20
64.3441092
40
1.4594143
50
252.3388938
51
254.347037
0
ARC
8
DEFAULT_255_1_388
10
13.2286619
20
61.3093095
40
1.6917621
50
71.0197462
51
74.4085467
0
ARC
8
DEFAULT_255_1_388
10
13.4193707
20
61.8598144
40
1.1091618
50
66.1845203
51
71.086519
0
ARC
8
DEFAULT_255_1_388
10
13.5944256
20
62.2539439
40
0.6779073
50
59.3537334
51
66.269255
0
ARC
8
DEFAULT_255_1_388
10
13.6943982
20
62.4230777
40
0.4814366
50
49.1021732
51
59.3294421
0
ARC
8
DEFAULT_255_1_388
10
13.786497
20
62.5280575
40
0.3417875
50
32.7924183
51
49.2503526
0
ARC
8
DEFAULT_255_1_388
10
13.8214584
20
62.5530311
40
0.2988789
50
31.121225
51
32.3977355
0
ARC
8
DEFAULT_255_1_388
10
13.8126762
20
62.5497728
40
0.3080861
50
8.1116803
51
30.7958224
0
ARC
8
DEFAULT_255_1_388
10
13.7215108
20
62.5342437
40
0.4005385
50
359.8390945
51
8.4707348
0
ARC
8
DEFAULT_255_1_388
10
13.7919156
20
62.5287751
40
0.3301608
50
337.4732479
51
0.7538283
0
ARC
8
DEFAULT_255_1_388
10
13.8120181
20
62.5265554
40
0.3107929
50
307.5917028
51
336.4313755
0
ARC
8
DEFAULT_255_1_388
10
13.7609239
20
62.5833509
40
0.3870096
50
307.6560665
51
308.4561779
0
ARC
8
DEFAULT_255_1_388
10
13.7343455
20
62.6241832
40
0.435591
50
284.3733666
51
307.1426212
0
ARC
8
DEFAULT_255_1_388
10
13.6786349
20
62.8291391
40
0.6479685
50
272.4384566
51
284.6464689
0
ARC
8
DEFAULT_255_1_388
10
13.6643734
20
63.0315434
40
0.8508149
50
269.9708517
51
272.8180721
0
ARC
8
DEFAULT_255_1_388
10
13.6595417
20
62.8023283
40
0.6216151
50
248.2707343
51
270.4054609
0
ARC
8
DEFAULT_255_1_388
10
13.6534288
20
62.7808673
40
0.5994203
50
246.1380358
51
248.054058
0
ARC
8
DEFAULT_255_1_388
10
13.6063431
20
62.6819705
40
0.4899388
50
233.1671897
51
246.4951656
0
ARC
8
DEFAULT_255_1_388
10
13.5440066
20
62.5978137
40
0.3852115
50
215.3403381
51
233.084328
0
ARC
8
DEFAULT_255_1_388
10
13.513343
20
62.5755093
40
0.3472969
50
179.2419235
51
215.2648426
0
ARC
8
DEFAULT_255_1_388
10
13.5996981
20
62.5770979
40
0.259251
50
179.3355796
51
199.1045873
0
ARC
8
DEFAULT_255_1_388
10
13.5623123
20
62.5673223
40
0.2207454
50
199.8830064
51
232.7061328
0
ARC
8
DEFAULT_255_1_388
10
13.6154397
20
62.6341456
40
0.306101
50
232.3736206
51
255.5136621
0
ARC
8
DEFAULT_255_1_388
10
13.6537903
20
62.7741177
40
0.4512213
50
255.2447928
51
267.5318292
0
ARC
8
DEFAULT_255_1_388
10
13.663637
20
62.9127709
40
0.5901825
50
267.1564563
51
270.0294721
0
ARC
8
DEFAULT_255_1_388
10
13.6667695
20
62.8628623
40
0.5402814
50
269.6999944
51
278.1662446
0
ARC
8
DEFAULT_255_1_388
10
13.6955723
20
62.6681974
40
0.3435003
50
278.0229022
51
290.6255326
0
ARC
8
DEFAULT_255_1_388
10
13.7346889
20
62.5638547
40
0.2320666
50
290.6616368
51
307.0374127
0
ARC
8
DEFAULT_255_1_388
10
13.7684789
20
62.522404
40
0.1786372
50
306.3942078
51
355.303191
0
ARC
8
DEFAULT_255_1_388
10
13.7109082
20
62.5310186
40
0.2367516
50
354.3662092
51
0.0709489
0
ARC
8
DEFAULT_255_1_388
10
13.7268951
20
62.5335561
40
0.2207761
50
359.4175379
51
16.1975911
0
ARC
8
DEFAULT_255_1_388
10
13.7781069
20
62.5475954
40
0.1676828
50
16.4721294
51
52.6261798
0
ARC
8
DEFAULT_255_1_388
10
13.6857576
20
62.4256606
40
0.3206412
50
52.7381828
51
62.4979144
0
ARC
8
DEFAULT_255_1_388
10
13.5299329
20
62.1324236
40
0.6527035
50
62.2517425
51
68.1219454
0
ARC
8
DEFAULT_255_1_388
10
13.3364817
20
61.6569951
40
1.1659797
50
68.006043
51
71.8055127
0
ARC
8
DEFAULT_255_1_388
10
13.1344725
20
61.0511723
40
1.8045908
50
71.718361
51
73.9260743
0
LINE
8
DEFAULT_255_1_388
10
14.2756537
20
62.6605214
11
14.2756537
21
62.6912426
0
LINE
8
DEFAULT_255_1_388
10
15.1051259
20
62.7093139
11
15.1051259
21
62.6397395
0
LINE
8
DEFAULT_255_1_388
10
15.1051259
20
62.6397395
11
14.4428131
21
62.6397395
0
LINE
8
DEFAULT_255_1_388
10
14.9903732
20
62.4490874
11
15.092476
21
62.3695737
0
LINE
8
DEFAULT_255_1_388
10
14.4482345
20
62.7770813
11
14.9379665
21
62.7770813
0
LINE
8
DEFAULT_255_1_388
10
14.9379665
20
62.7770813
11
14.9379665
21
62.7897312
0
ARC
8
DEFAULT_255_1_388
10
14.7188298
20
62.673021
40
0.4923176
50
252.326534
51
270.5809615
0
ARC
8
DEFAULT_255_1_388
10
14.6957763
20
62.589694
40
0.4059384
50
223.3000488
51
251.8562489
0
ARC
8
DEFAULT_255_1_388
10
14.7195543
20
62.6127898
40
0.4390832
50
190.9374369
51
223.3654369
0
ARC
8
DEFAULT_255_1_388
10
14.913622
20
62.6566598
40
0.63798
50
179.6531919
51
191.4988561
0
ARC
8
DEFAULT_255_1_388
10
14.9273247
20
62.6948571
40
0.6516811
50
167.4005523
51
180.3177836
0
ARC
8
DEFAULT_255_1_388
10
14.8089919
20
62.7198853
40
0.5307402
50
154.1835149
51
167.2508278
0
ARC
8
DEFAULT_255_1_388
10
14.737951
20
62.7572925
40
0.4505076
50
134.3150225
51
154.5315008
0
ARC
8
DEFAULT_255_1_388
10
14.7134845
20
62.778755
40
0.4180662
50
122.8617482
51
133.9707159
0
ARC
8
DEFAULT_255_1_388
10
14.7018452
20
62.8037882
40
0.3907416
50
89.8248474
51
123.4199325
0
ARC
8
DEFAULT_255_1_388
10
14.707475
20
62.7310352
40
0.4635141
50
74.7874349
51
90.5482648
0
ARC
8
DEFAULT_255_1_388
10
14.7405214
20
62.8530987
40
0.3370565
50
39.8178888
51
74.7634383
0
ARC
8
DEFAULT_255_1_388
10
14.6828456
20
62.8081356
40
0.4101553
50
16.8990848
51
39.4830125
0
ARC
8
DEFAULT_255_1_388
10
14.469707
20
62.7398711
40
0.6339427
50
4.9634768
51
17.2027767
0
ARC
8
DEFAULT_255_1_388
10
14.1976475
20
62.71116
40
0.9074803
50
359.8834402
51
5.2832409
0
ARC
8
DEFAULT_255_1_388
10
14.8768833
20
62.6471981
40
0.4341343
50
180.9844233
51
194.9402766
0
ARC
8
DEFAULT_255_1_388
10
14.7587999
20
62.614917
40
0.3117211
50
194.8030557
51
222.0412897
0
ARC
8
DEFAULT_255_1_388
10
14.7245871
20
62.5809715
40
0.2635903
50
221.541578
51
268.8616004
0
ARC
8
DEFAULT_255_1_388
10
14.7327991
20
62.657028
40
0.3398611
50
267.7321071
51
270.009808
0
ARC
8
DEFAULT_255_1_388
10
14.7348055
20
62.6797178
40
0.3625561
50
269.6921218
51
280.4122297
0
ARC
8
DEFAULT_255_1_388
10
14.7546466
20
62.5763767
40
0.2573323
50
280.2257165
51
298.633539
0
ARC
8
DEFAULT_255_1_388
10
14.767188
20
62.5499578
40
0.2281403
50
299.0485543
51
300.4624141
0
ARC
8
DEFAULT_255_1_388
10
14.691286
20
62.6764796
40
0.3756797
50
300.6578578
51
322.037749
0
ARC
8
DEFAULT_255_1_388
10
14.6542382
20
62.7088266
40
0.4247956
50
321.671786
51
322.3059078
0
ARC
8
DEFAULT_255_1_388
10
14.7565945
20
62.5794267
40
0.3960488
50
276.9729088
51
328.0035579
0
ARC
8
DEFAULT_255_1_388
10
14.7254415
20
62.7459609
40
0.5652345
50
269.8358003
51
278.0581296
0
ARC
8
DEFAULT_255_1_388
10
14.6998714
20
62.829782
40
0.2274263
50
89.2017936
51
117.2852353
0
ARC
8
DEFAULT_255_1_388
10
14.7058465
20
62.8250637
40
0.2343798
50
118.0546404
51
137.4544511
0
ARC
8
DEFAULT_255_1_388
10
14.7480109
20
62.7867556
40
0.2913471
50
137.5109688
51
158.8516701
0
ARC
8
DEFAULT_255_1_388
10
14.8760209
20
62.7350902
40
0.4293804
50
158.5845496
51
170.1719753
0
ARC
8
DEFAULT_255_1_388
10
15.0076545
20
62.7089519
40
0.5635533
50
169.8378964
51
173.0563877
0
ARC
8
DEFAULT_255_1_388
10
14.4791829
20
62.7664187
40
0.4593755
50
2.9089079
51
12.88469
0
ARC
8
DEFAULT_255_1_388
10
14.6333748
20
62.8027082
40
0.3009753
50
12.6957404
51
28.6405841
0
ARC
8
DEFAULT_255_1_388
10
14.6943245
20
62.8342577
40
0.232366
50
29.016559
51
41.1492981
0
ARC
8
DEFAULT_255_1_388
10
14.7171224
20
62.854108
40
0.2021373
50
41.1646967
51
85.001362
0
ARC
8
DEFAULT_255_1_388
10
14.7035228
20
62.7714775
40
0.2857091
50
83.728216
51
90.0968824
0
LINE
8
DEFAULT_255_1_388
10
15.7710529
20
63.1818781
11
15.7710529
21
63.026465
0
LINE
8
DEFAULT_255_1_388
10
15.4656481
20
62.8927375
11
15.4656481
21
62.1988
0
LINE
8
DEFAULT_255_1_388
10
15.4656481
20
62.1988
11
15.2984887
21
62.1988
0
LINE
8
DEFAULT_255_1_388
10
15.2984887
20
62.1988
11
15.2984887
21
63.1764567
0
LINE
8
DEFAULT_255_1_388
10
15.2984887
20
63.1764567
11
15.4611303
21
63.1764567
0
LINE
8
DEFAULT_255_1_388
10
15.4611303
20
63.1764567
11
15.463841
21
63.0635112
0
ARC
8
DEFAULT_255_1_388
10
15.6960689
20
62.5698068
40
0.4627735
50
80.6751522
51
86.893806
0
ARC
8
DEFAULT_255_1_388
10
15.6892518
20
62.4606103
40
0.5721798
50
86.8046851
51
90.0423898
0
ARC
8
DEFAULT_255_1_388
10
15.6850938
20
62.7373197
40
0.2954939
50
89.2758283
51
106.6212906
0
ARC
8
DEFAULT_255_1_388
10
15.6620963
20
62.8209009
40
0.2088351
50
107.1347109
51
157.6456887
0
ARC
8
DEFAULT_255_1_388
10
15.7389025
20
62.7781908
40
0.296292
50
155.6557383
51
157.256838
0
ARC
8
DEFAULT_255_1_388
10
15.7168639
20
62.9092472
40
0.296341
50
127.8167201
51
148.6300223
0
ARC
8
DEFAULT_255_1_388
10
15.6883386
20
62.9385066
40
0.2557782
50
91.3329934
51
126.7875218
0
ARC
8
DEFAULT_255_1_388
10
15.6968774
20
62.8581718
40
0.3363561
50
89.9858247
51
92.4688453
0
ARC
8
DEFAULT_255_1_388
10
15.6978267
20
62.8890114
40
0.3055179
50
85.3587643
51
90.1624243
0
ARC
8
DEFAULT_255_1_388
10
15.7073332
20
63.0019458
40
0.1921848
50
78.4019195
51
85.4592653
0
ARC
8
DEFAULT_255_1_388
10
15.7236393
20
63.0797142
40
0.1127267
50
67.7849217
51
78.573798
0
ARC
8
DEFAULT_255_1_388
10
15.7358027
20
63.1112374
40
0.0789473
50
63.4805074
51
67.3074739
0
LINE
8
DEFAULT_255_1_388
10
16.1062753
20
63.1764567
11
16.1062753
21
62.1988
0
LINE
8
DEFAULT_255_1_388
10
16.1062753
20
62.1988
11
15.9391159
21
62.1988
0
LINE
8
DEFAULT_255_1_388
10
15.9391159
20
62.1988
11
15.9391159
21
63.1764567
0
LINE
8
DEFAULT_255_1_388
10
15.9391159
20
63.1764567
11
16.1062753
21
63.1764567
0
ARC
8
DEFAULT_255_1_388
10
16.0356521
20
63.4368428
40
0.1100948
50
161.4148232
51
180.5532607
0
ARC
8
DEFAULT_255_1_388
10
16.0216831
20
63.4406875
40
0.0956324
50
138.1830164
51
160.9307633
0
ARC
8
DEFAULT_255_1_388
10
16.0093018
20
63.4514313
40
0.0792417
50
104.6371663
51
138.0036136
0
ARC
8
DEFAULT_255_1_388
10
16.0213557
20
63.4101963
40
0.1221906
50
92.0601206
51
105.2198859
0
ARC
8
DEFAULT_255_1_388
10
16.0239921
20
63.3713583
40
0.161103
50
89.9790681
51
92.5006086
0
ARC
8
DEFAULT_255_1_388
10
16.0251097
20
63.3969998
40
0.1354654
50
78.0234649
51
90.4478111
0
ARC
8
DEFAULT_255_1_388
10
16.0354681
20
63.4435203
40
0.0878096
50
55.0521508
51
78.336297
0
ARC
8
DEFAULT_255_1_388
10
16.0411216
20
63.4530168
40
0.0767913
50
42.0506198
51
54.4508489
0
ARC
8
DEFAULT_255_1_388
10
16.0259248
20
63.4390821
40
0.0974091
50
1.7493657
51
42.1498724
0
ARC
8
DEFAULT_255_1_388
10
15.9973154
20
63.4358166
40
0.1261276
50
359.9832635
51
2.8353994
0
ARC
8
DEFAULT_255_1_388
10
16.0159564
20
63.4347412
40
0.1074916
50
342.1062453
51
0.5535864
0
ARC
8
DEFAULT_255_1_388
10
16.0319988
20
63.4303197
40
0.0908695
50
316.7110111
51
341.6513114
0
ARC
8
DEFAULT_255_1_388
10
16.039542
20
63.4235607
40
0.0807447
50
285.4398289
51
316.5320129
0
ARC
8
DEFAULT_255_1_388
10
16.0271591
20
63.4647023
40
0.1237022
50
272.3543902
51
285.8951677
0
ARC
8
DEFAULT_255_1_388
10
16.0241301
20
63.5062742
40
0.1653687
50
269.9725761
51
272.8112722
0
ARC
8
DEFAULT_255_1_388
10
16.0230353
20
63.4811727
40
0.1402709
50
258.8433431
51
270.4148607
0
ARC
8
DEFAULT_255_1_388
10
16.0129133
20
63.4321739
40
0.0902407
50
238.54281
51
259.1289544
0
ARC
8
DEFAULT_255_1_388
10
16.0052454
20
63.4182694
40
0.0743817
50
222.5056676
51
237.9918132
0
ARC
8
DEFAULT_255_1_388
10
16.0196048
20
63.4313295
40
0.0937918
50
184.1070774
51
222.4604165
0
ARC
8
DEFAULT_255_1_388
10
16.0498461
20
63.4356538
40
0.1242838
50
179.9419581
51
185.0970785
0
LINE
8
DEFAULT_255_1_388
10
16.3312628
20
62.6605214
11
16.3312628
21
62.6912426
0
LINE
8
DEFAULT_255_1_388
10
17.160735
20
62.7093139
11
17.160735
21
62.6397395
0
LINE
8
DEFAULT_255_1_388
10
17.160735
20
62.6397395
11
16.4984223
21
62.6397395
0
LINE
8
DEFAULT_255_1_388
10
17.0459823
20
62.4490874
11
17.1480851
21
62.3695737
0
LINE
8
DEFAULT_255_1_388
10
16.5038437
20
62.7770813
11
16.9935756
21
62.7770813
0
LINE
8
DEFAULT_255_1_388
10
16.9935756
20
62.7770813
11
16.9935756
21
62.7897312
0
ARC
8
DEFAULT_255_1_388
10
16.7744389
20
62.673021
40
0.4923176
50
252.326534
51
270.5809615
0
ARC
8
DEFAULT_255_1_388
10
16.7513854
20
62.589694
40
0.4059384
50
223.3000488
51
251.8562489
0
ARC
8
DEFAULT_255_1_388
10
16.7751634
20
62.6127898
40
0.4390832
50
190.9374369
51
223.3654369
0
ARC
8
DEFAULT_255_1_388
10
16.9692312
20
62.6566598
40
0.63798
50
179.6531919
51
191.4988561
0
ARC
8
DEFAULT_255_1_388
10
16.9829339
20
62.6948571
40
0.6516811
50
167.4005523
51
180.3177836
0
ARC
8
DEFAULT_255_1_388
10
16.864601
20
62.7198853
40
0.5307402
50
154.1835149
51
167.2508278
0
ARC
8
DEFAULT_255_1_388
10
16.7935601
20
62.7572925
40
0.4505076
50
134.3150225
51
154.5315008
0
ARC
8
DEFAULT_255_1_388
10
16.7690936
20
62.778755
40
0.4180662
50
122.8617482
51
133.9707159
0
ARC
8
DEFAULT_255_1_388
10
16.7574543
20
62.8037882
40
0.3907416
50
89.8248474
51
123.4199325
0
ARC
8
DEFAULT_255_1_388
10
16.7630841
20
62.7310352
40
0.4635141
50
74.7874349
51
90.5482648
0
ARC
8
DEFAULT_255_1_388
10
16.7961305
20
62.8530987
40
0.3370565
50
39.8178888
51
74.7634383
0
ARC
8
DEFAULT_255_1_388
10
16.7384547
20
62.8081356
40
0.4101553
50
16.8990848
51
39.4830125
0
ARC
8
DEFAULT_255_1_388
10
16.5253162
20
62.7398711
40
0.6339427
50
4.9634768
51
17.2027767
0
ARC
8
DEFAULT_255_1_388
10
16.2532567
20
62.71116
40
0.9074803
50
359.8834402
51
5.2832409
0
ARC
8
DEFAULT_255_1_388
10
16.9324924
20
62.6471981
40
0.4341343
50
180.9844233
51
194.9402766
0
ARC
8
DEFAULT_255_1_388
10
16.814409
20
62.614917
40
0.3117211
50
194.8030557
51
222.0412897
0
ARC
8
DEFAULT_255_1_388
10
16.7801962
20
62.5809715
40
0.2635903
50
221.541578
51
268.8616004
0
ARC
8
DEFAULT_255_1_388
10
16.7884083
20
62.657028
40
0.3398611
50
267.7321071
51
270.009808
0
ARC
8
DEFAULT_255_1_388
10
16.7904146
20
62.6797178
40
0.3625561
50
269.6921218
51
280.4122297
0
ARC
8
DEFAULT_255_1_388
10
16.8102558
20
62.5763767
40
0.2573323
50
280.2257165
51
298.633539
0
ARC
8
DEFAULT_255_1_388
10
16.8227972
20
62.5499578
40
0.2281403
50
299.0485543
51
300.4624141
0
ARC
8
DEFAULT_255_1_388
10
16.7468952
20
62.6764796
40
0.3756797
50
300.6578578
51
322.037749
0
ARC
8
DEFAULT_255_1_388
10
16.7098473
20
62.7088266
40
0.4247956
50
321.671786
51
322.3059078
0
ARC
8
DEFAULT_255_1_388
10
16.8122036
20
62.5794267
40
0.3960488
50
276.9729088
51
328.0035579
0
ARC
8
DEFAULT_255_1_388
10
16.7810507
20
62.7459609
40
0.5652345
50
269.8358003
51
278.0581296
0
ARC
8
DEFAULT_255_1_388
10
16.7554806
20
62.829782
40
0.2274263
50
89.2017936
51
117.2852353
0
ARC
8
DEFAULT_255_1_388
10
16.7614556
20
62.8250637
40
0.2343798
50
118.0546404
51
137.4544511
0
ARC
8
DEFAULT_255_1_388
10
16.80362
20
62.7867556
40
0.2913471
50
137.5109688
51
158.8516701
0
ARC
8
DEFAULT_255_1_388
10
16.9316301
20
62.7350902
40
0.4293804
50
158.5845496
51
170.1719753
0
ARC
8
DEFAULT_255_1_388
10
17.0632636
20
62.7089519
40
0.5635533
50
169.8378964
51
173.0563877
0
ARC
8
DEFAULT_255_1_388
10
16.534792
20
62.7664187
40
0.4593755
50
2.9089079
51
12.88469
0
ARC
8
DEFAULT_255_1_388
10
16.6889839
20
62.8027082
40
0.3009753
50
12.6957404
51
28.6405841
0
ARC
8
DEFAULT_255_1_388
10
16.7499336
20
62.8342577
40
0.232366
50
29.016559
51
41.1492981
0
ARC
8
DEFAULT_255_1_388
10
16.7727315
20
62.854108
40
0.2021373
50
41.1646967
51
85.001362
0
ARC
8
DEFAULT_255_1_388
10
16.7591319
20
62.7714775
40
0.2857091
50
83.728216
51
90.0968824
0
LINE
8
DEFAULT_255_1_388
10
18.0814672
20
62.8891232
11
17.9134042
21
62.8891232
0
LINE
8
DEFAULT_255_1_388
10
17.3134374
20
62.499687
11
17.4805968
21
62.499687
0
ARC
8
DEFAULT_255_1_388
10
17.7797333
20
62.4597935
40
0.1436198
50
359.3335374
51
18.5869869
0
ARC
8
DEFAULT_255_1_388
10
17.8032072
20
62.4660015
40
0.1194022
50
19.3538149
51
54.6486387
0
ARC
8
DEFAULT_255_1_388
10
17.746506
20
62.3878077
40
0.2159877
50
54.3821575
51
65.0627557
0
ARC
8
DEFAULT_255_1_388
10
17.6600407
20
62.2059032
40
0.4173927
50
64.8282172
51
71.4204388
0
ARC
8
DEFAULT_255_1_388
10
17.5585302
20
61.9080782
40
0.7320403
50
71.3166092
51
75.8005927
0
ARC
8
DEFAULT_255_1_388
10
17.4639188
20
61.5435881
40
1.108605
50
75.6810806
51
78.0063886
0
ARC
8
DEFAULT_255_1_388
10
17.9643777
20
63.903753
40
1.3040363
50
254.69024
51
258.0465557
0
ARC
8
DEFAULT_255_1_388
10
17.8475646
20
63.4807742
40
0.8652254
50
249.9010634
51
254.7555005
0
ARC
8
DEFAULT_255_1_388
10
17.7346698
20
63.174168
40
0.5384962
50
243.3097375
51
249.970939
0
ARC
8
DEFAULT_255_1_388
10
17.6639112
20
63.0330721
40
0.380652
50
234.4047808
51
243.2861752
0
ARC
8
DEFAULT_255_1_388
10
17.5938748
20
62.9363645
40
0.2612502
50
220.8665526
51
234.5497192
0
ARC
8
DEFAULT_255_1_388
10
17.5553746
20
62.9013203
40
0.2092097
50
214.3063391
51
220.5075055
0
ARC
8
DEFAULT_255_1_388
10
17.552486
20
62.8978577
40
0.2048755
50
186.9131438
51
213.9617385
0
ARC
8
DEFAULT_255_1_388
10
17.612325
20
62.9075431
40
0.2654563
50
179.8802037
51
187.4338578
0
ARC
8
DEFAULT_255_1_388
10
17.5949215
20
62.9098049
40
0.2480581
50
132.0053393
51
180.3942351
0
ARC
8
DEFAULT_255_1_388
10
17.6688128
20
62.8415997
40
0.3483116
50
129.2317021
51
133.5294826
0
ARC
8
DEFAULT_255_1_388
10
17.6748097
20
62.8310383
40
0.360291
50
100.440976
51
128.9081567
0
ARC
8
DEFAULT_255_1_388
10
17.7056214
20
62.6864357
40
0.5080996
50
89.6985063
51
100.9029043
0
ARC
8
DEFAULT_255_1_388
10
17.7120369
20
62.6683739
40
0.5261675
50
77.6967144
51
90.4074623
0
ARC
8
DEFAULT_255_1_388
10
17.7492721
20
62.8289503
40
0.3613511
50
50.7278431
51
78.0397473
0
ARC
8
DEFAULT_255_1_388
10
17.7992764
20
62.8872173
40
0.2845966
50
25.754382
51
51.0957456
0
ARC
8
DEFAULT_255_1_388
10
17.7994131
20
62.8928311
40
0.2820785
50
359.2468358
51
24.7393861
0
ARC
8
DEFAULT_255_1_388
10
17.7674019
20
62.8896204
40
0.1460032
50
359.8048924
51
45.1543866
0
ARC
8
DEFAULT_255_1_388
10
17.7215752
20
62.8504291
40
0.2061641
50
43.8053172
51
49.625485
0
ARC
8
DEFAULT_255_1_388
10
17.7225195
20
62.8505849
40
0.2054344
50
49.7979696
51
82.121802
0
ARC
8
DEFAULT_255_1_388
10
17.7091278
20
62.7778473
40
0.2793404
50
81.4458692
51
90.1707936
0
ARC
8
DEFAULT_255_1_388
10
17.7063854
20
62.7186478
40
0.3385438
50
89.6768097
51
99.1267111
0
ARC
8
DEFAULT_255_1_388
10
17.6870836
20
62.8349405
40
0.2206627
50
98.9679878
51
113.4573418
0
ARC
8
DEFAULT_255_1_388
10
17.6650517
20
62.8876193
40
0.1635691
50
113.7230234
51
127.4758155
0
ARC
8
DEFAULT_255_1_388
10
17.6461099
20
62.9101433
40
0.1341757
50
126.9086647
51
150.3160891
0
ARC
8
DEFAULT_255_1_388
10
17.640743
20
62.915868
40
0.1266992
50
151.363328
51
180.0701537
0
ARC
8
DEFAULT_255_1_388
10
17.6717651
20
62.913523
40
0.1577364
50
179.2045432
51
180.0012892
0
ARC
8
DEFAULT_255_1_388
10
17.6348762
20
62.9120515
40
0.1208564
50
179.3040542
51
198.4225767
0
ARC
8
DEFAULT_255_1_388
10
17.6132904
20
62.9064337
40
0.0986126
50
199.2893055
51
238.6036855
0
ARC
8
DEFAULT_255_1_388
10
17.6810997
20
63.0128752
40
0.2248082
50
237.9844191
51
246.8751643
0
ARC
8
DEFAULT_255_1_388
10
17.7775857
20
63.2335861
40
0.4656832
50
246.6226408
51
251.8174794
0
ARC
8
DEFAULT_255_1_388
10
17.8936324
20
63.5820909
40
0.8329993
50
251.7140983
51
255.0775146
0
ARC
8
DEFAULT_255_1_388
10
18.0285848
20
64.0847708
40
1.3534786
50
255.0370864
51
257.4701577
0
ARC
8
DEFAULT_255_1_388
10
17.4538393
20
61.4953535
40
1.298957
50
73.6835762
51
77.5015749
0
ARC
8
DEFAULT_255_1_388
10
17.5763307
20
61.9115699
40
0.8650912
50
68.7042835
51
73.7249997
0
ARC
8
DEFAULT_255_1_388
10
17.6778871
20
62.1732853
40
0.584363
50
63.5907059
51
68.6622978
0
ARC
8
DEFAULT_255_1_388
10
17.7646613
20
62.3463157
40
0.3907955
50
54.7106507
51
63.7018033
0
ARC
8
DEFAULT_255_1_388
10
17.8349
20
62.4444287
40
0.2701345
50
41.0624597
51
54.8488532
0
ARC
8
DEFAULT_255_1_388
10
17.8732779
20
62.4796439
40
0.2180695
50
34.4952722
51
40.7097584
0
ARC
8
DEFAULT_255_1_388
10
17.8785744
20
62.4851204
40
0.2106083
50
9.3761233
51
34.0834046
0
ARC
8
DEFAULT_255_1_388
10
17.8050872
20
62.4710174
40
0.2854177
50
359.7695264
51
9.7660556
0
ARC
8
DEFAULT_255_1_388
10
17.8273166
20
62.4661841
40
0.2632121
50
335.8653103
51
0.8022272
0
ARC
8
DEFAULT_255_1_388
10
17.8357571
20
62.4676951
40
0.2561728
50
307.7357819
51
334.7849324
0
ARC
8
DEFAULT_255_1_388
10
17.7912212
20
62.5176553
40
0.3229737
50
307.0217048
51
308.5596894
0
ARC
8
DEFAULT_255_1_388
10
17.7616796
20
62.5618063
40
0.3760237
50
282.9361285
51
306.5649033
0
ARC
8
DEFAULT_255_1_388
10
17.7209858
20
62.7268871
40
0.5460314
50
271.1026197
51
283.2199962
0
ARC
8
DEFAULT_255_1_388
10
17.7138047
20
62.8669744
40
0.6862456
50
269.9926344
51
271.4770056
0
ARC
8
DEFAULT_255_1_388
10
17.7108617
20
62.7452633
40
0.5645418
50
259.0723633
51
270.2897324
0
ARC
8
DEFAULT_255_1_388
10
17.6869841
20
62.6195887
40
0.4366198
50
245.4965026
51
259.0225745
0
ARC
8
DEFAULT_255_1_388
10
17.6557058
20
62.5541491
40
0.3641037
50
228.9686619
51
245.7042678
0
ARC
8
DEFAULT_255_1_388
10
17.6258333
20
62.5173573
40
0.3167435
50
214.4015391
51
228.6759028
0
ARC
8
DEFAULT_255_1_388
10
17.593283
20
62.4995429
40
0.2798456
50
179.9704983
51
215.1574389
0
ARC
8
DEFAULT_255_1_388
10
17.6721042
20
62.5078148
40
0.1916798
50
182.430239
51
203.0329751
0
ARC
8
DEFAULT_255_1_388
10
17.6513638
20
62.5014675
40
0.1701248
50
203.7987464
51
232.5483345
0
ARC
8
DEFAULT_255_1_388
10
17.6824723
20
62.5410049
40
0.2204299
50
232.3784541
51
256.3934343
0
ARC
8
DEFAULT_255_1_388
10
17.708387
20
62.6411359
40
0.3238512
50
256.1048329
51
268.4627478
0
ARC
8
DEFAULT_255_1_388
10
17.7136289
20
62.7315297
40
0.4143627
50
268.0734924
51
270.0121004
0
ARC
8
DEFAULT_255_1_388
10
17.7157008
20
62.7001191
40
0.3829573
50
269.7031202
51
278.8338867
0
ARC
8
DEFAULT_255_1_388
10
17.7361872
20
62.5729553
40
0.2541568
50
278.6727378
51
292.82331
0
ARC
8
DEFAULT_255_1_388
10
17.7587418
20
62.5165546
40
0.1934264
50
293.1457581
51
303.6656964
0
ARC
8
DEFAULT_255_1_388
10
17.7885492
20
62.4742159
40
0.1416713
50
303.1245849
51
321.7434683
0
ARC
8
DEFAULT_255_1_388
10
17.8094573
20
62.455878
40
0.1139081
50
322.4747616
51
1.1293039
0
LINE
8
DEFAULT_255_2_778
10
19.9765417
20
44.8468581
11
18.6536417
21
44.8468581
0
LINE
8
DEFAULT_255_2_778
10
18.6536417
20
44.8468581
11
18.6536417
21
27.6489581
0
LINE
8
DEFAULT_255_2_778
10
17.3307834
20
27.6489333
11
19.9765834
21
27.6489333
0
LINE
8
DEFAULT_255_2_778
10
19.9765834
20
27.6489333
11
19.9765834
21
22.3572333
0
LINE
8
DEFAULT_255_2_778
10
19.9765834
20
22.3572333
11
17.3307834
21
22.3572333
0
LINE
8
DEFAULT_255_2_778
10
17.3307834
20
22.3572333
11
17.3307834
21
27.6489333
0
ARC
8
DEFAULT_255_2_778_1
10
21.1303591
20
22.459677
40
4.816461
50
120.9442904
51
122.351755
0
ARC
8
DEFAULT_255_2_778_1
10
20.6837523
20
23.1633039
40
3.9830657
50
122.3407904
51
124.1946752
0
ARC
8
DEFAULT_255_2_778_1
10
20.2438464
20
23.8098306
40
3.2010724
50
124.1855758
51
126.4338849
0
ARC
8
DEFAULT_255_2_778_1
10
19.8579129
20
24.3325611
40
2.5513094
50
126.4326926
51
128.8877368
0
ARC
8
DEFAULT_255_2_778_1
10
19.5230968
20
24.7469658
40
2.0185498
50
128.8749205
51
131.8726567
0
ARC
8
DEFAULT_255_2_778_1
10
19.2259677
20
25.0779854
40
1.5737356
50
131.8616166
51
135.4168838
0
ARC
8
DEFAULT_255_2_778_1
10
18.963168
20
25.3361765
40
1.2053256
50
135.3893975
51
139.9687014
0
ARC
8
DEFAULT_255_2_778_1
10
18.7302889
20
25.5310102
40
0.9016937
50
139.9301659
51
145.9260426
0
ARC
8
DEFAULT_255_2_778_1
10
18.534154
20
25.6630104
40
0.6652776
50
145.8787362
51
153.8146208
0
ARC
8
DEFAULT_255_2_778_1
10
18.3820553
20
25.7373797
40
0.4959714
50
153.770634
51
164.3484794
0
ARC
8
DEFAULT_255_2_778_1
10
18.2807387
20
25.7655786
40
0.3908039
50
164.3220276
51
179.8083066
0
ARC
8
DEFAULT_255_2_778_1
10
18.3017789
20
25.773715
40
0.4118985
50
180.9499449
51
213.8111542
0
ARC
8
DEFAULT_255_2_778_1
10
18.5776828
20
25.9432896
40
0.73561
50
212.8271214
51
224.258472
0
ARC
8
DEFAULT_255_2_778_1
10
18.9605335
20
26.3126236
40
1.267567
50
224.1376218
51
231.4508261
0
ARC
8
DEFAULT_255_2_778_1
10
19.6032195
20
27.1156168
40
2.2960809
50
231.3955893
51
236.1256478
0
ARC
8
DEFAULT_255_2_778_1
10
21.4355223
20
29.8621293
40
5.5976905
50
236.2233172
51
239.1314682
0
ARC
8
DEFAULT_255_2_778_1
10
33.385427
20
49.5898568
40
28.6623793
50
238.8606853
51
239.0711101
0
ARC
8
DEFAULT_255_2_778_1
10
14.2132281
20
17.4927653
40
8.7248518
50
57.2420924
51
59.4062964
0
ARC
8
DEFAULT_255_2_778_1
10
17.4409241
20
22.5237102
40
2.747542
50
52.8289294
51
57.079028
0
ARC
8
DEFAULT_255_2_778_1
10
18.2155783
20
23.5440488
40
1.466457
50
46.3041868
51
52.8596521
0
ARC
8
DEFAULT_255_2_778_1
10
18.6478073
20
23.9941842
40
0.8424061
50
36.2174211
51
46.4090895
0
ARC
8
DEFAULT_255_2_778_1
10
18.9323088
20
24.1990128
40
0.4918609
50
17.400375
51
36.5489745
0
ARC
8
DEFAULT_255_2_778_1
10
19.0463994
20
24.2388754
40
0.3710912
50
0.0676858
51
16.7951297
0
ARC
8
DEFAULT_255_2_778_1
10
19.0253613
20
24.2407428
40
0.3921317
50
343.8035191
51
359.7912046
0
ARC
8
DEFAULT_255_2_778_1
10
18.9190912
20
24.2712167
40
0.5026844
50
333.2506233
51
343.8465691
0
ARC
8
DEFAULT_255_2_778_1
10
18.7652757
20
24.3479313
40
0.6745679
50
325.6600948
51
333.3122657
0
ARC
8
DEFAULT_255_2_778_1
10
18.5698344
20
24.4807296
40
0.9108568
50
319.7560915
51
325.6976089
0
ARC
8
DEFAULT_255_2_778_1
10
18.341699
20
24.6725002
40
1.2088854
50
315.4577584
51
319.8037947
0
ARC
8
DEFAULT_255_2_778_1
10
18.0783127
20
24.9313507
40
1.5781764
50
311.7298824
51
315.4670864
0
ARC
8
DEFAULT_255_2_778_1
10
17.7692879
20
25.2769074
40
2.0417554
50
308.723055
51
311.7470879
0
ARC
8
DEFAULT_255_2_778_1
10
17.415089
20
25.7181492
40
2.6075745
50
306.1165163
51
308.7300151
0
ARC
8
DEFAULT_255_2_778_1
10
17.0121091
20
26.2694523
40
3.2904564
50
303.9559446
51
306.1266333
0
ARC
8
DEFAULT_255_2_778_1
10
16.6005432
20
26.878715
40
4.0257023
50
302.3733397
51
303.9712246
0
ARC
8
DEFAULT_255_2_778_1
10
16.1809347
20
27.5402058
40
4.8090549
50
300.9434827
51
302.3758078
0
LINE
8
DEFAULT_255_2_778
10
18.6536417
20
22.3572581
11
18.6536417
21
5.1593581
0
LINE
8
DEFAULT_255_2_778
10
18.6536417
20
5.1593581
11
19.9765417
21
5.1593581
0
LINE
8
DEFAULT_255_1_388
10
4.8809318
20
60.3508382
11
4.8809318
21
60.2144
0
LINE
8
DEFAULT_255_1_388
10
4.8809318
20
60.2144
11
4.0189313
21
60.2144
0
LINE
8
DEFAULT_255_1_388
10
4.0189313
20
60.2144
11
4.0189313
21
60.3345741
0
LINE
8
DEFAULT_255_1_388
10
4.0189313
20
60.3345741
11
4.4743278
21
60.8405702
0
LINE
8
DEFAULT_255_1_388
10
4.1607909
20
61.1423607
11
3.9936315
21
61.1423607
0
LINE
8
DEFAULT_255_1_388
10
4.5728163
20
60.733046
11
4.2204262
21
60.3508382
0
LINE
8
DEFAULT_255_1_388
10
4.2204262
20
60.3508382
11
4.8809318
21
60.3508382
0
ARC
8
DEFAULT_255_1_388
10
2.9567337
20
62.1825983
40
2.0258655
50
318.5132526
51
320.7829045
0
ARC
8
DEFAULT_255_1_388
10
3.5515294
20
61.6984929
40
1.2589638
50
320.7372878
51
323.9739031
0
ARC
8
DEFAULT_255_1_388
10
3.9924226
20
61.3790554
40
0.7145141
50
323.8962701
51
328.64194
0
ARC
8
DEFAULT_255_1_388
10
4.2226484
20
61.2370545
40
0.4440242
50
328.8294576
51
331.7891185
0
ARC
8
DEFAULT_255_1_388
10
4.3348804
20
61.1791374
40
0.3177517
50
331.4254512
51
352.9365785
0
ARC
8
DEFAULT_255_1_388
10
4.3501804
20
61.175705
40
0.3021496
50
353.2257659
51
0.0166158
0
ARC
8
DEFAULT_255_1_388
10
4.3738564
20
61.1782894
40
0.2784847
50
359.486299
51
15.9343185
0
ARC
8
DEFAULT_255_1_388
10
4.4308831
20
61.1936269
40
0.2194403
50
16.1712913
51
43.5286088
0
ARC
8
DEFAULT_255_1_388
10
4.4395776
20
61.2023191
40
0.2071504
50
43.4417391
51
83.1661095
0
ARC
8
DEFAULT_255_1_388
10
4.4244937
20
61.1194316
40
0.2912888
50
82.160179
51
90.1505708
0
ARC
8
DEFAULT_255_1_388
10
4.4209418
20
61.0590279
40
0.3517025
50
89.5460741
51
102.5418361
0
ARC
8
DEFAULT_255_1_388
10
4.3936138
20
61.1749933
40
0.2325748
50
102.1738499
51
129.206123
0
ARC
8
DEFAULT_255_1_388
10
4.3847592
20
61.1889664
40
0.2161591
50
129.72865
51
135.753947
0
ARC
8
DEFAULT_255_1_388
10
4.3984074
20
61.1780728
40
0.2335433
50
136.1757367
51
166.3673339
0
ARC
8
DEFAULT_255_1_388
10
4.5116762
20
61.1477148
40
0.3507873
50
165.9090694
51
178.8684636
0
ARC
8
DEFAULT_255_1_388
10
4.6092534
20
61.1424263
40
0.4484624
50
178.4391136
51
180.0083808
0
ARC
8
DEFAULT_255_1_388
10
4.4513235
20
61.1468197
40
0.4577138
50
163.2878482
51
180.5581842
0
ARC
8
DEFAULT_255_1_388
10
4.3611276
20
61.1716393
40
0.3641968
50
133.4540601
51
162.947111
0
ARC
8
DEFAULT_255_1_388
10
4.3812158
20
61.1502789
40
0.3935189
50
100.7869829
51
133.4382499
0
ARC
8
DEFAULT_255_1_388
10
4.4203403
20
60.9760399
40
0.5720313
50
89.660664
51
101.3702276
0
ARC
8
DEFAULT_255_1_388
10
4.4278012
20
60.9829263
40
0.5651495
50
78.2172678
51
90.412935
0
ARC
8
DEFAULT_255_1_388
10
4.4677478
20
61.1656511
40
0.378122
50
55.9269121
51
78.4888449
0
ARC
8
DEFAULT_255_1_388
10
4.4898193
20
61.2037187
40
0.3342379
50
47.929771
51
55.4049217
0
ARC
8
DEFAULT_255_1_388
10
4.5012723
20
61.2153618
40
0.3179217
50
4.334829
51
48.0560205
0
ARC
8
DEFAULT_255_1_388
10
4.3780525
20
61.1962487
40
0.442341
50
359.9251713
51
5.5971671
0
ARC
8
DEFAULT_255_1_388
10
4.426268
20
61.2025728
40
0.3941854
50
337.8914027
51
358.9967534
0
ARC
8
DEFAULT_255_1_388
10
4.121025
20
61.3203295
40
0.7213271
50
326.9132501
51
338.3508308
0
ARC
8
DEFAULT_255_1_388
10
3.6726362
20
61.6077105
40
1.2538973
50
319.6471833
51
327.0959558
0
ARC
8
DEFAULT_255_1_388
10
3.241302
20
61.963505
40
1.8129975
50
317.2588228
51
319.9045804
0
LINE
8
DEFAULT_255_1_388
10
5.7637143
20
61.5299898
11
5.7637143
21
60.656243
0
LINE
8
DEFAULT_255_1_388
10
5.7637143
20
60.656243
11
5.9462343
21
60.656243
0
LINE
8
DEFAULT_255_1_388
10
5.9462343
20
60.656243
11
5.9462343
21
60.5198048
0
LINE
8
DEFAULT_255_1_388
10
5.9462343
20
60.5198048
11
5.7637143
21
60.5198048
0
LINE
8
DEFAULT_255_1_388
10
5.7637143
20
60.5198048
11
5.7637143
21
60.2144
0
LINE
8
DEFAULT_255_1_388
10
5.7637143
20
60.2144
11
5.5956513
21
60.2144
0
LINE
8
DEFAULT_255_1_388
10
5.5956513
20
60.2144
11
5.5956513
21
60.5198048
0
LINE
8
DEFAULT_255_1_388
10
5.5956513
20
60.5198048
11
4.996588
21
60.5198048
0
LINE
8
DEFAULT_255_1_388
10
4.996588
20
60.5198048
11
4.996588
21
60.6182933
0
LINE
8
DEFAULT_255_1_388
10
4.996588
20
60.6182933
11
5.5857121
21
61.5299898
0
LINE
8
DEFAULT_255_1_388
10
5.5857121
20
61.5299898
11
5.7637143
21
61.5299898
0
LINE
8
DEFAULT_255_1_388
10
5.5757729
20
61.2652455
11
5.1863366
21
60.656243
0
LINE
8
DEFAULT_255_1_388
10
5.1863366
20
60.656243
11
5.5956513
21
60.656243
0
LINE
8
DEFAULT_255_1_388
10
5.5956513
20
60.656243
11
5.5956513
21
61.301388
0
LINE
8
DEFAULT_255_1_388
10
5.5956513
20
61.301388
11
5.5757729
21
61.2652455
0
LINE
8
DEFAULT_255_1_388
10
6.201943
20
61.5299898
11
6.5760187
21
60.4448089
0
LINE
8
DEFAULT_255_1_388
10
6.5760187
20
60.4448089
11
6.9519015
21
61.5299898
0
LINE
8
DEFAULT_255_1_388
10
6.9519015
20
61.5299898
11
7.14165
21
61.5299898
0
LINE
8
DEFAULT_255_1_388
10
7.14165
20
61.5299898
11
6.6537252
21
60.2144
0
LINE
8
DEFAULT_255_1_388
10
6.6537252
20
60.2144
11
6.5001193
21
60.2144
0
LINE
8
DEFAULT_255_1_388
10
6.5001193
20
60.2144
11
6.013098
21
61.5299898
0
LINE
8
DEFAULT_255_1_388
10
6.013098
20
61.5299898
11
6.201943
21
61.5299898
0
LINE
8
DEFAULT_255_1_388
10
5.058691
20
53.5924898
11
5.058691
21
52.2769
0
LINE
8
DEFAULT_255_1_388
10
5.058691
20
52.2769
11
4.8843031
21
52.2769
0
LINE
8
DEFAULT_255_1_388
10
4.8843031
20
52.2769
11
4.2219903
21
53.2906993
0
LINE
8
DEFAULT_255_1_388
10
4.2219903
20
53.2906993
11
4.2219903
21
52.2769
0
LINE
8
DEFAULT_255_1_388
10
4.2219903
20
52.2769
11
4.0476024
21
52.2769
0
LINE
8
DEFAULT_255_1_388
10
4.0476024
20
52.2769
11
4.0476024
21
53.5924898
0
LINE
8
DEFAULT_255_1_388
10
4.0476024
20
53.5924898
11
4.2219903
21
53.5924898
0
LINE
8
DEFAULT_255_1_388
10
4.2219903
20
53.5924898
11
4.8861102
21
52.5741727
0
LINE
8
DEFAULT_255_1_388
10
4.8861102
20
52.5741727
11
4.8861102
21
53.5924898
0
LINE
8
DEFAULT_255_1_388
10
4.8861102
20
53.5924898
11
5.058691
21
53.5924898
0
LINE
8
DEFAULT_255_1_388
10
6.1601361
20
52.6943468
11
6.334524
21
52.6943468
0
LINE
8
DEFAULT_255_1_388
10
5.3216283
20
52.8732525
11
5.3216283
21
52.9997516
0
LINE
8
DEFAULT_255_1_388
10
6.334524
20
53.1696217
11
6.1601361
21
53.1696217
0
LINE
8
DEFAULT_255_1_388
10
5.4960162
20
52.9952337
11
5.4960162
21
52.8678312
0
ARC
8
DEFAULT_255_1_388
10
5.7179474
20
52.7615329
40
0.6202263
50
340.1774904
51
353.7812217
0
ARC
8
DEFAULT_255_1_388
10
5.8947327
20
52.6956893
40
0.4315926
50
311.4560052
51
340.4420756
0
ARC
8
DEFAULT_255_1_388
10
5.8909867
20
52.7081665
40
0.4434573
50
282.4332229
51
310.7514507
0
ARC
8
DEFAULT_255_1_388
10
5.8415685
20
52.9123703
40
0.6535262
50
269.9358869
51
282.8096729
0
ARC
8
DEFAULT_255_1_388
10
5.8357624
20
53.0636329
40
0.8048043
50
269.9995752
51
270.3612856
0
ARC
8
DEFAULT_255_1_388
10
5.8298114
20
52.7837781
40
0.5249831
50
250.7885263
51
270.6488451
0
ARC
8
DEFAULT_255_1_388
10
5.8108939
20
52.7120853
40
0.4510942
50
219.3628377
51
250.0611024
0
ARC
8
DEFAULT_255_1_388
10
5.9041813
20
52.7913653
40
0.5735046
50
193.5480293
51
219.5755675
0
ARC
8
DEFAULT_255_1_388
10
6.1710022
20
52.860652
40
0.849146
50
181.1220183
51
193.8754971
0
ARC
8
DEFAULT_255_1_388
10
6.4033255
20
52.8730914
40
1.0816971
50
179.9914644
51
181.5398227
0
ARC
8
DEFAULT_255_1_388
10
6.1956566
20
53.0039586
40
0.8740384
50
169.5837606
51
180.275782
0
ARC
8
DEFAULT_255_1_388
10
5.9889914
20
53.0421439
40
0.6638751
50
155.0367033
51
169.6002779
0
ARC
8
DEFAULT_255_1_388
10
5.8612372
20
53.1037336
40
0.5220662
50
136.7831557
51
155.2472983
0
ARC
8
DEFAULT_255_1_388
10
5.8174163
20
53.1409577
40
0.4646502
50
121.7633063
51
136.4281161
0
ARC
8
DEFAULT_255_1_388
10
5.8326003
20
53.1129049
40
0.4964979
50
95.6460018
51
121.5489589
0
ARC
8
DEFAULT_255_1_388
10
5.8502977
20
52.9881704
40
0.6223912
50
89.9245727
51
96.1375919
0
ARC
8
DEFAULT_255_1_388
10
5.8559682
20
53.0015721
40
0.6090084
50
76.6779212
51
90.456405
0
ARC
8
DEFAULT_255_1_388
10
5.9002495
20
53.180506
40
0.42469
50
47.4858803
51
76.9287069
0
ARC
8
DEFAULT_255_1_388
10
5.8837109
20
53.1692623
40
0.4441778
50
16.5424081
51
46.8934505
0
ARC
8
DEFAULT_255_1_388
10
5.7028159
20
53.1098265
40
0.6345318
50
5.4072971
51
17.0363711
0
ARC
8
DEFAULT_255_1_388
10
5.5409884
20
53.0838304
40
0.6250632
50
7.8888693
51
15.9242022
0
ARC
8
DEFAULT_255_1_388
10
5.7644869
20
53.1487309
40
0.3923364
50
15.7650676
51
27.9410069
0
ARC
8
DEFAULT_255_1_388
10
5.8887038
20
53.2152317
40
0.2514401
50
27.8167196
51
46.4007942
0
ARC
8
DEFAULT_255_1_388
10
5.894288
20
53.2145882
40
0.2480958
50
47.4372362
51
75.0695672
0
ARC
8
DEFAULT_255_1_388
10
5.8595716
20
53.0937277
40
0.3738281
50
74.7009379
51
87.8124314
0
ARC
8
DEFAULT_255_1_388
10
5.8513333
20
52.9753659
40
0.4924321
50
87.3802571
51
90.0251599
0
ARC
8
DEFAULT_255_1_388
10
5.846998
20
53.1073997
40
0.3604218
50
89.3451886
51
108.5744412
0
ARC
8
DEFAULT_255_1_388
10
5.8315972
20
53.1651836
40
0.3007661
50
109.2998307
51
143.3037387
0
ARC
8
DEFAULT_255_1_388
10
5.9173262
20
53.0992584
40
0.4089031
50
143.075267
51
163.1918576
0
ARC
8
DEFAULT_255_1_388
10
6.1369096
20
53.0299652
40
0.6391492
50
162.9375929
51
174.6208776
0
ARC
8
DEFAULT_255_1_388
10
6.4323478
20
52.9975711
40
0.9363344
50
174.342123
51
180.1430283
0
ARC
8
DEFAULT_255_1_388
10
6.3276019
20
52.8632117
40
0.8315986
50
179.6817261
51
189.150555
0
ARC
8
DEFAULT_255_1_388
10
6.0462768
20
52.8163559
40
0.5464044
50
188.9911061
51
203.5772363
0
ARC
8
DEFAULT_255_1_388
10
5.924806
20
52.7659539
40
0.4149206
50
203.9075402
51
215.1312435
0
ARC
8
DEFAULT_255_1_388
10
5.8209858
20
52.6854907
40
0.2837747
50
213.9071511
51
263.8848919
0
ARC
8
DEFAULT_255_1_388
10
5.8350851
20
52.7737519
40
0.3730641
50
263.1757928
51
270.1031044
0
ARC
8
DEFAULT_255_1_388
10
5.8386931
20
52.9140511
40
0.5133712
50
269.6722503
51
279.0606936
0
ARC
8
DEFAULT_255_1_388
10
5.8687086
20
52.732615
40
0.3294739
50
278.8749101
51
293.6349581
0
ARC
8
DEFAULT_255_1_388
10
5.904729
20
52.6480251
40
0.2375405
50
293.8553806
51
310.0518171
0
ARC
8
DEFAULT_255_1_388
10
5.9052799
20
52.6410021
40
0.2318463
50
311.0644687
51
332.0111037
0
ARC
8
DEFAULT_255_1_388
10
5.7711472
20
52.7149702
40
0.3850112
50
331.6586806
51
343.2877423
0
ARC
8
DEFAULT_255_1_388
10
5.5390937
20
52.7862806
40
0.6277712
50
343.1446576
51
351.0103568
0
ARC
8
DEFAULT_255_1_388
10
5.3758261
20
52.8162873
40
0.7937327
50
350.71248
51
351.1626997
0
LINE
8
DEFAULT_255_1_388
10
23.1190856
20
60.992369
11
23.1190856
21
60.7755135
0
LINE
8
DEFAULT_255_1_388
10
22.2887099
20
60.7529244
11
22.2887099
21
60.9761048
0
LINE
8
DEFAULT_255_1_388
10
22.9519262
20
60.7303353
11
22.9519262
21
61.0041153
0
LINE
8
DEFAULT_255_1_388
10
22.4558693
20
61.0167652
11
22.4558693
21
60.7493102
0
ARC
8
DEFAULT_255_1_388
10
21.741319
20
60.7700118
40
1.3777776
50
353.8440855
51
0.2287917
0
ARC
8
DEFAULT_255_1_388
10
22.2632208
20
60.7117414
40
0.852639
50
344.4934746
51
353.9763743
0
ARC
8
DEFAULT_255_1_388
10
22.5999015
20
60.6160191
40
0.5026273
50
329.2803599
51
344.7473406
0
ARC
8
DEFAULT_255_1_388
10
22.7114511
20
60.5548038
40
0.3754848
50
324.9361395
51
328.6153007
0
ARC
8
DEFAULT_255_1_388
10
22.7540161
20
60.5250586
40
0.3235566
50
280.5801797
51
324.9173226
0
ARC
8
DEFAULT_255_1_388
10
22.7088789
20
60.7130236
40
0.5167077
50
269.5979457
51
281.6732777
0
ARC
8
DEFAULT_255_1_388
10
22.7007693
20
60.6995113
40
0.5032026
50
256.6228565
51
270.5105488
0
ARC
8
DEFAULT_255_1_388
10
22.6555435
20
60.5253345
40
0.3233092
50
215.8618351
51
257.2787793
0
ARC
8
DEFAULT_255_1_388
10
22.7704142
20
60.6024106
40
0.4615831
50
197.9695203
51
215.2622745
0
ARC
8
DEFAULT_255_1_388
10
23.0499818
20
60.6967641
40
0.7566307
50
187.8816486
51
198.2346584
0
ARC
8
DEFAULT_255_1_388
10
23.4953056
20
60.7610453
40
1.2065653
50
180.8977266
51
188.0054894
0
ARC
8
DEFAULT_255_1_388
10
23.800327
20
60.77254
40
1.5117443
50
180.7434591
51
181.152202
0
ARC
8
DEFAULT_255_1_388
10
23.6328266
20
60.9815371
40
1.3441277
50
173.7674302
51
180.2315596
0
ARC
8
DEFAULT_255_1_388
10
23.1246135
20
61.0389779
40
0.8326847
50
164.3058537
51
173.9000553
0
ARC
8
DEFAULT_255_1_388
10
22.7970135
20
61.1333652
40
0.4917711
50
148.7922028
51
164.5682288
0
ARC
8
DEFAULT_255_1_388
10
22.6900872
20
61.1930457
40
0.3694204
50
144.5883979
51
148.1161588
0
ARC
8
DEFAULT_255_1_388
10
22.6513618
20
61.2200667
40
0.322202
50
101.6440149
51
144.5142619
0
ARC
8
DEFAULT_255_1_388
10
22.699181
20
61.0300337
40
0.5180451
50
89.528284
51
102.5820197
0
ARC
8
DEFAULT_255_1_388
10
22.7080802
20
61.0256376
40
0.5224441
50
77.0437914
51
90.508231
0
ARC
8
DEFAULT_255_1_388
10
22.7533055
20
61.2104272
40
0.3322297
50
48.2777708
51
77.4996087
0
ARC
8
DEFAULT_255_1_388
10
22.7614795
20
61.2249557
40
0.315966
50
36.3141586
51
47.6307332
0
ARC
8
DEFAULT_255_1_388
10
22.6637518
20
61.1591159
40
0.4337313
50
18.2931065
51
35.6770203
0
ARC
8
DEFAULT_255_1_388
10
22.3776358
20
61.0609107
40
0.7362203
50
8.0246996
51
18.5605636
0
ARC
8
DEFAULT_255_1_388
10
21.9092714
20
60.9917432
40
1.2096583
50
1.127539
51
8.1718423
0
ARC
8
DEFAULT_255_1_388
10
21.5443847
20
60.9774374
40
1.5747719
50
0.5432713
51
1.38669
0
ARC
8
DEFAULT_255_1_388
10
21.7501226
20
61.0081163
40
1.2018103
50
359.8092569
51
4.9408001
0
ARC
8
DEFAULT_255_1_388
10
22.2237807
20
61.05039
40
0.7262727
50
4.8364937
51
12.2906017
0
ARC
8
DEFAULT_255_1_388
10
22.5337272
20
61.1194485
40
0.4087324
50
12.0806994
51
23.8171225
0
ARC
8
DEFAULT_255_1_388
10
22.6657668
20
61.1753508
40
0.2653719
50
24.2874621
51
31.3934353
0
ARC
8
DEFAULT_255_1_388
10
22.7248104
20
61.2139822
40
0.1948607
50
30.7407708
51
82.4658033
0
ARC
8
DEFAULT_255_1_388
10
22.7045765
20
61.1146017
40
0.2961198
50
81.1057101
51
90.2187368
0
ARC
8
DEFAULT_255_1_388
10
22.7005577
20
61.1436421
40
0.2670929
50
89.380395
51
105.6763916
0
ARC
8
DEFAULT_255_1_388
10
22.6799299
20
61.218632
40
0.1893189
50
105.7980655
51
149.7387869
0
ARC
8
DEFAULT_255_1_388
10
22.7996439
20
61.1466719
40
0.3289892
50
149.4208441
51
163.628295
0
ARC
8
DEFAULT_255_1_388
10
23.0348668
20
61.0749345
40
0.5749004
50
163.3764549
51
172.141138
0
ARC
8
DEFAULT_255_1_388
10
23.406139
20
61.0217582
40
0.9499585
50
172.0258462
51
178.0705453
0
ARC
8
DEFAULT_255_1_388
10
23.7482943
20
61.0055682
40
1.2924734
50
177.8639301
51
179.5036263
0
ARC
8
DEFAULT_255_1_388
10
23.6263961
20
60.7452151
40
1.170534
50
179.7995545
51
185.246089
0
ARC
8
DEFAULT_255_1_388
10
23.1715554
20
60.7021404
40
0.7136613
50
185.1411911
51
193.0082205
0
ARC
8
DEFAULT_255_1_388
10
22.8741815
20
60.6318441
40
0.4080987
50
192.7897338
51
205.2507384
0
ARC
8
DEFAULT_255_1_388
10
22.7564025
20
60.5792538
40
0.2791522
50
205.8001921
51
211.2545876
0
ARC
8
DEFAULT_255_1_388
10
22.6975564
20
60.5398132
40
0.2084074
50
210.3789935
51
238.4007996
0
ARC
8
DEFAULT_255_1_388
10
22.695365
20
60.5450786
40
0.2117943
50
239.6521916
51
265.9793852
0
ARC
8
DEFAULT_255_1_388
10
22.7049499
20
60.6207358
40
0.2879689
50
265.1324455
51
270.0603288
0
ARC
8
DEFAULT_255_1_388
10
22.7081876
20
60.5842418
40
0.2514919
50
269.3314378
51
287.2180039
0
ARC
8
DEFAULT_255_1_388
10
22.7236958
20
60.5276291
40
0.1928357
50
287.7957942
51
329.0808983
0
ARC
8
DEFAULT_255_1_388
10
22.6159715
20
60.5948651
40
0.319808
50
328.6635261
51
343.3325043
0
ARC
8
DEFAULT_255_1_388
10
22.3715174
20
60.6710195
40
0.5758408
50
343.0498092
51
351.9392499
0
ARC
8
DEFAULT_255_1_388
10
21.9814496
20
60.7285205
40
0.9701202
50
351.8071632
51
357.7957897
0
ARC
8
DEFAULT_255_1_388
10
21.6179973
20
60.7473724
40
1.3340376
50
357.5870923
51
359.2682493
0
LINE
8
DEFAULT_255_1_388
10
23.4380439
20
61.5299898
11
23.8121196
21
60.4448089
0
LINE
8
DEFAULT_255_1_388
10
23.8121196
20
60.4448089
11
24.1880024
21
61.5299898
0
LINE
8
DEFAULT_255_1_388
10
24.1880024
20
61.5299898
11
24.3777509
21
61.5299898
0
LINE
8
DEFAULT_255_1_388
10
24.3777509
20
61.5299898
11
23.8898261
21
60.2144
0
LINE
8
DEFAULT_255_1_388
10
23.8898261
20
60.2144
11
23.7362202
21
60.2144
0
LINE
8
DEFAULT_255_1_388
10
23.7362202
20
60.2144
11
23.2491989
21
61.5299898
0
LINE
8
DEFAULT_255_1_388
10
23.2491989
20
61.5299898
11
23.4380439
21
61.5299898
0
LINE
8
DEFAULT_255_1_388
10
21.7468367
20
5.9674898
11
21.7468367
21
4.6519
0
LINE
8
DEFAULT_255_1_388
10
21.7468367
20
4.6519
11
21.5733523
21
4.6519
0
LINE
8
DEFAULT_255_1_388
10
21.5733523
20
4.6519
11
21.5733523
21
5.9674898
0
LINE
8
DEFAULT_255_1_388
10
21.5733523
20
5.9674898
11
21.7468367
21
5.9674898
0
LINE
8
DEFAULT_255_1_388
10
23.07598
20
5.3503553
11
23.07598
21
5.2672274
0
LINE
8
DEFAULT_255_1_388
10
22.017906
20
5.2554811
11
22.017906
21
5.3503553
0
LINE
8
DEFAULT_255_1_388
10
22.9033992
20
5.2545775
11
22.9033992
21
5.3521625
0
LINE
8
DEFAULT_255_1_388
10
22.1904868
20
5.3639088
11
22.1904868
21
5.2672274
0
ARC
8
DEFAULT_255_1_388
10
22.1037538
20
5.2627726
40
0.9722364
50
350.4878118
51
0.2625322
0
ARC
8
DEFAULT_255_1_388
10
22.3617498
20
5.2183994
40
0.7104556
50
336.0277991
51
350.5787241
0
ARC
8
DEFAULT_255_1_388
10
22.5130605
20
5.1500243
40
0.544417
50
319.887443
51
336.1331163
0
ARC
8
DEFAULT_255_1_388
10
22.5808417
20
5.0957733
40
0.4576311
50
302.4806296
51
319.6144102
0
ARC
8
DEFAULT_255_1_388
10
22.5679038
20
5.1207067
40
0.4856183
50
275.8196423
51
302.1885521
0
ARC
8
DEFAULT_255_1_388
10
22.54919
20
5.2492466
40
0.6154183
50
269.9169897
51
276.339506
0
ARC
8
DEFAULT_255_1_388
10
22.54415
20
5.172068
40
0.5382553
50
252.5221437
51
270.441579
0
ARC
8
DEFAULT_255_1_388
10
22.5279751
20
5.1114046
40
0.4755426
50
237.5349961
51
252.1858334
0
ARC
8
DEFAULT_255_1_388
10
22.5380127
20
5.124212
40
0.4917393
50
209.0632754
51
237.3492577
0
ARC
8
DEFAULT_255_1_388
10
22.6359453
20
5.1857104
40
0.6072464
50
205.118533
51
209.6465345
0
ARC
8
DEFAULT_255_1_388
10
22.7255455
20
5.2237174
40
0.7045164
50
188.7216633
51
204.8239753
0
ARC
8
DEFAULT_255_1_388
10
22.950223
20
5.2615387
40
0.9323368
50
180.3722704
51
188.9253909
0
ARC
8
DEFAULT_255_1_388
10
22.9471792
20
5.3548416
40
0.929284
50
169.5253055
51
180.2766048
0
ARC
8
DEFAULT_255_1_388
10
22.7331591
20
5.3942024
40
0.7116745
50
155.8314601
51
169.5088611
0
ARC
8
DEFAULT_255_1_388
10
22.5891054
20
5.4610312
40
0.5528904
50
139.6259579
51
156.0379072
0
ARC
8
DEFAULT_255_1_388
10
22.5227588
20
5.5144143
40
0.4677708
50
122.6414784
51
139.3431662
0
ARC
8
DEFAULT_255_1_388
10
22.5340842
20
5.4937787
40
0.4912586
50
93.0224537
51
122.4556091
0
ARC
8
DEFAULT_255_1_388
10
22.5462363
20
5.3851776
40
0.6003837
50
89.9756766
51
93.6340839
0
ARC
8
DEFAULT_255_1_388
10
22.5505961
20
5.4300879
40
0.5554884
50
73.7463329
51
90.4234008
0
ARC
8
DEFAULT_255_1_388
10
22.5703434
20
5.5065772
40
0.4765353
50
57.663051
51
73.4516911
0
ARC
8
DEFAULT_255_1_388
10
22.5694472
20
5.5090108
40
0.4749629
50
29.1441355
51
57.4146687
0
ARC
8
DEFAULT_255_1_388
10
22.4642283
20
5.4433046
40
0.5988917
50
24.0985653
51
29.732054
0
ARC
8
DEFAULT_255_1_388
10
22.3479915
20
5.3951154
40
0.7246823
50
8.6654943
51
23.8241215
0
ARC
8
DEFAULT_255_1_388
10
22.0966333
20
5.3541037
40
0.9793537
50
359.7807044
51
8.8218476
0
ARC
8
DEFAULT_255_1_388
10
21.9676038
20
5.3569731
40
0.9358078
50
359.7054632
51
8.0359751
0
ARC
8
DEFAULT_255_1_388
10
22.3051089
20
5.4061252
40
0.5947474
50
7.8926278
51
20.2962188
0
ARC
8
DEFAULT_255_1_388
10
22.4881939
20
5.4736367
40
0.3996117
50
20.3231056
51
36.4990255
0
ARC
8
DEFAULT_255_1_388
10
22.5653237
20
5.5330399
40
0.3022818
50
36.1436715
51
85.6627846
0
ARC
8
DEFAULT_255_1_388
10
22.5470492
20
5.4160881
40
0.4203853
50
84.3845912
51
90.076054
0
ARC
8
DEFAULT_255_1_388
10
22.5422847
20
5.4903416
40
0.346157
50
89.3037228
51
109.9046209
0
ARC
8
DEFAULT_255_1_388
10
22.531868
20
5.5333379
40
0.3022217
50
110.8229774
51
143.917961
0
ARC
8
DEFAULT_255_1_388
10
22.6369039
20
5.4531455
40
0.434348
50
143.5289166
51
163.2980252
0
ARC
8
DEFAULT_255_1_388
10
22.8515326
20
5.3856685
40
0.659321
50
163.0418884
51
174.3139873
0
ARC
8
DEFAULT_255_1_388
10
23.1220291
20
5.3544378
40
0.9315905
50
174.050934
51
179.4174954
0
ARC
8
DEFAULT_255_1_388
10
23.0652235
20
5.2625382
40
0.8747493
50
179.6928582
51
188.7908948
0
ARC
8
DEFAULT_255_1_388
10
22.7656035
20
5.2146086
40
0.5713262
50
188.6328449
51
202.5630732
0
ARC
8
DEFAULT_255_1_388
10
22.6244872
20
5.1579142
40
0.4192612
50
202.8078931
51
216.1195888
0
ARC
8
DEFAULT_255_1_388
10
22.5334389
20
5.0846479
40
0.3025752
50
215.0755613
51
264.6379773
0
ARC
8
DEFAULT_255_1_388
10
22.5477226
20
5.1781376
40
0.3970284
50
263.8464302
51
270.0830805
0
ARC
8
DEFAULT_255_1_388
10
22.5523771
20
5.1490808
40
0.3679937
50
269.3649295
51
287.5149684
0
ARC
8
DEFAULT_255_1_388
10
22.5724212
20
5.0762714
40
0.2925408
50
288.0629019
51
323.8115617
0
ARC
8
DEFAULT_255_1_388
10
22.4744188
20
5.1493754
40
0.4148018
50
323.6546541
51
342.6591359
0
ARC
8
DEFAULT_255_1_388
10
22.2458846
20
5.223728
40
0.6551163
50
342.4092446
51
353.6451501
0
ARC
8
DEFAULT_255_1_388
10
21.9273639
20
5.2633565
40
0.9760748
50
353.4027553
51
359.4846611
0
LINE
8
DEFAULT_255_1_388
10
24.3075383
20
5.3069842
11
24.3075383
21
4.8244808
0
LINE
8
DEFAULT_255_1_388
10
23.293739
20
5.2464454
11
23.293739
21
5.3611981
0
LINE
8
DEFAULT_255_1_388
10
24.3075383
20
5.5816678
11
24.134054
21
5.5816678
0
LINE
8
DEFAULT_255_1_388
10
23.468127
20
5.3657159
11
23.468127
21
5.2581917
0
LINE
8
DEFAULT_255_1_388
10
24.1349575
20
4.8705626
11
24.1349575
21
5.1660282
0
LINE
8
DEFAULT_255_1_388
10
24.1349575
20
5.1660282
11
23.8304563
21
5.1660282
0
LINE
8
DEFAULT_255_1_388
10
23.8304563
20
5.1660282
11
23.8304563
21
5.3069842
0
LINE
8
DEFAULT_255_1_388
10
23.8304563
20
5.3069842
11
24.3075383
21
5.3069842
0
ARC
8
DEFAULT_255_1_388
10
23.9889984
20
5.0487284
40
0.3895571
50
295.8437277
51
324.8549962
0
ARC
8
DEFAULT_255_1_388
10
23.9422366
20
5.1333619
40
0.4861381
50
291.5691164
51
296.4556269
0
ARC
8
DEFAULT_255_1_388
10
23.8847369
20
5.2869801
40
0.6501442
50
278.6622213
51
291.3047061
0
ARC
8
DEFAULT_255_1_388
10
23.8465401
20
5.5286557
40
0.8948168
50
270.0200506
51
278.7494673
0
ARC
8
DEFAULT_255_1_388
10
23.8421605
20
5.7132453
40
1.0794166
50
270.0022372
51
270.2490917
0
ARC
8
DEFAULT_255_1_388
10
23.8379497
20
5.2173827
40
0.5835695
50
253.5785313
51
270.4175629
0
ARC
8
DEFAULT_255_1_388
10
23.8184493
20
5.1418625
40
0.5056241
50
238.8203954
51
253.2788387
0
ARC
8
DEFAULT_255_1_388
10
23.8162409
20
5.1361224
40
0.4995712
50
206.7883476
51
238.696262
0
ARC
8
DEFAULT_255_1_388
10
23.9037805
20
5.1885847
40
0.6014056
50
206.1137778
51
207.4912776
0
ARC
8
DEFAULT_255_1_388
10
23.9704641
20
5.2169284
40
0.6737692
50
188.6922336
51
205.782076
0
ARC
8
DEFAULT_255_1_388
10
24.1793
20
5.2524455
40
0.8855812
50
180.3881972
51
188.9218085
0
ARC
8
DEFAULT_255_1_388
10
24.3174157
20
5.3675622
40
1.0236965
50
170.2024645
51
180.3561986
0
ARC
8
DEFAULT_255_1_388
10
23.9615307
20
5.4312101
40
0.6621746
50
154.2856519
51
170.3893388
0
ARC
8
DEFAULT_255_1_388
10
23.8173271
20
5.4972192
40
0.5036209
50
139.8400879
51
153.9334639
0
ARC
8
DEFAULT_255_1_388
10
23.7769175
20
5.5295716
40
0.4518751
50
98.4190017
51
139.6707015
0
ARC
8
DEFAULT_255_1_388
10
23.8196142
20
5.3219755
40
0.6635912
50
89.7660128
51
99.4415389
0
ARC
8
DEFAULT_255_1_388
10
23.8269539
20
5.3293517
40
0.6562258
50
78.0552044
51
90.4042252
0
ARC
8
DEFAULT_255_1_388
10
23.8724602
20
5.5339661
40
0.4466287
50
54.6380186
51
78.3338577
0
ARC
8
DEFAULT_255_1_388
10
23.8938901
20
5.5700444
40
0.4048184
50
50.0313964
51
54.1562739
0
ARC
8
DEFAULT_255_1_388
10
23.8817794
20
5.5591798
40
0.4209308
50
18.1092229
51
49.7179911
0
ARC
8
DEFAULT_255_1_388
10
23.7178875
20
5.4991399
40
0.5953982
50
7.967396
51
18.698492
0
ARC
8
DEFAULT_255_1_388
10
23.7348136
20
5.5130236
40
0.4050986
50
9.7558763
51
27.3214087
0
ARC
8
DEFAULT_255_1_388
10
23.86166
20
5.5764087
40
0.2633168
50
27.736147
51
84.5257861
0
ARC
8
DEFAULT_255_1_388
10
23.824801
20
5.3914988
40
0.4513019
50
82.1064239
51
90.1997295
0
ARC
8
DEFAULT_255_1_388
10
23.8192026
20
5.4486501
40
0.3941684
50
89.4148952
51
105.5824837
0
ARC
8
DEFAULT_255_1_388
10
23.7902907
20
5.5539043
40
0.2850167
50
105.6678541
51
144.2649156
0
ARC
8
DEFAULT_255_1_388
10
23.8907799
20
5.4824024
40
0.4083468
50
144.3560675
51
162.8564185
0
ARC
8
DEFAULT_255_1_388
10
24.1252242
20
5.4071083
40
0.6545749
50
162.6076338
51
173.6779811
0
ARC
8
DEFAULT_255_1_388
10
24.4696357
20
5.3652422
40
1.0015089
50
173.4670996
51
179.9729015
0
ARC
8
DEFAULT_255_1_388
10
24.2549228
20
5.2534636
40
0.78681
50
179.6556955
51
190.007958
0
ARC
8
DEFAULT_255_1_388
10
23.9943509
20
5.205666
40
0.5218997
50
189.8117884
51
206.6795375
0
ARC
8
DEFAULT_255_1_388
10
23.8992955
20
5.1613514
40
0.4170788
50
207.1031171
51
217.7074698
0
ARC
8
DEFAULT_255_1_388
10
23.8279386
20
5.0992596
40
0.3226945
50
216.7345117
51
265.6812141
0
ARC
8
DEFAULT_255_1_388
10
23.8426528
20
5.201003
40
0.4253149
50
264.7367524
51
270.0610826
0
ARC
8
DEFAULT_255_1_388
10
23.8452713
20
5.5205173
40
0.7448321
50
269.8334494
51
276.0538364
0
ARC
8
DEFAULT_255_1_388
10
23.8685576
20
5.3065924
40
0.5296446
50
275.9894423
51
284.4615914
0
ARC
8
DEFAULT_255_1_388
10
23.8907089
20
5.213357
40
0.4338353
50
284.7038488
51
286.4938196
0
ARC
8
DEFAULT_255_1_388
10
23.9366238
20
5.0654371
40
0.2789738
50
286.0770429
51
304.2629628
0
ARC
8
DEFAULT_255_1_388
10
23.9516396
20
5.040868
40
0.2502188
50
304.5886247
51
317.1074126
0
LINE
8
DEFAULT_255_1_388
10
21.7468367
20
13.9049898
11
21.7468367
21
12.5894
0
LINE
8
DEFAULT_255_1_388
10
21.7468367
20
12.5894
11
21.5733523
21
12.5894
0
LINE
8
DEFAULT_255_1_388
10
21.5733523
20
12.5894
11
21.5733523
21
13.9049898
0
LINE
8
DEFAULT_255_1_388
10
21.5733523
20
13.9049898
11
21.7468367
21
13.9049898
0
LINE
8
DEFAULT_255_1_388
10
23.07598
20
13.2878553
11
23.07598
21
13.2047274
0
LINE
8
DEFAULT_255_1_388
10
22.017906
20
13.1929811
11
22.017906
21
13.2878553
0
LINE
8
DEFAULT_255_1_388
10
22.9033992
20
13.1920775
11
22.9033992
21
13.2896625
0
LINE
8
DEFAULT_255_1_388
10
22.1904868
20
13.3014088
11
22.1904868
21
13.2047274
0
ARC
8
DEFAULT_255_1_388
10
22.1037538
20
13.2002726
40
0.9722364
50
350.4878118
51
0.2625322
0
ARC
8
DEFAULT_255_1_388
10
22.3617498
20
13.1558994
40
0.7104556
50
336.0277991
51
350.5787241
0
ARC
8
DEFAULT_255_1_388
10
22.5130605
20
13.0875243
40
0.544417
50
319.887443
51
336.1331163
0
ARC
8
DEFAULT_255_1_388
10
22.5808417
20
13.0332733
40
0.4576311
50
302.4806296
51
319.6144102
0
ARC
8
DEFAULT_255_1_388
10
22.5679038
20
13.0582067
40
0.4856183
50
275.8196423
51
302.1885521
0
ARC
8
DEFAULT_255_1_388
10
22.54919
20
13.1867466
40
0.6154183
50
269.9169897
51
276.339506
0
ARC
8
DEFAULT_255_1_388
10
22.54415
20
13.109568
40
0.5382553
50
252.5221437
51
270.441579
0
ARC
8
DEFAULT_255_1_388
10
22.5279751
20
13.0489046
40
0.4755426
50
237.5349961
51
252.1858334
0
ARC
8
DEFAULT_255_1_388
10
22.5380127
20
13.061712
40
0.4917393
50
209.0632754
51
237.3492577
0
ARC
8
DEFAULT_255_1_388
10
22.6359453
20
13.1232104
40
0.6072464
50
205.118533
51
209.6465345
0
ARC
8
DEFAULT_255_1_388
10
22.7255455
20
13.1612174
40
0.7045164
50
188.7216633
51
204.8239753
0
ARC
8
DEFAULT_255_1_388
10
22.950223
20
13.1990387
40
0.9323368
50
180.3722704
51
188.9253909
0
ARC
8
DEFAULT_255_1_388
10
22.9471792
20
13.2923416
40
0.929284
50
169.5253055
51
180.2766048
0
ARC
8
DEFAULT_255_1_388
10
22.7331591
20
13.3317024
40
0.7116745
50
155.8314601
51
169.5088611
0
ARC
8
DEFAULT_255_1_388
10
22.5891054
20
13.3985312
40
0.5528904
50
139.6259579
51
156.0379072
0
ARC
8
DEFAULT_255_1_388
10
22.5227588
20
13.4519143
40
0.4677708
50
122.6414784
51
139.3431662
0
ARC
8
DEFAULT_255_1_388
10
22.5340842
20
13.4312787
40
0.4912586
50
93.0224537
51
122.4556091
0
ARC
8
DEFAULT_255_1_388
10
22.5462363
20
13.3226776
40
0.6003837
50
89.9756766
51
93.6340839
0
ARC
8
DEFAULT_255_1_388
10
22.5505961
20
13.3675879
40
0.5554884
50
73.7463329
51
90.4234008
0
ARC
8
DEFAULT_255_1_388
10
22.5703434
20
13.4440772
40
0.4765353
50
57.663051
51
73.4516911
0
ARC
8
DEFAULT_255_1_388
10
22.5694472
20
13.4465108
40
0.4749629
50
29.1441355
51
57.4146687
0
ARC
8
DEFAULT_255_1_388
10
22.4642283
20
13.3808046
40
0.5988917
50
24.0985653
51
29.732054
0
ARC
8
DEFAULT_255_1_388
10
22.3479915
20
13.3326154
40
0.7246823
50
8.6654943
51
23.8241215
0
ARC
8
DEFAULT_255_1_388
10
22.0966333
20
13.2916037
40
0.9793537
50
359.7807044
51
8.8218476
0
ARC
8
DEFAULT_255_1_388
10
21.9676038
20
13.2944731
40
0.9358078
50
359.7054632
51
8.0359751
0
ARC
8
DEFAULT_255_1_388
10
22.3051089
20
13.3436252
40
0.5947474
50
7.8926278
51
20.2962188
0
ARC
8
DEFAULT_255_1_388
10
22.4881939
20
13.4111367
40
0.3996117
50
20.3231056
51
36.4990255
0
ARC
8
DEFAULT_255_1_388
10
22.5653237
20
13.4705399
40
0.3022818
50
36.1436715
51
85.6627846
0
ARC
8
DEFAULT_255_1_388
10
22.5470492
20
13.3535881
40
0.4203853
50
84.3845912
51
90.076054
0
ARC
8
DEFAULT_255_1_388
10
22.5422847
20
13.4278416
40
0.346157
50
89.3037228
51
109.9046209
0
ARC
8
DEFAULT_255_1_388
10
22.531868
20
13.4708379
40
0.3022217
50
110.8229774
51
143.917961
0
ARC
8
DEFAULT_255_1_388
10
22.6369039
20
13.3906455
40
0.434348
50
143.5289166
51
163.2980252
0
ARC
8
DEFAULT_255_1_388
10
22.8515326
20
13.3231685
40
0.659321
50
163.0418884
51
174.3139873
0
ARC
8
DEFAULT_255_1_388
10
23.1220291
20
13.2919378
40
0.9315905
50
174.050934
51
179.4174954
0
ARC
8
DEFAULT_255_1_388
10
23.0652235
20
13.2000382
40
0.8747493
50
179.6928582
51
188.7908948
0
ARC
8
DEFAULT_255_1_388
10
22.7656035
20
13.1521086
40
0.5713262
50
188.6328449
51
202.5630732
0
ARC
8
DEFAULT_255_1_388
10
22.6244872
20
13.0954142
40
0.4192612
50
202.8078931
51
216.1195888
0
ARC
8
DEFAULT_255_1_388
10
22.5334389
20
13.0221479
40
0.3025752
50
215.0755613
51
264.6379773
0
ARC
8
DEFAULT_255_1_388
10
22.5477226
20
13.1156376
40
0.3970284
50
263.8464302
51
270.0830805
0
ARC
8
DEFAULT_255_1_388
10
22.5523771
20
13.0865808
40
0.3679937
50
269.3649295
51
287.5149684
0
ARC
8
DEFAULT_255_1_388
10
22.5724212
20
13.0137714
40
0.2925408
50
288.0629019
51
323.8115617
0
ARC
8
DEFAULT_255_1_388
10
22.4744188
20
13.0868754
40
0.4148018
50
323.6546541
51
342.6591359
0
ARC
8
DEFAULT_255_1_388
10
22.2458846
20
13.161228
40
0.6551163
50
342.4092446
51
353.6451501
0
ARC
8
DEFAULT_255_1_388
10
21.9273639
20
13.2008565
40
0.9760748
50
353.4027553
51
359.4846611
0
LINE
8
DEFAULT_255_1_388
10
24.3075383
20
13.2444842
11
24.3075383
21
12.7619808
0
LINE
8
DEFAULT_255_1_388
10
23.293739
20
13.1839454
11
23.293739
21
13.2986981
0
LINE
8
DEFAULT_255_1_388
10
24.3075383
20
13.5191678
11
24.134054
21
13.5191678
0
LINE
8
DEFAULT_255_1_388
10
23.468127
20
13.3032159
11
23.468127
21
13.1956917
0
LINE
8
DEFAULT_255_1_388
10
24.1349575
20
12.8080626
11
24.1349575
21
13.1035282
0
LINE
8
DEFAULT_255_1_388
10
24.1349575
20
13.1035282
11
23.8304563
21
13.1035282
0
LINE
8
DEFAULT_255_1_388
10
23.8304563
20
13.1035282
11
23.8304563
21
13.2444842
0
LINE
8
DEFAULT_255_1_388
10
23.8304563
20
13.2444842
11
24.3075383
21
13.2444842
0
ARC
8
DEFAULT_255_1_388
10
23.9889984
20
12.9862284
40
0.3895571
50
295.8437277
51
324.8549962
0
ARC
8
DEFAULT_255_1_388
10
23.9422366
20
13.0708619
40
0.4861381
50
291.5691164
51
296.4556269
0
ARC
8
DEFAULT_255_1_388
10
23.8847369
20
13.2244801
40
0.6501442
50
278.6622213
51
291.3047061
0
ARC
8
DEFAULT_255_1_388
10
23.8465401
20
13.4661557
40
0.8948168
50
270.0200506
51
278.7494673
0
ARC
8
DEFAULT_255_1_388
10
23.8421605
20
13.6507453
40
1.0794166
50
270.0022372
51
270.2490917
0
ARC
8
DEFAULT_255_1_388
10
23.8379497
20
13.1548827
40
0.5835695
50
253.5785313
51
270.4175629
0
ARC
8
DEFAULT_255_1_388
10
23.8184493
20
13.0793625
40
0.5056241
50
238.8203954
51
253.2788387
0
ARC
8
DEFAULT_255_1_388
10
23.8162409
20
13.0736224
40
0.4995712
50
206.7883476
51
238.696262
0
ARC
8
DEFAULT_255_1_388
10
23.9037805
20
13.1260847
40
0.6014056
50
206.1137778
51
207.4912776
0
ARC
8
DEFAULT_255_1_388
10
23.9704641
20
13.1544284
40
0.6737692
50
188.6922336
51
205.782076
0
ARC
8
DEFAULT_255_1_388
10
24.1793
20
13.1899455
40
0.8855812
50
180.3881972
51
188.9218085
0
ARC
8
DEFAULT_255_1_388
10
24.3174157
20
13.3050622
40
1.0236965
50
170.2024645
51
180.3561986
0
ARC
8
DEFAULT_255_1_388
10
23.9615307
20
13.3687101
40
0.6621746
50
154.2856519
51
170.3893388
0
ARC
8
DEFAULT_255_1_388
10
23.8173271
20
13.4347192
40
0.5036209
50
139.8400879
51
153.9334639
0
ARC
8
DEFAULT_255_1_388
10
23.7769175
20
13.4670716
40
0.4518751
50
98.4190017
51
139.6707015
0
ARC
8
DEFAULT_255_1_388
10
23.8196142
20
13.2594755
40
0.6635912
50
89.7660128
51
99.4415389
0
ARC
8
DEFAULT_255_1_388
10
23.8269539
20
13.2668517
40
0.6562258
50
78.0552044
51
90.4042252
0
ARC
8
DEFAULT_255_1_388
10
23.8724602
20
13.4714661
40
0.4466287
50
54.6380186
51
78.3338577
0
ARC
8
DEFAULT_255_1_388
10
23.8938901
20
13.5075444
40
0.4048184
50
50.0313964
51
54.1562739
0
ARC
8
DEFAULT_255_1_388
10
23.8817794
20
13.4966798
40
0.4209308
50
18.1092229
51
49.7179911
0
ARC
8
DEFAULT_255_1_388
10
23.7178875
20
13.4366399
40
0.5953982
50
7.967396
51
18.698492
0
ARC
8
DEFAULT_255_1_388
10
23.7348136
20
13.4505236
40
0.4050986
50
9.7558763
51
27.3214087
0
ARC
8
DEFAULT_255_1_388
10
23.86166
20
13.5139087
40
0.2633168
50
27.736147
51
84.5257861
0
ARC
8
DEFAULT_255_1_388
10
23.824801
20
13.3289988
40
0.4513019
50
82.1064239
51
90.1997295
0
ARC
8
DEFAULT_255_1_388
10
23.8192026
20
13.3861501
40
0.3941684
50
89.4148952
51
105.5824837
0
ARC
8
DEFAULT_255_1_388
10
23.7902907
20
13.4914043
40
0.2850167
50
105.6678541
51
144.2649156
0
ARC
8
DEFAULT_255_1_388
10
23.8907799
20
13.4199024
40
0.4083468
50
144.3560675
51
162.8564185
0
ARC
8
DEFAULT_255_1_388
10
24.1252242
20
13.3446083
40
0.6545749
50
162.6076338
51
173.6779811
0
ARC
8
DEFAULT_255_1_388
10
24.4696357
20
13.3027422
40
1.0015089
50
173.4670996
51
179.9729015
0
ARC
8
DEFAULT_255_1_388
10
24.2549228
20
13.1909636
40
0.78681
50
179.6556955
51
190.007958
0
ARC
8
DEFAULT_255_1_388
10
23.9943509
20
13.143166
40
0.5218997
50
189.8117884
51
206.6795375
0
ARC
8
DEFAULT_255_1_388
10
23.8992955
20
13.0988514
40
0.4170788
50
207.1031171
51
217.7074698
0
ARC
8
DEFAULT_255_1_388
10
23.8279386
20
13.0367596
40
0.3226945
50
216.7345117
51
265.6812141
0
ARC
8
DEFAULT_255_1_388
10
23.8426528
20
13.138503
40
0.4253149
50
264.7367524
51
270.0610826
0
ARC
8
DEFAULT_255_1_388
10
23.8452713
20
13.4580173
40
0.7448321
50
269.8334494
51
276.0538364
0
ARC
8
DEFAULT_255_1_388
10
23.8685576
20
13.2440924
40
0.5296446
50
275.9894423
51
284.4615914
0
ARC
8
DEFAULT_255_1_388
10
23.8907089
20
13.150857
40
0.4338353
50
284.7038488
51
286.4938196
0
ARC
8
DEFAULT_255_1_388
10
23.9366238
20
13.0029371
40
0.2789738
50
286.0770429
51
304.2629628
0
ARC
8
DEFAULT_255_1_388
10
23.9516396
20
12.978368
40
0.2502188
50
304.5886247
51
317.1074126
0
LINE
8
DEFAULT_255_1_388
10
21.8067367
20
21.8424898
11
21.8067367
21
20.5269
0
LINE
8
DEFAULT_255_1_388
10
21.8067367
20
20.5269
11
21.6332523
21
20.5269
0
LINE
8
DEFAULT_255_1_388
10
21.6332523
20
20.5269
11
21.6332523
21
21.8424898
0
LINE
8
DEFAULT_255_1_388
10
21.6332523
20
21.8424898
11
21.8067367
21
21.8424898
0
LINE
8
DEFAULT_255_1_388
10
23.13588
20
21.2253553
11
23.13588
21
21.1422274
0
LINE
8
DEFAULT_255_1_388
10
22.077806
20
21.1304811
11
22.077806
21
21.2253553
0
LINE
8
DEFAULT_255_1_388
10
22.9632992
20
21.1295775
11
22.9632992
21
21.2271625
0
LINE
8
DEFAULT_255_1_388
10
22.2503868
20
21.2389088
11
22.2503868
21
21.1422274
0
ARC
8
DEFAULT_255_1_388
10
22.1636538
20
21.1377726
40
0.9722364
50
350.4878118
51
0.2625322
0
ARC
8
DEFAULT_255_1_388
10
22.4216498
20
21.0933994
40
0.7104556
50
336.0277991
51
350.5787241
0
ARC
8
DEFAULT_255_1_388
10
22.5729605
20
21.0250243
40
0.544417
50
319.887443
51
336.1331163
0
ARC
8
DEFAULT_255_1_388
10
22.6407417
20
20.9707733
40
0.4576311
50
302.4806296
51
319.6144102
0
ARC
8
DEFAULT_255_1_388
10
22.6278038
20
20.9957067
40
0.4856183
50
275.8196423
51
302.1885521
0
ARC
8
DEFAULT_255_1_388
10
22.60909
20
21.1242466
40
0.6154183
50
269.9169897
51
276.339506
0
ARC
8
DEFAULT_255_1_388
10
22.60405
20
21.047068
40
0.5382553
50
252.5221437
51
270.441579
0
ARC
8
DEFAULT_255_1_388
10
22.5878751
20
20.9864046
40
0.4755426
50
237.5349961
51
252.1858334
0
ARC
8
DEFAULT_255_1_388
10
22.5979127
20
20.999212
40
0.4917393
50
209.0632754
51
237.3492577
0
ARC
8
DEFAULT_255_1_388
10
22.6958453
20
21.0607104
40
0.6072464
50
205.118533
51
209.6465345
0
ARC
8
DEFAULT_255_1_388
10
22.7854455
20
21.0987174
40
0.7045164
50
188.7216633
51
204.8239753
0
ARC
8
DEFAULT_255_1_388
10
23.010123
20
21.1365387
40
0.9323368
50
180.3722704
51
188.9253909
0
ARC
8
DEFAULT_255_1_388
10
23.0070792
20
21.2298416
40
0.929284
50
169.5253055
51
180.2766048
0
ARC
8
DEFAULT_255_1_388
10
22.7930591
20
21.2692024
40
0.7116745
50
155.8314601
51
169.5088611
0
ARC
8
DEFAULT_255_1_388
10
22.6490054
20
21.3360312
40
0.5528904
50
139.6259579
51
156.0379072
0
ARC
8
DEFAULT_255_1_388
10
22.5826588
20
21.3894143
40
0.4677708
50
122.6414784
51
139.3431662
0
ARC
8
DEFAULT_255_1_388
10
22.5939842
20
21.3687787
40
0.4912586
50
93.0224537
51
122.4556091
0
ARC
8
DEFAULT_255_1_388
10
22.6061363
20
21.2601776
40
0.6003837
50
89.9756766
51
93.6340839
0
ARC
8
DEFAULT_255_1_388
10
22.6104961
20
21.3050879
40
0.5554884
50
73.7463329
51
90.4234008
0
ARC
8
DEFAULT_255_1_388
10
22.6302434
20
21.3815772
40
0.4765353
50
57.663051
51
73.4516911
0
ARC
8
DEFAULT_255_1_388
10
22.6293472
20
21.3840108
40
0.4749629
50
29.1441355
51
57.4146687
0
ARC
8
DEFAULT_255_1_388
10
22.5241283
20
21.3183046
40
0.5988917
50
24.0985653
51
29.732054
0
ARC
8
DEFAULT_255_1_388
10
22.4078915
20
21.2701154
40
0.7246823
50
8.6654943
51
23.8241215
0
ARC
8
DEFAULT_255_1_388
10
22.1565333
20
21.2291037
40
0.9793537
50
359.7807044
51
8.8218476
0
ARC
8
DEFAULT_255_1_388
10
22.0275038
20
21.2319731
40
0.9358078
50
359.7054632
51
8.0359751
0
ARC
8
DEFAULT_255_1_388
10
22.3650089
20
21.2811252
40
0.5947474
50
7.8926278
51
20.2962188
0
ARC
8
DEFAULT_255_1_388
10
22.5480939
20
21.3486367
40
0.3996117
50
20.3231056
51
36.4990255
0
ARC
8
DEFAULT_255_1_388
10
22.6252237
20
21.4080399
40
0.3022818
50
36.1436715
51
85.6627846
0
ARC
8
DEFAULT_255_1_388
10
22.6069492
20
21.2910881
40
0.4203853
50
84.3845912
51
90.076054
0
ARC
8
DEFAULT_255_1_388
10
22.6021847
20
21.3653416
40
0.346157
50
89.3037228
51
109.9046209
0
ARC
8
DEFAULT_255_1_388
10
22.591768
20
21.4083379
40
0.3022217
50
110.8229774
51
143.917961
0
ARC
8
DEFAULT_255_1_388
10
22.6968039
20
21.3281455
40
0.434348
50
143.5289166
51
163.2980252
0
ARC
8
DEFAULT_255_1_388
10
22.9114326
20
21.2606685
40
0.659321
50
163.0418884
51
174.3139873
0
ARC
8
DEFAULT_255_1_388
10
23.1819291
20
21.2294378
40
0.9315905
50
174.050934
51
179.4174954
0
ARC
8
DEFAULT_255_1_388
10
23.1251235
20
21.1375382
40
0.8747493
50
179.6928582
51
188.7908948
0
ARC
8
DEFAULT_255_1_388
10
22.8255035
20
21.0896086
40
0.5713262
50
188.6328449
51
202.5630732
0
ARC
8
DEFAULT_255_1_388
10
22.6843872
20
21.0329142
40
0.4192612
50
202.8078931
51
216.1195888
0
ARC
8
DEFAULT_255_1_388
10
22.5933389
20
20.9596479
40
0.3025752
50
215.0755613
51
264.6379773
0
ARC
8
DEFAULT_255_1_388
10
22.6076226
20
21.0531376
40
0.3970284
50
263.8464302
51
270.0830805
0
ARC
8
DEFAULT_255_1_388
10
22.6122771
20
21.0240808
40
0.3679937
50
269.3649295
51
287.5149684
0
ARC
8
DEFAULT_255_1_388
10
22.6323212
20
20.9512714
40
0.2925408
50
288.0629019
51
323.8115617
0
ARC
8
DEFAULT_255_1_388
10
22.5343188
20
21.0243754
40
0.4148018
50
323.6546541
51
342.6591359
0
ARC
8
DEFAULT_255_1_388
10
22.3057846
20
21.098728
40
0.6551163
50
342.4092446
51
353.6451501
0
ARC
8
DEFAULT_255_1_388
10
21.9872639
20
21.1383565
40
0.9760748
50
353.4027553
51
359.4846611
0
LINE
8
DEFAULT_255_1_388
10
23.4376705
20
21.8424898
11
23.8117462
21
20.7573089
0
LINE
8
DEFAULT_255_1_388
10
23.8117462
20
20.7573089
11
24.187629
21
21.8424898
0
LINE
8
DEFAULT_255_1_388
10
24.187629
20
21.8424898
11
24.3773775
21
21.8424898
0
LINE
8
DEFAULT_255_1_388
10
24.3773775
20
21.8424898
11
23.8894527
21
20.5269
0
LINE
8
DEFAULT_255_1_388
10
23.8894527
20
20.5269
11
23.7358468
21
20.5269
0
LINE
8
DEFAULT_255_1_388
10
23.7358468
20
20.5269
11
23.2488255
21
21.8424898
0
LINE
8
DEFAULT_255_1_388
10
23.2488255
20
21.8424898
11
23.4376705
21
21.8424898
0
LINE
8
DEFAULT_255_1_388
10
21.8067367
20
29.7799898
11
21.8067367
21
28.4644
0
LINE
8
DEFAULT_255_1_388
10
21.8067367
20
28.4644
11
21.6332523
21
28.4644
0
LINE
8
DEFAULT_255_1_388
10
21.6332523
20
28.4644
11
21.6332523
21
29.7799898
0
LINE
8
DEFAULT_255_1_388
10
21.6332523
20
29.7799898
11
21.8067367
21
29.7799898
0
LINE
8
DEFAULT_255_1_388
10
23.13588
20
29.1628553
11
23.13588
21
29.0797274
0
LINE
8
DEFAULT_255_1_388
10
22.077806
20
29.0679811
11
22.077806
21
29.1628553
0
LINE
8
DEFAULT_255_1_388
10
22.9632992
20
29.0670775
11
22.9632992
21
29.1646625
0
LINE
8
DEFAULT_255_1_388
10
22.2503868
20
29.1764088
11
22.2503868
21
29.0797274
0
ARC
8
DEFAULT_255_1_388
10
22.1636538
20
29.0752726
40
0.9722364
50
350.4878118
51
0.2625322
0
ARC
8
DEFAULT_255_1_388
10
22.4216498
20
29.0308994
40
0.7104556
50
336.0277991
51
350.5787241
0
ARC
8
DEFAULT_255_1_388
10
22.5729605
20
28.9625243
40
0.544417
50
319.887443
51
336.1331163
0
ARC
8
DEFAULT_255_1_388
10
22.6407417
20
28.9082733
40
0.4576311
50
302.4806296
51
319.6144102
0
ARC
8
DEFAULT_255_1_388
10
22.6278038
20
28.9332067
40
0.4856183
50
275.8196423
51
302.1885521
0
ARC
8
DEFAULT_255_1_388
10
22.60909
20
29.0617466
40
0.6154183
50
269.9169897
51
276.339506
0
ARC
8
DEFAULT_255_1_388
10
22.60405
20
28.984568
40
0.5382553
50
252.5221437
51
270.441579
0
ARC
8
DEFAULT_255_1_388
10
22.5878751
20
28.9239046
40
0.4755426
50
237.5349961
51
252.1858334
0
ARC
8
DEFAULT_255_1_388
10
22.5979127
20
28.936712
40
0.4917393
50
209.0632754
51
237.3492577
0
ARC
8
DEFAULT_255_1_388
10
22.6958453
20
28.9982104
40
0.6072464
50
205.118533
51
209.6465345
0
ARC
8
DEFAULT_255_1_388
10
22.7854455
20
29.0362174
40
0.7045164
50
188.7216633
51
204.8239753
0
ARC
8
DEFAULT_255_1_388
10
23.010123
20
29.0740387
40
0.9323368
50
180.3722704
51
188.9253909
0
ARC
8
DEFAULT_255_1_388
10
23.0070792
20
29.1673416
40
0.929284
50
169.5253055
51
180.2766048
0
ARC
8
DEFAULT_255_1_388
10
22.7930591
20
29.2067024
40
0.7116745
50
155.8314601
51
169.5088611
0
ARC
8
DEFAULT_255_1_388
10
22.6490054
20
29.2735312
40
0.5528904
50
139.6259579
51
156.0379072
0
ARC
8
DEFAULT_255_1_388
10
22.5826588
20
29.3269143
40
0.4677708
50
122.6414784
51
139.3431662
0
ARC
8
DEFAULT_255_1_388
10
22.5939842
20
29.3062787
40
0.4912586
50
93.0224537
51
122.4556091
0
ARC
8
DEFAULT_255_1_388
10
22.6061363
20
29.1976776
40
0.6003837
50
89.9756766
51
93.6340839
0
ARC
8
DEFAULT_255_1_388
10
22.6104961
20
29.2425879
40
0.5554884
50
73.7463329
51
90.4234008
0
ARC
8
DEFAULT_255_1_388
10
22.6302434
20
29.3190772
40
0.4765353
50
57.663051
51
73.4516911
0
ARC
8
DEFAULT_255_1_388
10
22.6293472
20
29.3215108
40
0.4749629
50
29.1441355
51
57.4146687
0
ARC
8
DEFAULT_255_1_388
10
22.5241283
20
29.2558046
40
0.5988917
50
24.0985653
51
29.732054
0
ARC
8
DEFAULT_255_1_388
10
22.4078915
20
29.2076154
40
0.7246823
50
8.6654943
51
23.8241215
0
ARC
8
DEFAULT_255_1_388
10
22.1565333
20
29.1666037
40
0.9793537
50
359.7807044
51
8.8218476
0
ARC
8
DEFAULT_255_1_388
10
22.0275038
20
29.1694731
40
0.9358078
50
359.7054632
51
8.0359751
0
ARC
8
DEFAULT_255_1_388
10
22.3650089
20
29.2186252
40
0.5947474
50
7.8926278
51
20.2962188
0
ARC
8
DEFAULT_255_1_388
10
22.5480939
20
29.2861367
40
0.3996117
50
20.3231056
51
36.4990255
0
ARC
8
DEFAULT_255_1_388
10
22.6252237
20
29.3455399
40
0.3022818
50
36.1436715
51
85.6627846
0
ARC
8
DEFAULT_255_1_388
10
22.6069492
20
29.2285881
40
0.4203853
50
84.3845912
51
90.076054
0
ARC
8
DEFAULT_255_1_388
10
22.6021847
20
29.3028416
40
0.346157
50
89.3037228
51
109.9046209
0
ARC
8
DEFAULT_255_1_388
10
22.591768
20
29.3458379
40
0.3022217
50
110.8229774
51
143.917961
0
ARC
8
DEFAULT_255_1_388
10
22.6968039
20
29.2656455
40
0.434348
50
143.5289166
51
163.2980252
0
ARC
8
DEFAULT_255_1_388
10
22.9114326
20
29.1981685
40
0.659321
50
163.0418884
51
174.3139873
0
ARC
8
DEFAULT_255_1_388
10
23.1819291
20
29.1669378
40
0.9315905
50
174.050934
51
179.4174954
0
ARC
8
DEFAULT_255_1_388
10
23.1251235
20
29.0750382
40
0.8747493
50
179.6928582
51
188.7908948
0
ARC
8
DEFAULT_255_1_388
10
22.8255035
20
29.0271086
40
0.5713262
50
188.6328449
51
202.5630732
0
ARC
8
DEFAULT_255_1_388
10
22.6843872
20
28.9704142
40
0.4192612
50
202.8078931
51
216.1195888
0
ARC
8
DEFAULT_255_1_388
10
22.5933389
20
28.8971479
40
0.3025752
50
215.0755613
51
264.6379773
0
ARC
8
DEFAULT_255_1_388
10
22.6076226
20
28.9906376
40
0.3970284
50
263.8464302
51
270.0830805
0
ARC
8
DEFAULT_255_1_388
10
22.6122771
20
28.9615808
40
0.3679937
50
269.3649295
51
287.5149684
0
ARC
8
DEFAULT_255_1_388
10
22.6323212
20
28.8887714
40
0.2925408
50
288.0629019
51
323.8115617
0
ARC
8
DEFAULT_255_1_388
10
22.5343188
20
28.9618754
40
0.4148018
50
323.6546541
51
342.6591359
0
ARC
8
DEFAULT_255_1_388
10
22.3057846
20
29.036228
40
0.6551163
50
342.4092446
51
353.6451501
0
ARC
8
DEFAULT_255_1_388
10
21.9872639
20
29.0758565
40
0.9760748
50
353.4027553
51
359.4846611
0
LINE
8
DEFAULT_255_1_388
10
23.4376705
20
29.7799898
11
23.8117462
21
28.6948089
0
LINE
8
DEFAULT_255_1_388
10
23.8117462
20
28.6948089
11
24.187629
21
29.7799898
0
LINE
8
DEFAULT_255_1_388
10
24.187629
20
29.7799898
11
24.3773775
21
29.7799898
0
LINE
8
DEFAULT_255_1_388
10
24.3773775
20
29.7799898
11
23.8894527
21
28.4644
0
LINE
8
DEFAULT_255_1_388
10
23.8894527
20
28.4644
11
23.7358468
21
28.4644
0
LINE
8
DEFAULT_255_1_388
10
23.7358468
20
28.4644
11
23.2488255
21
29.7799898
0
LINE
8
DEFAULT_255_1_388
10
23.2488255
20
29.7799898
11
23.4376705
21
29.7799898
0
LINE
8
DEFAULT_255_1_388
10
20.7827448
20
37.7174898
11
21.1568205
21
36.6323089
0
LINE
8
DEFAULT_255_1_388
10
21.1568205
20
36.6323089
11
21.5327033
21
37.7174898
0
LINE
8
DEFAULT_255_1_388
10
21.5327033
20
37.7174898
11
21.7224518
21
37.7174898
0
LINE
8
DEFAULT_255_1_388
10
21.7224518
20
37.7174898
11
21.234527
21
36.4019
0
LINE
8
DEFAULT_255_1_388
10
21.234527
20
36.4019
11
21.080921
21
36.4019
0
LINE
8
DEFAULT_255_1_388
10
21.080921
20
36.4019
11
20.5938998
21
37.7174898
0
LINE
8
DEFAULT_255_1_388
10
20.5938998
20
37.7174898
11
20.7827448
21
37.7174898
0
LINE
8
DEFAULT_255_1_388
10
22.0847812
20
37.7174898
11
22.0847812
21
36.4019
0
LINE
8
DEFAULT_255_1_388
10
22.0847812
20
36.4019
11
21.9112968
21
36.4019
0
LINE
8
DEFAULT_255_1_388
10
21.9112968
20
36.4019
11
21.9112968
21
37.7174898
0
LINE
8
DEFAULT_255_1_388
10
21.9112968
20
37.7174898
11
22.0847812
21
37.7174898
0
LINE
8
DEFAULT_255_1_388
10
23.2205617
20
36.5383382
11
23.2205617
21
36.4019
0
LINE
8
DEFAULT_255_1_388
10
23.2205617
20
36.4019
11
22.3585612
21
36.4019
0
LINE
8
DEFAULT_255_1_388
10
22.3585612
20
36.4019
11
22.3585612
21
36.5220741
0
LINE
8
DEFAULT_255_1_388
10
22.3585612
20
36.5220741
11
22.8139577
21
37.0280702
0
LINE
8
DEFAULT_255_1_388
10
22.5004208
20
37.3298607
11
22.3332614
21
37.3298607
0
LINE
8
DEFAULT_255_1_388
10
22.9124462
20
36.920546
11
22.5600561
21
36.5383382
0
LINE
8
DEFAULT_255_1_388
10
22.5600561
20
36.5383382
11
23.2205617
21
36.5383382
0
ARC
8
DEFAULT_255_1_388
10
21.2963636
20
38.3700983
40
2.0258655
50
318.5132526
51
320.7829045
0
ARC
8
DEFAULT_255_1_388
10
21.8911593
20
37.8859929
40
1.2589638
50
320.7372878
51
323.9739031
0
ARC
8
DEFAULT_255_1_388
10
22.3320525
20
37.5665554
40
0.7145141
50
323.8962701
51
328.64194
0
ARC
8
DEFAULT_255_1_388
10
22.5622782
20
37.4245545
40
0.4440242
50
328.8294576
51
331.7891185
0
ARC
8
DEFAULT_255_1_388
10
22.6745103
20
37.3666374
40
0.3177517
50
331.4254512
51
352.9365785
0
ARC
8
DEFAULT_255_1_388
10
22.6898102
20
37.363205
40
0.3021496
50
353.2257659
51
0.0166158
0
ARC
8
DEFAULT_255_1_388
10
22.7134863
20
37.3657894
40
0.2784847
50
359.486299
51
15.9343185
0
ARC
8
DEFAULT_255_1_388
10
22.770513
20
37.3811269
40
0.2194403
50
16.1712913
51
43.5286088
0
ARC
8
DEFAULT_255_1_388
10
22.7792074
20
37.3898191
40
0.2071504
50
43.4417391
51
83.1661095
0
ARC
8
DEFAULT_255_1_388
10
22.7641235
20
37.3069316
40
0.2912888
50
82.160179
51
90.1505708
0
ARC
8
DEFAULT_255_1_388
10
22.7605717
20
37.2465279
40
0.3517025
50
89.5460741
51
102.5418361
0
ARC
8
DEFAULT_255_1_388
10
22.7332437
20
37.3624933
40
0.2325748
50
102.1738499
51
129.206123
0
ARC
8
DEFAULT_255_1_388
10
22.724389
20
37.3764664
40
0.2161591
50
129.72865
51
135.753947
0
ARC
8
DEFAULT_255_1_388
10
22.7380373
20
37.3655728
40
0.2335433
50
136.1757367
51
166.3673339
0
ARC
8
DEFAULT_255_1_388
10
22.8513061
20
37.3352148
40
0.3507873
50
165.9090694
51
178.8684636
0
ARC
8
DEFAULT_255_1_388
10
22.9488833
20
37.3299263
40
0.4484624
50
178.4391136
51
180.0083808
0
ARC
8
DEFAULT_255_1_388
10
22.7909534
20
37.3343197
40
0.4577138
50
163.2878482
51
180.5581842
0
ARC
8
DEFAULT_255_1_388
10
22.7007575
20
37.3591393
40
0.3641968
50
133.4540601
51
162.947111
0
ARC
8
DEFAULT_255_1_388
10
22.7208457
20
37.3377789
40
0.3935189
50
100.7869829
51
133.4382499
0
ARC
8
DEFAULT_255_1_388
10
22.7599702
20
37.1635399
40
0.5720313
50
89.660664
51
101.3702276
0
ARC
8
DEFAULT_255_1_388
10
22.7674311
20
37.1704263
40
0.5651495
50
78.2172678
51
90.412935
0
ARC
8
DEFAULT_255_1_388
10
22.8073777
20
37.3531511
40
0.378122
50
55.9269121
51
78.4888449
0
ARC
8
DEFAULT_255_1_388
10
22.8294492
20
37.3912187
40
0.3342379
50
47.929771
51
55.4049217
0
ARC
8
DEFAULT_255_1_388
10
22.8409022
20
37.4028618
40
0.3179217
50
4.334829
51
48.0560205
0
ARC
8
DEFAULT_255_1_388
10
22.7176824
20
37.3837487
40
0.442341
50
359.9251713
51
5.5971671
0
ARC
8
DEFAULT_255_1_388
10
22.7658979
20
37.3900728
40
0.3941854
50
337.8914027
51
358.9967534
0
ARC
8
DEFAULT_255_1_388
10
22.4606549
20
37.5078295
40
0.7213271
50
326.9132501
51
338.3508308
0
ARC
8
DEFAULT_255_1_388
10
22.0122661
20
37.7952105
40
1.2538973
50
319.6471833
51
327.0959558
0
ARC
8
DEFAULT_255_1_388
10
21.5809319
20
38.151005
40
1.8129975
50
317.2588228
51
319.9045804
0
LINE
8
DEFAULT_255_1_388
10
23.8937172
20
37.4915987
11
23.8937172
21
37.1075838
0
LINE
8
DEFAULT_255_1_388
10
23.8937172
20
37.1075838
11
24.2605644
21
37.1075838
0
LINE
8
DEFAULT_255_1_388
10
24.2605644
20
37.1075838
11
24.2605644
21
36.9494601
0
LINE
8
DEFAULT_255_1_388
10
24.2605644
20
36.9494601
11
23.8937172
21
36.9494601
0
LINE
8
DEFAULT_255_1_388
10
23.8937172
20
36.9494601
11
23.8937172
21
36.5338204
0
LINE
8
DEFAULT_255_1_388
10
23.8937172
20
36.5338204
11
23.7256542
21
36.5338204
0
LINE
8
DEFAULT_255_1_388
10
23.7256542
20
36.5338204
11
23.7256542
21
36.9494601
0
LINE
8
DEFAULT_255_1_388
10
23.7256542
20
36.9494601
11
23.358807
21
36.9494601
0
LINE
8
DEFAULT_255_1_388
10
23.358807
20
36.9494601
11
23.358807
21
37.1075838
0
LINE
8
DEFAULT_255_1_388
10
23.358807
20
37.1075838
11
23.7256542
21
37.1075838
0
LINE
8
DEFAULT_255_1_388
10
23.7256542
20
37.1075838
11
23.7256542
21
37.4915987
0
LINE
8
DEFAULT_255_1_388
10
23.7256542
20
37.4915987
11
23.8937172
21
37.4915987
0
LINE
8
DEFAULT_255_1_388
10
20.7827448
20
45.6549898
11
21.1568205
21
44.5698089
0
LINE
8
DEFAULT_255_1_388
10
21.1568205
20
44.5698089
11
21.5327033
21
45.6549898
0
LINE
8
DEFAULT_255_1_388
10
21.5327033
20
45.6549898
11
21.7224518
21
45.6549898
0
LINE
8
DEFAULT_255_1_388
10
21.7224518
20
45.6549898
11
21.234527
21
44.3394
0
LINE
8
DEFAULT_255_1_388
10
21.234527
20
44.3394
11
21.080921
21
44.3394
0
LINE
8
DEFAULT_255_1_388
10
21.080921
20
44.3394
11
20.5938998
21
45.6549898
0
LINE
8
DEFAULT_255_1_388
10
20.5938998
20
45.6549898
11
20.7827448
21
45.6549898
0
LINE
8
DEFAULT_255_1_388
10
22.0847812
20
45.6549898
11
22.0847812
21
44.3394
0
LINE
8
DEFAULT_255_1_388
10
22.0847812
20
44.3394
11
21.9112968
21
44.3394
0
LINE
8
DEFAULT_255_1_388
10
21.9112968
20
44.3394
11
21.9112968
21
45.6549898
0
LINE
8
DEFAULT_255_1_388
10
21.9112968
20
45.6549898
11
22.0847812
21
45.6549898
0
LINE
8
DEFAULT_255_1_388
10
22.9079284
20
45.6613148
11
22.9079284
21
44.3394
0
LINE
8
DEFAULT_255_1_388
10
22.9079284
20
44.3394
11
22.7398654
21
44.3394
0
LINE
8
DEFAULT_255_1_388
10
22.7398654
20
44.3394
11
22.7398654
21
45.453495
0
LINE
8
DEFAULT_255_1_388
10
22.7398654
20
45.453495
11
22.4028358
21
45.3297066
0
LINE
8
DEFAULT_255_1_388
10
22.4028358
20
45.3297066
11
22.4028358
21
45.4815055
0
LINE
8
DEFAULT_255_1_388
10
22.4028358
20
45.4815055
11
22.881725
21
45.6613148
0
LINE
8
DEFAULT_255_1_388
10
22.881725
20
45.6613148
11
22.9079284
21
45.6613148
0
LINE
8
DEFAULT_255_1_388
10
23.8937172
20
45.4290987
11
23.8937172
21
45.0450838
0
LINE
8
DEFAULT_255_1_388
10
23.8937172
20
45.0450838
11
24.2605644
21
45.0450838
0
LINE
8
DEFAULT_255_1_388
10
24.2605644
20
45.0450838
11
24.2605644
21
44.8869601
0
LINE
8
DEFAULT_255_1_388
10
24.2605644
20
44.8869601
11
23.8937172
21
44.8869601
0
LINE
8
DEFAULT_255_1_388
10
23.8937172
20
44.8869601
11
23.8937172
21
44.4713204
0
LINE
8
DEFAULT_255_1_388
10
23.8937172
20
44.4713204
11
23.7256542
21
44.4713204
0
LINE
8
DEFAULT_255_1_388
10
23.7256542
20
44.4713204
11
23.7256542
21
44.8869601
0
LINE
8
DEFAULT_255_1_388
10
23.7256542
20
44.8869601
11
23.358807
21
44.8869601
0
LINE
8
DEFAULT_255_1_388
10
23.358807
20
44.8869601
11
23.358807
21
45.0450838
0
LINE
8
DEFAULT_255_1_388
10
23.358807
20
45.0450838
11
23.7256542
21
45.0450838
0
LINE
8
DEFAULT_255_1_388
10
23.7256542
20
45.0450838
11
23.7256542
21
45.4290987
0
LINE
8
DEFAULT_255_1_388
10
23.7256542
20
45.4290987
11
23.8937172
21
45.4290987
0
LINE
8
DEFAULT_255_1_388
10
23.055091
20
53.5924898
11
23.055091
21
52.2769
0
LINE
8
DEFAULT_255_1_388
10
23.055091
20
52.2769
11
22.8807031
21
52.2769
0
LINE
8
DEFAULT_255_1_388
10
22.8807031
20
52.2769
11
22.2183903
21
53.2906993
0
LINE
8
DEFAULT_255_1_388
10
22.2183903
20
53.2906993
11
22.2183903
21
52.2769
0
LINE
8
DEFAULT_255_1_388
10
22.2183903
20
52.2769
11
22.0440024
21
52.2769
0
LINE
8
DEFAULT_255_1_388
10
22.0440024
20
52.2769
11
22.0440024
21
53.5924898
0
LINE
8
DEFAULT_255_1_388
10
22.0440024
20
53.5924898
11
22.2183903
21
53.5924898
0
LINE
8
DEFAULT_255_1_388
10
22.2183903
20
53.5924898
11
22.8825102
21
52.5741727
0
LINE
8
DEFAULT_255_1_388
10
22.8825102
20
52.5741727
11
22.8825102
21
53.5924898
0
LINE
8
DEFAULT_255_1_388
10
22.8825102
20
53.5924898
11
23.055091
21
53.5924898
0
LINE
8
DEFAULT_255_1_388
10
24.1565361
20
52.6943468
11
24.330924
21
52.6943468
0
LINE
8
DEFAULT_255_1_388
10
23.3180283
20
52.8732525
11
23.3180283
21
52.9997516
0
LINE
8
DEFAULT_255_1_388
10
24.330924
20
53.1696217
11
24.1565361
21
53.1696217
0
LINE
8
DEFAULT_255_1_388
10
23.4924162
20
52.9952337
11
23.4924162
21
52.8678312
0
ARC
8
DEFAULT_255_1_388
10
23.7143474
20
52.7615329
40
0.6202263
50
340.1774904
51
353.7812217
0
ARC
8
DEFAULT_255_1_388
10
23.8911327
20
52.6956893
40
0.4315926
50
311.4560052
51
340.4420756
0
ARC
8
DEFAULT_255_1_388
10
23.8873867
20
52.7081665
40
0.4434573
50
282.4332229
51
310.7514507
0
ARC
8
DEFAULT_255_1_388
10
23.8379685
20
52.9123703
40
0.6535262
50
269.9358869
51
282.8096729
0
ARC
8
DEFAULT_255_1_388
10
23.8321624
20
53.0636329
40
0.8048043
50
269.9995752
51
270.3612856
0
ARC
8
DEFAULT_255_1_388
10
23.8262114
20
52.7837781
40
0.5249831
50
250.7885263
51
270.6488451
0
ARC
8
DEFAULT_255_1_388
10
23.8072939
20
52.7120853
40
0.4510942
50
219.3628377
51
250.0611024
0
ARC
8
DEFAULT_255_1_388
10
23.9005813
20
52.7913653
40
0.5735046
50
193.5480293
51
219.5755675
0
ARC
8
DEFAULT_255_1_388
10
24.1674022
20
52.860652
40
0.849146
50
181.1220183
51
193.8754971
0
ARC
8
DEFAULT_255_1_388
10
24.3997255
20
52.8730914
40
1.0816971
50
179.9914644
51
181.5398227
0
ARC
8
DEFAULT_255_1_388
10
24.1920566
20
53.0039586
40
0.8740384
50
169.5837606
51
180.275782
0
ARC
8
DEFAULT_255_1_388
10
23.9853914
20
53.0421439
40
0.6638751
50
155.0367033
51
169.6002779
0
ARC
8
DEFAULT_255_1_388
10
23.8576372
20
53.1037336
40
0.5220662
50
136.7831557
51
155.2472983
0
ARC
8
DEFAULT_255_1_388
10
23.8138163
20
53.1409577
40
0.4646502
50
121.7633063
51
136.4281161
0
ARC
8
DEFAULT_255_1_388
10
23.8290003
20
53.1129049
40
0.4964979
50
95.6460018
51
121.5489589
0
ARC
8
DEFAULT_255_1_388
10
23.8466977
20
52.9881704
40
0.6223912
50
89.9245727
51
96.1375919
0
ARC
8
DEFAULT_255_1_388
10
23.8523682
20
53.0015721
40
0.6090084
50
76.6779212
51
90.456405
0
ARC
8
DEFAULT_255_1_388
10
23.8966495
20
53.180506
40
0.42469
50
47.4858803
51
76.9287069
0
ARC
8
DEFAULT_255_1_388
10
23.8801109
20
53.1692623
40
0.4441778
50
16.5424081
51
46.8934505
0
ARC
8
DEFAULT_255_1_388
10
23.6992159
20
53.1098265
40
0.6345318
50
5.4072971
51
17.0363711
0
ARC
8
DEFAULT_255_1_388
10
23.5373884
20
53.0838304
40
0.6250632
50
7.8888693
51
15.9242022
0
ARC
8
DEFAULT_255_1_388
10
23.7608869
20
53.1487309
40
0.3923364
50
15.7650676
51
27.9410069
0
ARC
8
DEFAULT_255_1_388
10
23.8851038
20
53.2152317
40
0.2514401
50
27.8167196
51
46.4007942
0
ARC
8
DEFAULT_255_1_388
10
23.890688
20
53.2145882
40
0.2480958
50
47.4372362
51
75.0695672
0
ARC
8
DEFAULT_255_1_388
10
23.8559716
20
53.0937277
40
0.3738281
50
74.7009379
51
87.8124314
0
ARC
8
DEFAULT_255_1_388
10
23.8477333
20
52.9753659
40
0.4924321
50
87.3802571
51
90.0251599
0
ARC
8
DEFAULT_255_1_388
10
23.843398
20
53.1073997
40
0.3604218
50
89.3451886
51
108.5744412
0
ARC
8
DEFAULT_255_1_388
10
23.8279972
20
53.1651836
40
0.3007661
50
109.2998307
51
143.3037387
0
ARC
8
DEFAULT_255_1_388
10
23.9137262
20
53.0992584
40
0.4089031
50
143.075267
51
163.1918576
0
ARC
8
DEFAULT_255_1_388
10
24.1333096
20
53.0299652
40
0.6391492
50
162.9375929
51
174.6208776
0
ARC
8
DEFAULT_255_1_388
10
24.4287478
20
52.9975711
40
0.9363344
50
174.342123
51
180.1430283
0
ARC
8
DEFAULT_255_1_388
10
24.3240019
20
52.8632117
40
0.8315986
50
179.6817261
51
189.150555
0
ARC
8
DEFAULT_255_1_388
10
24.0426768
20
52.8163559
40
0.5464044
50
188.9911061
51
203.5772363
0
ARC
8
DEFAULT_255_1_388
10
23.921206
20
52.7659539
40
0.4149206
50
203.9075402
51
215.1312435
0
ARC
8
DEFAULT_255_1_388
10
23.8173858
20
52.6854907
40
0.2837747
50
213.9071511
51
263.8848919
0
ARC
8
DEFAULT_255_1_388
10
23.8314851
20
52.7737519
40
0.3730641
50
263.1757928
51
270.1031044
0
ARC
8
DEFAULT_255_1_388
10
23.8350931
20
52.9140511
40
0.5133712
50
269.6722503
51
279.0606936
0
ARC
8
DEFAULT_255_1_388
10
23.8651086
20
52.732615
40
0.3294739
50
278.8749101
51
293.6349581
0
ARC
8
DEFAULT_255_1_388
10
23.901129
20
52.6480251
40
0.2375405
50
293.8553806
51
310.0518171
0
ARC
8
DEFAULT_255_1_388
10
23.9016799
20
52.6410021
40
0.2318463
50
311.0644687
51
332.0111037
0
ARC
8
DEFAULT_255_1_388
10
23.7675472
20
52.7149702
40
0.3850112
50
331.6586806
51
343.2877423
0
ARC
8
DEFAULT_255_1_388
10
23.5354937
20
52.7862806
40
0.6277712
50
343.1446576
51
351.0103568
0
ARC
8
DEFAULT_255_1_388
10
23.3722261
20
52.8162873
40
0.7937327
50
350.71248
51
351.1626997
0
ENDSEC
0
EOF