0
SECTION
2
HEADER
9
$MEASUREMENT
70
1
0
ENDSEC
0
SECTION
2
TABLES
0
TABLE
2
LTYPE
0
LTYPE
72
65
70
64
2
CONTINUOUS
3
______
73
0
40
0
0
ENDTAB
0
TABLE
2
LAYER
0
LAYER
2
DEFAULT_255_2_778
70
0
62
255
6
CONTINUOUS
0
LAYER
2
DEFAULT_255_1_234
70
0
62
255
6
CONTINUOUS
0
LAYER
2
DEFAULT_255_2_778_1
70
0
62
255
6
CONTINUOUS
0
ENDTAB
0
ENDSEC
0
SECTION
2
ENTITIES
0
ARC
8
DEFAULT_255_2_778
10
3.5700693
20
107.5552026
40
0.7914215
50
129.1312896
51
180.1450914
0
ARC
8
DEFAULT_255_2_778
10
3.5703345
20
107.5556897
40
0.7912112
50
89.854026
51
129.1684493
0
ARC
8
DEFAULT_255_2_778
10
25.7993937
20
107.5553762
40
0.7915249
50
39.4792447
51
90.147911
0
ARC
8
DEFAULT_255_2_778
10
25.7999935
20
107.5552229
40
0.7911595
50
359.8533901
51
39.5154338
0
ARC
8
DEFAULT_255_2_778
10
25.7996693
20
-1.9863497
40
0.7914836
50
309.4761667
51
0.1482649
0
ARC
8
DEFAULT_255_2_778
10
25.799398
20
-1.9867808
40
0.7913235
50
269.8517415
51
309.511178
0
ARC
8
DEFAULT_255_2_778
10
3.570342
20
-1.9867226
40
0.7913815
50
219.1282118
51
270.1454017
0
ARC
8
DEFAULT_255_2_778
10
3.5700247
20
-1.9863401
40
0.7913769
50
179.8524075
51
219.1641908
0
LINE
8
DEFAULT_255_2_778
10
3.5723503
20
108.3468985
11
25.7973503
21
108.3468985
0
LINE
8
DEFAULT_255_2_778
10
26.5911503
20
107.5531985
11
26.5911503
21
-1.9843015
0
LINE
8
DEFAULT_255_2_778
10
25.7973503
20
-2.7781015
11
3.5723503
21
-2.7781015
0
LINE
8
DEFAULT_255_2_778
10
2.7786503
20
-1.9843015
11
2.7786503
21
107.5531985
0
LINE
8
DEFAULT_255_1_234
10
10.9609879
20
0.5181211
11
10.9609879
21
-0.6513
0
LINE
8
DEFAULT_255_1_234
10
10.9609879
20
-0.6513
11
10.8059753
21
-0.6513
0
LINE
8
DEFAULT_255_1_234
10
10.8059753
20
-0.6513
11
10.2172489
21
0.249861
0
LINE
8
DEFAULT_255_1_234
10
10.2172489
20
0.249861
11
10.2172489
21
-0.6513
0
LINE
8
DEFAULT_255_1_234
10
10.2172489
20
-0.6513
11
10.0622364
21
-0.6513
0
LINE
8
DEFAULT_255_1_234
10
10.0622364
20
-0.6513
11
10.0622364
21
0.5181211
0
LINE
8
DEFAULT_255_1_234
10
10.0622364
20
0.5181211
11
10.2172489
21
0.5181211
0
LINE
8
DEFAULT_255_1_234
10
10.2172489
20
0.5181211
11
10.8075817
21
-0.3870558
0
LINE
8
DEFAULT_255_1_234
10
10.8075817
20
-0.3870558
11
10.8075817
21
0.5181211
0
LINE
8
DEFAULT_255_1_234
10
10.8075817
20
0.5181211
11
10.9609879
21
0.5181211
0
LINE
8
DEFAULT_255_1_234
10
11.3481177
20
0.5181211
11
11.6300317
21
0.0699501
0
LINE
8
DEFAULT_255_1_234
10
11.6300317
20
0.0699501
11
11.9103394
21
0.5181211
0
LINE
8
DEFAULT_255_1_234
10
11.9103394
20
0.5181211
11
12.0918566
21
0.5181211
0
LINE
8
DEFAULT_255_1_234
10
12.0918566
20
0.5181211
11
11.7223967
21
-0.0617704
0
LINE
8
DEFAULT_255_1_234
10
11.7223967
20
-0.0617704
11
12.1006916
21
-0.6513
0
LINE
8
DEFAULT_255_1_234
10
12.1006916
20
-0.6513
11
11.9175679
21
-0.6513
0
LINE
8
DEFAULT_255_1_234
10
11.9175679
20
-0.6513
11
11.6300317
21
-0.1950973
0
LINE
8
DEFAULT_255_1_234
10
11.6300317
20
-0.1950973
11
11.3408891
21
-0.6513
0
LINE
8
DEFAULT_255_1_234
10
11.3408891
20
-0.6513
11
11.1585687
21
-0.6513
0
LINE
8
DEFAULT_255_1_234
10
11.1585687
20
-0.6513
11
11.5376667
21
-0.0617704
0
LINE
8
DEFAULT_255_1_234
10
11.5376667
20
-0.0617704
11
11.1674036
21
0.5181211
0
LINE
8
DEFAULT_255_1_234
10
11.1674036
20
0.5181211
11
11.3481177
21
0.5181211
0
LINE
8
DEFAULT_255_1_234
10
12.5287832
20
-0.0938974
11
12.5287832
21
-0.2151766
0
LINE
8
DEFAULT_255_1_234
10
12.5287832
20
-0.2151766
11
12.1368344
21
-0.2151766
0
LINE
8
DEFAULT_255_1_234
10
12.1368344
20
-0.2151766
11
12.1368344
21
-0.0938974
0
LINE
8
DEFAULT_255_1_234
10
12.1368344
20
-0.0938974
11
12.5287832
21
-0.0938974
0
LINE
8
DEFAULT_255_1_234
10
13.0203256
20
-0.6513
11
12.6966465
21
-0.6513
0
LINE
8
DEFAULT_255_1_234
10
12.6966465
20
-0.6513
11
12.6966465
21
0.5181211
0
LINE
8
DEFAULT_255_1_234
10
12.6966465
20
0.5181211
11
13.026751
21
0.5181211
0
LINE
8
DEFAULT_255_1_234
10
13.5423886
20
-0.0272339
11
13.5423886
21
-0.1019291
0
LINE
8
DEFAULT_255_1_234
10
13.0307668
20
0.3912196
11
12.8508559
21
0.3912196
0
LINE
8
DEFAULT_255_1_234
10
12.8508559
20
0.3912196
11
12.8508559
21
-0.5252017
0
LINE
8
DEFAULT_255_1_234
10
12.8508559
20
-0.5252017
11
13.013097
21
-0.5252017
0
LINE
8
DEFAULT_255_1_234
10
13.3897855
20
-0.0987164
11
13.3897855
21
-0.0304466
0
ARC
8
DEFAULT_255_1_234
10
13.0306452
20
-0.0684106
40
0.5865446
50
75.4101064
51
90.3804066
0
ARC
8
DEFAULT_255_1_234
10
13.0535966
20
0.0272492
40
0.4881916
50
60.145586
51
75.1888407
0
ARC
8
DEFAULT_255_1_234
10
13.0694741
20
0.0549199
40
0.4562893
50
26.5253612
51
60.1450928
0
ARC
8
DEFAULT_255_1_234
10
12.9574491
20
-0.0044842
40
0.5830602
50
7.4030428
51
26.8320788
0
ARC
8
DEFAULT_255_1_234
10
12.7980247
20
-0.0293196
40
0.7443669
50
0.1605367
51
7.7176192
0
ARC
8
DEFAULT_255_1_234
10
12.8144152
20
-0.1057566
40
0.7279835
50
348.7289388
51
0.3012466
0
ARC
8
DEFAULT_255_1_234
10
12.9800582
20
-0.1386614
40
0.559104
50
333.0706509
51
348.7181832
0
ARC
8
DEFAULT_255_1_234
10
13.076734
20
-0.1911681
40
0.4491417
50
299.2531685
51
333.4571258
0
ARC
8
DEFAULT_255_1_234
10
13.0406479
20
-0.1226172
40
0.5265881
50
278.107187
51
299.0339503
0
ARC
8
DEFAULT_255_1_234
10
13.0150558
20
0.0281216
40
0.679442
50
270.4443897
51
278.4511052
0
ARC
8
DEFAULT_255_1_234
10
13.0171388
20
-0.0647787
40
0.4604407
50
269.4970433
51
284.0205042
0
ARC
8
DEFAULT_255_1_234
10
13.0526689
20
-0.2013022
40
0.3193797
50
283.7700273
51
318.1555492
0
ARC
8
DEFAULT_255_1_234
10
13.0189448
20
-0.1760633
40
0.3613588
50
318.7415601
51
343.6873628
0
ARC
8
DEFAULT_255_1_234
10
12.8385471
20
-0.1197168
40
0.5503313
50
343.3325091
51
355.8548958
0
ARC
8
DEFAULT_255_1_234
10
12.6287155
20
-0.0997681
40
0.7610708
50
355.4988528
51
0.0791727
0
ARC
8
DEFAULT_255_1_234
10
12.7069778
20
-0.026222
40
0.6828208
50
359.6455037
51
9.8607896
0
ARC
8
DEFAULT_255_1_234
10
12.9430476
20
0.0164099
40
0.4429406
50
9.6571907
51
26.1932807
0
ARC
8
DEFAULT_255_1_234
10
13.0358464
20
0.0595118
40
0.3406537
50
26.5777228
51
40.1532208
0
ARC
8
DEFAULT_255_1_234
10
13.0614191
20
0.0794619
40
0.308246
50
40.3840491
51
80.1431104
0
ARC
8
DEFAULT_255_1_234
10
13.0287308
20
-0.0654667
40
0.4566909
50
79.2152159
51
89.7445637
0
LINE
8
DEFAULT_255_1_234
10
14.5158353
20
-0.6513
11
14.4041941
21
-0.3460939
0
LINE
8
DEFAULT_255_1_234
10
14.4041941
20
-0.3460939
11
13.9142581
21
-0.3460939
0
LINE
8
DEFAULT_255_1_234
10
13.9142581
20
-0.3460939
11
13.8042232
21
-0.6513
0
LINE
8
DEFAULT_255_1_234
10
13.8042232
20
-0.6513
11
13.6451948
21
-0.6513
0
LINE
8
DEFAULT_255_1_234
10
13.6451948
20
-0.6513
11
14.0917595
21
0.5181211
0
LINE
8
DEFAULT_255_1_234
10
14.0917595
20
0.5181211
11
14.2266927
21
0.5181211
0
LINE
8
DEFAULT_255_1_234
10
14.2266927
20
0.5181211
11
14.6740605
21
-0.6513
0
LINE
8
DEFAULT_255_1_234
10
14.6740605
20
-0.6513
11
14.5158353
21
-0.6513
0
LINE
8
DEFAULT_255_1_234
10
14.1592261
20
0.3277689
11
13.9608421
21
-0.2191925
0
LINE
8
DEFAULT_255_1_234
10
13.9608421
20
-0.2191925
11
14.3584132
21
-0.2191925
0
LINE
8
DEFAULT_255_1_234
10
14.3584132
20
-0.2191925
11
14.1592261
21
0.3277689
0
LINE
8
DEFAULT_255_1_234
10
15.008984
20
-0.1155831
11
15.008984
21
0.0056962
0
LINE
8
DEFAULT_255_1_234
10
15.008984
20
0.0056962
11
15.1206251
21
0.0056962
0
LINE
8
DEFAULT_255_1_234
10
14.9302729
20
0.2113087
11
14.7816858
21
0.2113087
0
LINE
8
DEFAULT_255_1_234
10
14.7712445
20
-0.3428813
11
14.9206349
21
-0.3428813
0
LINE
8
DEFAULT_255_1_234
10
15.1206251
20
-0.1155831
11
15.008984
21
-0.1155831
0
ARC
8
DEFAULT_255_1_234
10
15.1177118
20
0.3449713
40
0.3392876
50
270.4919872
51
281.8951556
0
ARC
8
DEFAULT_255_1_234
10
15.1418379
20
0.2347702
40
0.2264817
50
281.6691735
51
301.2943132
0
ARC
8
DEFAULT_255_1_234
10
15.158859
20
0.2036304
40
0.1910381
50
301.7833094
51
311.7545298
0
ARC
8
DEFAULT_255_1_234
10
15.1680165
20
0.1934748
40
0.1773635
50
311.7323931
51
354.2802411
0
ARC
8
DEFAULT_255_1_234
10
15.0953791
20
0.2059722
40
0.2509385
50
353.0937916
51
0.1181479
0
ARC
8
DEFAULT_255_1_234
10
15.0492576
20
0.2107386
40
0.2970898
50
359.1805295
51
15.0453146
0
ARC
8
DEFAULT_255_1_234
10
15.1838413
20
0.2499992
40
0.1569564
50
13.9577229
51
77.6713066
0
ARC
8
DEFAULT_255_1_234
10
15.1451942
20
0.1114949
40
0.3006298
50
76.1116566
51
90.7026153
0
ARC
8
DEFAULT_255_1_234
10
15.139278
20
0.1388545
40
0.2732568
50
89.5324876
51
103.531937
0
ARC
8
DEFAULT_255_1_234
10
15.1192224
20
0.2187884
40
0.1908508
50
103.2931773
51
133.5619022
0
ARC
8
DEFAULT_255_1_234
10
15.1147713
20
0.2247375
40
0.1834746
50
133.8349307
51
173.5344437
0
ARC
8
DEFAULT_255_1_234
10
15.1870756
20
0.2119213
40
0.2568033
50
172.5096846
51
180.1366907
0
ARC
8
DEFAULT_255_1_234
10
15.0919649
20
0.2153622
40
0.3103056
50
155.3484492
51
180.7484736
0
ARC
8
DEFAULT_255_1_234
10
15.0870739
20
0.2124846
40
0.3070957
50
131.5744599
51
154.4798489
0
ARC
8
DEFAULT_255_1_234
10
15.1183886
20
0.180831
40
0.3515643
50
96.9875458
51
131.9690667
0
ARC
8
DEFAULT_255_1_234
10
15.1403366
20
0.0562636
40
0.4779224
50
89.8596053
51
97.7825159
0
ARC
8
DEFAULT_255_1_234
10
15.1451429
20
0.0300616
40
0.5041361
50
78.3655447
51
90.4131539
0
ARC
8
DEFAULT_255_1_234
10
15.1809347
20
0.1959887
40
0.3344039
50
56.6229102
51
78.638727
0
ARC
8
DEFAULT_255_1_234
10
15.202429
20
0.2335805
40
0.2912001
50
47.0253525
51
56.0854072
0
ARC
8
DEFAULT_255_1_234
10
15.2044071
20
0.2375223
40
0.2869704
50
10.9208013
51
46.7778124
0
ARC
8
DEFAULT_255_1_234
10
15.0680137
20
0.2059857
40
0.426899
50
359.6364486
51
11.6087304
0
ARC
8
DEFAULT_255_1_234
10
15.2514981
20
0.2044752
40
0.243409
50
332.3549906
51
359.7179418
0
ARC
8
DEFAULT_255_1_234
10
15.1864583
20
0.2353142
40
0.3153459
50
325.2333722
51
332.8745602
0
ARC
8
DEFAULT_255_1_234
10
15.2017206
20
0.2246828
40
0.2967456
50
292.9802137
51
325.2392345
0
ARC
8
DEFAULT_255_1_234
10
15.174258
20
0.2780863
40
0.3566604
50
292.5402179
51
293.6924929
0
ARC
8
DEFAULT_255_1_234
10
15.2135176
20
-0.3673909
40
0.3307468
50
57.6435486
51
72.8625112
0
ARC
8
DEFAULT_255_1_234
10
15.2489676
20
-0.3099451
40
0.2632492
50
36.7248896
51
57.4697979
0
ARC
8
DEFAULT_255_1_234
10
15.2478308
20
-0.308678
40
0.2634081
50
8.0545065
51
36.356114
0
ARC
8
DEFAULT_255_1_234
10
15.1615494
20
-0.3241826
40
0.3510261
50
359.8320645
51
8.5869982
0
ARC
8
DEFAULT_255_1_234
10
15.124027
20
-0.3289899
40
0.3885653
50
343.9829931
51
0.5571613
0
ARC
8
DEFAULT_255_1_234
10
15.2126467
20
-0.3532562
40
0.2966924
50
311.6359546
51
343.7651759
0
ARC
8
DEFAULT_255_1_234
10
15.1748036
20
-0.3105898
40
0.3537231
50
279.7829875
51
311.6255694
0
ARC
8
DEFAULT_255_1_234
10
15.1446812
20
-0.166872
40
0.5004971
50
269.7286406
51
280.3856417
0
ARC
8
DEFAULT_255_1_234
10
15.1384885
20
-0.1710004
40
0.4963778
50
256.6828919
51
270.4412052
0
ARC
8
DEFAULT_255_1_234
10
15.1046181
20
-0.3094606
40
0.3538406
50
229.4223008
51
256.8556159
0
ARC
8
DEFAULT_255_1_234
10
15.0631574
20
-0.3561264
40
0.2914296
50
181.818294
51
229.6455059
0
ARC
8
DEFAULT_255_1_234
10
15.167153
20
-0.3430504
40
0.3959084
50
179.9755256
51
183.2323064
0
ARC
8
DEFAULT_255_1_234
10
15.1499276
20
-0.3450963
40
0.2293034
50
179.4465117
51
196.2869258
0
ARC
8
DEFAULT_255_1_234
10
15.1011684
20
-0.3584349
40
0.1787621
50
196.5661473
51
227.705904
0
ARC
8
DEFAULT_255_1_234
10
15.1175779
20
-0.3400845
40
0.2033784
50
227.7652068
51
257.8762805
0
ARC
8
DEFAULT_255_1_234
10
15.1400749
20
-0.2457844
40
0.3003081
50
257.4584385
51
270.426602
0
ARC
8
DEFAULT_255_1_234
10
15.1446315
20
-0.2168004
40
0.329292
50
269.5962073
51
280.8789248
0
ARC
8
DEFAULT_255_1_234
10
15.1675844
20
-0.3314315
40
0.2123908
50
280.6346389
51
299.8595945
0
ARC
8
DEFAULT_255_1_234
10
15.186675
20
-0.3676788
40
0.171457
50
300.3576302
51
314.5517981
0
ARC
8
DEFAULT_255_1_234
10
15.178381
20
-0.3616081
40
0.1816095
50
315.0728369
51
345.0431014
0
ARC
8
DEFAULT_255_1_234
10
15.0860625
20
-0.3347159
40
0.2777492
50
344.5986631
51
357.9269593
0
ARC
8
DEFAULT_255_1_234
10
14.9964951
20
-0.3285724
40
0.3674917
50
357.4748886
51
0.0231117
0
ARC
8
DEFAULT_255_1_234
10
15.098806
20
-0.3261321
40
0.2651907
50
359.5047933
51
13.4239635
0
ARC
8
DEFAULT_255_1_234
10
15.1854704
20
-0.3039522
40
0.1757509
50
12.9498199
51
48.7551375
0
ARC
8
DEFAULT_255_1_234
10
15.1672438
20
-0.32886
40
0.2065134
50
49.5088623
51
72.1836453
0
ARC
8
DEFAULT_255_1_234
10
15.1314591
20
-0.4350709
40
0.3185836
50
71.9010081
51
84.3554254
0
ARC
8
DEFAULT_255_1_234
10
15.1153223
20
-0.5711674
40
0.4556151
50
84.0193428
51
89.333121
0
LINE
8
DEFAULT_255_1_234
10
16.482808
20
-0.5300208
11
16.482808
21
-0.6513
0
LINE
8
DEFAULT_255_1_234
10
16.482808
20
-0.6513
11
15.7165801
21
-0.6513
0
LINE
8
DEFAULT_255_1_234
10
15.7165801
20
-0.6513
11
15.7165801
21
-0.5444779
0
LINE
8
DEFAULT_255_1_234
10
15.7165801
20
-0.5444779
11
16.1213797
21
-0.0947005
0
LINE
8
DEFAULT_255_1_234
10
15.8426784
20
0.1735595
11
15.6940913
21
0.1735595
0
LINE
8
DEFAULT_255_1_234
10
16.2089257
20
-0.1902782
11
15.8956879
21
-0.5300208
0
LINE
8
DEFAULT_255_1_234
10
15.8956879
20
-0.5300208
11
16.482808
21
-0.5300208
0
ARC
8
DEFAULT_255_1_234
10
14.7723631
20
1.0982527
40
1.8008286
50
318.5132453
51
320.7828378
0
ARC
8
DEFAULT_255_1_234
10
15.3010605
20
0.6679426
40
1.1191493
50
320.7372736
51
323.9737074
0
ARC
8
DEFAULT_255_1_234
10
15.6930461
20
0.3839361
40
0.6350923
50
323.8961724
51
328.6421089
0
ARC
8
DEFAULT_255_1_234
10
15.8977057
20
0.2577031
40
0.3946393
50
328.8299013
51
331.789948
0
ARC
8
DEFAULT_255_1_234
10
15.9974235
20
0.2062509
40
0.2824501
50
331.4255242
51
352.9364833
0
ARC
8
DEFAULT_255_1_234
10
16.0110736
20
0.2031976
40
0.2685315
50
353.2248685
51
0.0169286
0
ARC
8
DEFAULT_255_1_234
10
16.0320613
20
0.205495
40
0.2475536
50
359.4866256
51
15.9339782
0
ARC
8
DEFAULT_255_1_234
10
16.0827598
20
0.2191286
40
0.1950618
50
16.1714718
51
43.5284424
0
ARC
8
DEFAULT_255_1_234
10
16.0904907
20
0.2268573
40
0.184134
50
43.4415429
51
83.1661404
0
ARC
8
DEFAULT_255_1_234
10
16.0770825
20
0.1531771
40
0.258926
50
82.160215
51
90.1505798
0
ARC
8
DEFAULT_255_1_234
10
16.0739252
20
0.0994865
40
0.3126255
50
89.5460705
51
102.5418777
0
ARC
8
DEFAULT_255_1_234
10
16.0496338
20
0.2025665
40
0.2067346
50
102.1739365
51
129.2061916
0
ARC
8
DEFAULT_255_1_234
10
16.041741
20
0.2150094
40
0.1921118
50
129.7279328
51
135.7542026
0
ARC
8
DEFAULT_255_1_234
10
16.0538938
20
0.2053045
40
0.2075944
50
136.175737
51
166.3674722
0
ARC
8
DEFAULT_255_1_234
10
16.1545857
20
0.1783182
40
0.3118201
50
165.9092917
51
178.8683903
0
ARC
8
DEFAULT_255_1_234
10
16.2410718
20
0.1736179
40
0.3983935
50
178.438168
51
180.0083905
0
ARC
8
DEFAULT_255_1_234
10
16.100932
20
0.1775231
40
0.4068601
50
163.2878735
51
180.5581814
0
ARC
8
DEFAULT_255_1_234
10
16.0207582
20
0.199584
40
0.3237344
50
133.454115
51
162.9470031
0
ARC
8
DEFAULT_255_1_234
10
16.0386123
20
0.1806
40
0.349795
50
100.7869394
51
133.4384016
0
ARC
8
DEFAULT_255_1_234
10
16.0733895
20
0.0257319
40
0.5084616
50
89.6605301
51
101.3704185
0
ARC
8
DEFAULT_255_1_234
10
16.0800233
20
0.0318496
40
0.502348
50
78.2171172
51
90.4130393
0
ARC
8
DEFAULT_255_1_234
10
16.1155312
20
0.1942637
40
0.3361092
50
55.9268222
51
78.4888551
0
ARC
8
DEFAULT_255_1_234
10
16.1351752
20
0.2281324
40
0.2970617
50
47.9292255
51
55.4054003
0
ARC
8
DEFAULT_255_1_234
10
16.1453312
20
0.2384502
40
0.2825983
50
4.3347696
51
48.0560701
0
ARC
8
DEFAULT_255_1_234
10
16.0357706
20
0.2214601
40
0.393225
50
359.925209
51
5.5967654
0
ARC
8
DEFAULT_255_1_234
10
16.0786598
20
0.2270816
40
0.3503892
50
337.8914096
51
358.9967724
0
ARC
8
DEFAULT_255_1_234
10
15.807301
20
0.3317706
40
0.6412172
50
326.9135351
51
338.3505194
0
ARC
8
DEFAULT_255_1_234
10
15.4087314
20
0.5872284
40
1.1146189
50
319.6472867
51
327.095818
0
ARC
8
DEFAULT_255_1_234
10
15.0254317
20
0.9034
40
1.6114559
50
317.2586784
51
319.9046139
0
LINE
8
DEFAULT_255_1_234
10
17.3735277
20
0.0402327
11
17.3735277
21
-0.1525291
0
LINE
8
DEFAULT_255_1_234
10
16.635411
20
-0.1726084
11
16.635411
21
0.0257755
0
LINE
8
DEFAULT_255_1_234
10
17.2249406
20
-0.1926877
11
17.2249406
21
0.0506739
0
LINE
8
DEFAULT_255_1_234
10
16.7839981
20
0.0619184
11
16.7839981
21
-0.1758211
0
ARC
8
DEFAULT_255_1_234
10
16.1488167
20
-0.1574195
40
1.2247208
50
353.8441951
51
0.2287902
0
ARC
8
DEFAULT_255_1_234
10
16.6127671
20
-0.2092194
40
0.7578929
50
344.4934747
51
353.9765454
0
ARC
8
DEFAULT_255_1_234
10
16.9120261
20
-0.2943019
40
0.4467846
50
329.2803592
51
344.7472793
0
ARC
8
DEFAULT_255_1_234
10
17.0113086
20
-0.3487982
40
0.3336173
50
324.9352394
51
328.6160465
0
ARC
8
DEFAULT_255_1_234
10
17.0490194
20
-0.3751573
40
0.2876076
50
280.580143
51
324.9173126
0
ARC
8
DEFAULT_255_1_234
10
17.0088987
20
-0.2080901
40
0.4592847
50
269.5977311
51
281.6734359
0
ARC
8
DEFAULT_255_1_234
10
17.0016893
20
-0.2200827
40
0.4472986
50
256.6228859
51
270.51044
0
ARC
8
DEFAULT_255_1_234
10
16.961487
20
-0.3749123
40
0.2873874
50
215.8618325
51
257.2788573
0
ARC
8
DEFAULT_255_1_234
10
17.0635902
20
-0.3064023
40
0.4102928
50
197.9693508
51
215.2623606
0
ARC
8
DEFAULT_255_1_234
10
17.3121018
20
-0.2225291
40
0.6725652
50
187.8816417
51
198.2346507
0
ARC
8
DEFAULT_255_1_234
10
17.7079226
20
-0.1653921
40
1.0724845
50
180.8976217
51
188.0055519
0
ARC
8
DEFAULT_255_1_234
10
17.9879414
20
-0.1550223
40
1.3526448
50
180.7449369
51
181.1510016
0
ARC
8
DEFAULT_255_1_234
10
17.8302143
20
0.0306042
40
1.1948131
50
173.7675579
51
180.231553
0
ARC
8
DEFAULT_255_1_234
10
17.378429
20
0.0816666
40
0.7401564
50
164.3058563
51
173.9002247
0
ARC
8
DEFAULT_255_1_234
10
17.0872359
20
0.1655656
40
0.4371288
50
148.7922025
51
164.568378
0
ARC
8
DEFAULT_255_1_234
10
16.9920811
20
0.2186929
40
0.3282386
50
144.5883898
51
148.1176286
0
ARC
8
DEFAULT_255_1_234
10
16.9577709
20
0.2426315
40
0.2864044
50
101.6440918
51
144.514236
0
ARC
8
DEFAULT_255_1_234
10
17.0002775
20
0.0737069
40
0.4604934
50
89.5284041
51
102.5819763
0
ARC
8
DEFAULT_255_1_234
10
17.0081863
20
0.0698018
40
0.464401
50
77.0437873
51
90.5081339
0
ARC
8
DEFAULT_255_1_234
10
17.0483865
20
0.2340615
40
0.2953195
50
48.2778575
51
77.4994676
0
ARC
8
DEFAULT_255_1_234
10
17.0556496
20
0.2469746
40
0.2808655
50
36.3142134
51
47.6305865
0
ARC
8
DEFAULT_255_1_234
10
16.9687803
20
0.1884515
40
0.3855453
50
18.2931786
51
35.6769206
0
ARC
8
DEFAULT_255_1_234
10
16.7144562
20
0.1011593
40
0.654423
50
8.024666
51
18.5605216
0
ARC
8
DEFAULT_255_1_234
10
16.2981482
20
0.0396792
40
1.0752407
50
1.1274072
51
8.1718305
0
ARC
8
DEFAULT_255_1_234
10
15.9745672
20
0.0269885
40
1.3990231
50
0.5424119
51
1.3863029
0
ARC
8
DEFAULT_255_1_234
10
16.156705
20
0.0542342
40
1.0682415
50
359.8090433
51
4.9407866
0
ARC
8
DEFAULT_255_1_234
10
16.5777064
20
0.0918113
40
0.6455691
50
4.8362157
51
12.2904523
0
ARC
8
DEFAULT_255_1_234
10
16.8532179
20
0.1531965
40
0.3633074
50
12.0805627
51
23.8173984
0
ARC
8
DEFAULT_255_1_234
10
16.9705884
20
0.2028919
40
0.2358723
50
24.2871213
51
31.3935614
0
ARC
8
DEFAULT_255_1_234
10
17.0230582
20
0.2372233
40
0.1732111
50
30.7407893
51
82.4657128
0
ARC
8
DEFAULT_255_1_234
10
17.0050716
20
0.1488691
40
0.263235
50
81.1060089
51
90.2184952
0
ARC
8
DEFAULT_255_1_234
10
17.0015015
20
0.1746924
40
0.2374236
50
89.3806855
51
105.6762551
0
ARC
8
DEFAULT_255_1_234
10
16.9831646
20
0.2413567
40
0.1682847
50
105.7981136
51
149.7388061
0
ARC
8
DEFAULT_255_1_234
10
17.0895724
20
0.177395
40
0.2924306
50
149.4208916
51
163.6286378
0
ARC
8
DEFAULT_255_1_234
10
17.2986612
20
0.113625
40
0.5110213
50
163.3763315
51
172.1410975
0
ARC
8
DEFAULT_255_1_234
10
17.6287331
20
0.0663518
40
0.8444586
50
172.0259487
51
178.0703232
0
ARC
8
DEFAULT_255_1_234
10
17.931742
20
0.0519906
40
1.1477868
50
177.8631668
51
179.5044149
0
ARC
8
DEFAULT_255_1_234
10
17.8244825
20
-0.1794611
40
1.0404907
50
179.7995573
51
185.2460446
0
ARC
8
DEFAULT_255_1_234
10
17.4201864
20
-0.2177487
40
0.6343885
50
185.1411642
51
193.0079639
0
ARC
8
DEFAULT_255_1_234
10
17.1558337
20
-0.2802359
40
0.3627568
50
192.7897626
51
205.2507664
0
ARC
8
DEFAULT_255_1_234
10
17.0511884
20
-0.3269585
40
0.2481908
50
205.8005384
51
211.2537509
0
ARC
8
DEFAULT_255_1_234
10
16.9988324
20
-0.362042
40
0.1852521
50
210.3789793
51
238.4008143
0
ARC
8
DEFAULT_255_1_234
10
16.9968846
20
-0.3573624
40
0.1882621
50
239.6520629
51
265.9793761
0
ARC
8
DEFAULT_255_1_234
10
17.0054046
20
-0.2901573
40
0.2559272
50
265.1315437
51
270.060332
0
ARC
8
DEFAULT_255_1_234
10
17.0082825
20
-0.3225466
40
0.2235528
50
269.3314664
51
287.2178029
0
ARC
8
DEFAULT_255_1_234
10
17.0220677
20
-0.3728721
40
0.1714108
50
287.7958004
51
329.080874
0
ARC
8
DEFAULT_255_1_234
10
16.9263134
20
-0.313107
40
0.2842745
50
328.6634704
51
343.3325132
0
ARC
8
DEFAULT_255_1_234
10
16.7090154
20
-0.2454137
40
0.5118644
50
343.0499468
51
351.9393422
0
ARC
8
DEFAULT_255_1_234
10
16.3623454
20
-0.1943051
40
0.8622784
50
351.8069023
51
357.7959224
0
ARC
8
DEFAULT_255_1_234
10
16.038801
20
-0.1775279
40
1.1862365
50
357.5871873
51
359.2677531
0
LINE
8
DEFAULT_255_1_234
10
17.7510194
20
-0.0955037
11
17.6321497
21
-0.0649831
0
LINE
8
DEFAULT_255_1_234
10
17.6321497
20
-0.0649831
11
17.6915846
21
0.5181211
0
LINE
8
DEFAULT_255_1_234
10
17.6915846
20
0.5181211
11
18.2907522
21
0.5181211
0
LINE
8
DEFAULT_255_1_234
10
18.2907522
20
0.5181211
11
18.2907522
21
0.3807784
0
LINE
8
DEFAULT_255_1_234
10
18.2907522
20
0.3807784
11
17.8176829
21
0.3807784
0
LINE
8
DEFAULT_255_1_234
10
17.8176829
20
0.3807784
11
17.7823432
21
0.0619184
0
LINE
8
DEFAULT_255_1_234
10
17.5903847
20
-0.3436844
11
17.7309401
21
-0.3436844
0
LINE
8
DEFAULT_255_1_234
10
17.790375
20
-0.0633768
11
17.7510194
21
-0.0955037
0
ARC
8
DEFAULT_255_1_234
10
17.9678216
20
-0.256077
40
0.3681349
50
93.7182161
51
120.2538958
0
ARC
8
DEFAULT_255_1_234
10
17.9772479
20
-0.3368606
40
0.449379
50
89.9660152
51
94.2496022
0
ARC
8
DEFAULT_255_1_234
10
17.9813213
20
-0.2779451
40
0.390482
50
73.8043271
51
90.5585896
0
ARC
8
DEFAULT_255_1_234
10
18.004811
20
-0.1921398
40
0.3015334
50
41.3071453
51
73.5430202
0
ARC
8
DEFAULT_255_1_234
10
17.9631937
20
-0.2279676
40
0.3564457
50
13.5075983
51
41.2174222
0
ARC
8
DEFAULT_255_1_234
10
17.7990141
20
-0.2709514
40
0.5261351
50
1.1331335
51
13.8829381
0
ARC
8
DEFAULT_255_1_234
10
17.657851
20
-0.2785335
40
0.6674378
50
359.9919444
51
1.544251
0
ARC
8
DEFAULT_255_1_234
10
17.7855336
20
-0.282672
40
0.5397702
50
347.8572367
51
0.4293338
0
ARC
8
DEFAULT_255_1_234
10
17.9605654
20
-0.3223264
40
0.3603188
50
323.673004
51
348.1672506
0
ARC
8
DEFAULT_255_1_234
10
17.9900162
20
-0.3402832
40
0.3259678
50
316.8171152
51
323.1492751
0
ARC
8
DEFAULT_255_1_234
10
17.9961351
20
-0.343954
40
0.3189975
50
281.8396411
51
316.5457803
0
ARC
8
DEFAULT_255_1_234
10
17.9585615
20
-0.1884238
40
0.4789527
50
269.5770101
51
282.4214771
0
ARC
8
DEFAULT_255_1_234
10
17.9514426
20
-0.2097875
40
0.45759
50
256.2427136
51
270.4486331
0
ARC
8
DEFAULT_255_1_234
10
17.9215328
20
-0.3297771
40
0.3339303
50
228.9023911
51
256.3314342
0
ARC
8
DEFAULT_255_1_234
10
17.9141561
20
-0.3414254
40
0.32031
50
193.753695
51
228.5271154
0
ARC
8
DEFAULT_255_1_234
10
18.0379515
20
-0.30512
40
0.4492253
50
184.924711
51
194.497588
0
ARC
8
DEFAULT_255_1_234
10
18.0572082
20
-0.3015409
40
0.3289787
50
187.3600538
51
198.6732863
0
ARC
8
DEFAULT_255_1_234
10
17.9522376
20
-0.3379326
40
0.217884
50
198.4451669
51
217.794479
0
ARC
8
DEFAULT_255_1_234
10
17.9226551
20
-0.3588915
40
0.1816698
50
218.2887171
51
228.5612368
0
ARC
8
DEFAULT_255_1_234
10
17.9324338
20
-0.3457037
40
0.1980329
50
228.9654866
51
258.1234728
0
ARC
8
DEFAULT_255_1_234
10
17.9530048
20
-0.2576167
40
0.2884748
50
257.7258293
51
270.401361
0
ARC
8
DEFAULT_255_1_234
10
17.9574934
20
-0.3021179
40
0.2439788
50
269.4204404
51
286.4209037
0
ARC
8
DEFAULT_255_1_234
10
17.9723422
20
-0.3560343
40
0.1880666
50
286.7251356
51
320.600362
0
ARC
8
DEFAULT_255_1_234
10
17.9340247
20
-0.3249405
40
0.2374121
50
320.6712579
51
344.5441685
0
ARC
8
DEFAULT_255_1_234
10
17.8183573
20
-0.2909955
40
0.3579479
50
344.2412205
51
356.7357071
0
ARC
8
DEFAULT_255_1_234
10
17.6934722
20
-0.2806556
40
0.4832297
50
356.3548756
51
0.0500261
0
ARC
8
DEFAULT_255_1_234
10
17.8271231
20
-0.277535
40
0.3495889
50
359.5576869
51
12.953486
0
ARC
8
DEFAULT_255_1_234
10
17.9326128
20
-0.2519566
40
0.2410532
50
12.6490276
51
41.6081334
0
ARC
8
DEFAULT_255_1_234
10
17.9556499
20
-0.2323679
40
0.2108218
50
41.7850273
51
85.9892764
0
ARC
8
DEFAULT_255_1_234
10
17.9433236
20
-0.3136538
40
0.2928454
50
84.6957577
51
90.0676183
0
ARC
8
DEFAULT_255_1_234
10
17.940972
20
-0.3805284
40
0.3597255
50
89.6804936
51
99.1614436
0
ARC
8
DEFAULT_255_1_234
10
17.9204351
20
-0.2577869
40
0.235281
50
98.9830931
51
113.8908934
0
ARC
8
DEFAULT_255_1_234
10
17.8974761
20
-0.2036413
40
0.176479
50
114.1950727
51
127.3641004
0
ARC
8
DEFAULT_255_2_778
10
15.0733635
20
106.1107757
40
0.3782991
50
0.3791625
51
91.2888722
0
ARC
8
DEFAULT_255_2_778
10
15.0712556
20
106.1078625
40
0.3804373
50
269.035893
51
0.8157951
0
ARC
8
DEFAULT_255_2_778
10
15.2298414
20
106.0951903
40
0.764498
50
290.7706876
51
357.5425648
0
ARC
8
DEFAULT_255_2_778
10
15.1444777
20
106.113208
40
0.8506767
50
356.5766106
51
0.0047928
0
LINE
8
DEFAULT_255_2_778
10
15.9951543
20
106.1132791
11
15.9951544
21
106.1136491
0
ARC
8
DEFAULT_255_2_778
10
15.1450863
20
106.1144642
40
0.8500685
50
359.9450654
51
50.5390341
0
ARC
8
DEFAULT_255_2_778
10
15.1444941
20
106.1169565
40
0.8485231
50
50.4011998
51
90.0499498
0
ARC
8
DEFAULT_255_2_778
10
19.9749167
20
106.1043388
40
0.3846416
50
1.3318655
51
90.1433517
0
ARC
8
DEFAULT_255_2_778
10
20.032532
20
106.0976399
40
0.8701301
50
359.7589483
51
41.4305054
0
ARC
8
DEFAULT_255_2_778
10
20.0366159
20
106.0994682
40
0.8658593
50
41.5186192
51
87.8931913
0
ARC
8
DEFAULT_255_2_778
10
20.0318882
20
106.0581194
40
0.9073597
50
87.6908463
51
90.0021405
0
ARC
8
DEFAULT_255_2_778
10
12.7283013
20
106.1111978
40
0.3778587
50
0.315598
51
91.1596115
0
ARC
8
DEFAULT_255_2_778
10
12.780832
20
106.0976399
40
0.8701301
50
359.7589483
51
41.4305054
0
ARC
8
DEFAULT_255_2_778
10
12.7849159
20
106.0994682
40
0.8658593
50
41.5186192
51
87.8931913
0
ARC
8
DEFAULT_255_2_778
10
12.7801882
20
106.0581194
40
0.9073597
50
87.6908463
51
90.0021405
0
ARC
8
DEFAULT_255_2_778
10
17.3607953
20
105.7026363
40
1.2832573
50
232.9444752
51
270.0294264
0
ARC
8
DEFAULT_255_2_778
10
17.3747185
20
105.7252392
40
1.309688
50
187.7220619
51
233.0542317
0
ARC
8
DEFAULT_255_2_778
10
17.394046
20
105.7271092
40
1.3290916
50
179.9840519
51
187.6899902
0
ARC
8
DEFAULT_255_2_778
10
17.3611
20
105.7240626
40
1.2961502
50
146.5724431
51
179.8489741
0
ARC
8
DEFAULT_255_2_778
10
17.3664526
20
105.7226858
40
1.3013772
50
96.2207161
51
146.651674
0
ARC
8
DEFAULT_255_2_778
10
17.3665782
20
105.7077094
40
1.3162799
50
90.223036
51
96.1555121
0
ARC
8
DEFAULT_255_2_778
10
17.3635865
20
105.7204986
40
1.3034823
50
58.1053732
51
90.0937227
0
ARC
8
DEFAULT_255_2_778
10
17.3697488
20
105.7237602
40
1.297462
50
3.9625434
51
58.2603135
0
ARC
8
DEFAULT_255_2_778
10
17.3698045
20
105.727556
40
1.2971498
50
359.9966051
51
3.7954532
0
ARC
8
DEFAULT_255_2_778
10
17.3615109
20
105.7248085
40
1.3054462
50
328.1074285
51
0.1172153
0
ARC
8
DEFAULT_255_2_778
10
17.3626009
20
105.7228496
40
1.3034863
50
276.1451864
51
328.1552184
0
ARC
8
DEFAULT_255_2_778
10
17.361704
20
105.7424075
40
1.3230283
50
269.9891883
51
276.0931369
0
ARC
8
DEFAULT_255_2_778
10
17.365616
20
105.72204
40
0.7573723
50
269.6851627
51
316.0204287
0
ARC
8
DEFAULT_255_2_778
10
17.3607868
20
105.7230889
40
0.7615801
50
316.2159375
51
0.3302942
0
ARC
8
DEFAULT_255_2_778
10
17.3696724
20
105.7267627
40
0.7526823
50
0.0545399
51
85.3801077
0
ARC
8
DEFAULT_255_2_778
10
17.3615889
20
105.6863031
40
0.793676
50
85.0337063
51
90.0097107
0
ARC
8
DEFAULT_255_2_778
10
17.3608055
20
105.7276224
40
0.7523571
50
89.950584
51
177.7945888
0
ARC
8
DEFAULT_255_2_778
10
17.3749575
20
105.7275059
40
0.7665032
50
177.8265967
51
180.0019985
0
ARC
8
DEFAULT_255_2_778
10
17.3738539
20
105.7235227
40
0.7654098
50
179.7038321
51
222.1989357
0
ARC
8
DEFAULT_255_2_778
10
17.3596298
20
105.7114205
40
0.7467434
50
222.2441262
51
270.1399959
0
ARC
8
DEFAULT_255_2_778
10
9.3661953
20
105.7026363
40
1.2832573
50
232.9444752
51
270.0294264
0
ARC
8
DEFAULT_255_2_778
10
9.3801185
20
105.7252392
40
1.309688
50
187.7220619
51
233.0542317
0
ARC
8
DEFAULT_255_2_778
10
9.399446
20
105.7271092
40
1.3290916
50
179.9840519
51
187.6899902
0
ARC
8
DEFAULT_255_2_778
10
9.3661435
20
105.7242375
40
1.2957932
50
146.5712859
51
179.856664
0
ARC
8
DEFAULT_255_2_778
10
9.3718497
20
105.7226083
40
1.3014542
50
96.2202672
51
146.6498182
0
ARC
8
DEFAULT_255_2_778
10
9.371979
20
105.707672
40
1.3163172
50
90.2230618
51
96.1554199
0
ARC
8
DEFAULT_255_2_778
10
9.3689712
20
105.7206994
40
1.3032814
50
58.1028503
51
90.093062
0
ARC
8
DEFAULT_255_2_778
10
9.3750118
20
105.723756
40
1.2974994
50
3.9626176
51
58.2579977
0
ARC
8
DEFAULT_255_2_778
10
9.3751045
20
105.727556
40
1.2971498
50
359.9966051
51
3.7954532
0
ARC
8
DEFAULT_255_2_778
10
9.3665167
20
105.7247699
40
1.3057405
50
328.1174595
51
0.118882
0
ARC
8
DEFAULT_255_2_778
10
9.3681374
20
105.7225655
40
1.3032005
50
276.6132577
51
328.1621178
0
ARC
8
DEFAULT_255_2_778
10
9.3671443
20
105.741988
40
1.3226088
50
269.9874371
51
276.559089
0
ARC
8
DEFAULT_255_2_778
10
9.3709855
20
105.7220111
40
0.7573432
50
269.6874622
51
316.2799796
0
ARC
8
DEFAULT_255_2_778
10
9.3661266
20
105.723141
40
0.7616402
50
316.4711746
51
0.3263467
0
ARC
8
DEFAULT_255_2_778
10
9.3747216
20
105.7264636
40
0.7530334
50
0.0772648
51
85.7305483
0
ARC
8
DEFAULT_255_2_778
10
9.3669682
20
105.6869743
40
0.7930048
50
85.3843136
51
90.0082261
0
ARC
8
DEFAULT_255_2_778
10
9.365942
20
105.7278957
40
0.752084
50
89.9304929
51
177.8146271
0
ARC
8
DEFAULT_255_2_778
10
9.3814728
20
105.7275058
40
0.7676183
50
177.8297522
51
180.0019923
0
ARC
8
DEFAULT_255_2_778
10
9.3792877
20
105.7234968
40
0.7654437
50
179.7019109
51
222.1940298
0
ARC
8
DEFAULT_255_2_778
10
9.3649802
20
105.7113879
40
0.746711
50
222.2430072
51
270.143803
0
LINE
8
DEFAULT_255_2_778
10
13.8784543
20
106.9448791
11
13.8784543
21
104.4789791
0
LINE
8
DEFAULT_255_2_778
10
13.8784543
20
104.4789791
11
14.4219543
21
104.4789791
0
LINE
8
DEFAULT_255_2_778
10
14.4219543
20
104.4789791
11
14.4219543
21
106.4889791
0
LINE
8
DEFAULT_255_2_778
10
14.4219543
20
106.4889791
11
15.0648543
21
106.4889791
0
LINE
8
DEFAULT_255_2_778
10
15.0648543
20
105.7274791
11
14.6002543
21
105.7274791
0
LINE
8
DEFAULT_255_2_778
10
14.6002543
20
105.7274791
11
15.4413543
21
104.4789791
0
LINE
8
DEFAULT_255_2_778
10
15.4413543
20
104.4789791
11
16.1142543
21
104.4789791
0
LINE
8
DEFAULT_255_2_778
10
16.1142543
20
104.4789791
11
15.5009543
21
105.3803791
0
LINE
8
DEFAULT_255_2_778
10
15.1437543
20
106.9654791
11
14.4216543
21
106.9654791
0
LINE
8
DEFAULT_255_2_778
10
14.4216543
20
106.9654791
11
13.8782543
21
106.9448791
0
LINE
8
DEFAULT_255_2_778
10
13.8782543
20
106.9448791
11
13.8784543
21
106.9448791
0
LINE
8
DEFAULT_255_2_778
10
18.8158543
20
106.9448791
11
18.8158543
21
104.4789791
0
LINE
8
DEFAULT_255_2_778
10
18.8158543
20
104.4789791
11
19.3593543
21
104.4789791
0
LINE
8
DEFAULT_255_2_778
10
19.3593543
20
104.4789791
11
19.3593543
21
106.4889791
0
LINE
8
DEFAULT_255_2_778
10
19.3593543
20
106.4889791
11
19.9739543
21
106.4889791
0
LINE
8
DEFAULT_255_2_778
10
20.3594543
20
106.1132791
11
20.3594543
21
104.4789791
0
LINE
8
DEFAULT_255_2_778
10
20.3594543
20
104.4789791
11
20.9026543
21
104.4789791
0
LINE
8
DEFAULT_255_2_778
10
20.9026543
20
104.4789791
11
20.9026543
21
106.0939791
0
LINE
8
DEFAULT_255_2_778
10
20.0318543
20
106.9654791
11
19.3590543
21
106.9654791
0
LINE
8
DEFAULT_255_2_778
10
19.3590543
20
106.9654791
11
18.8156543
21
106.9448791
0
LINE
8
DEFAULT_255_2_778
10
18.8156543
20
106.9448791
11
18.8158543
21
106.9448791
0
LINE
8
DEFAULT_255_2_778
10
10.8212543
20
106.9448791
11
10.8212543
21
104.4789791
0
LINE
8
DEFAULT_255_2_778
10
10.8212543
20
104.4789791
11
11.3646543
21
104.4789791
0
LINE
8
DEFAULT_255_2_778
10
11.3646543
20
104.4789791
11
11.3646543
21
106.4889791
0
LINE
8
DEFAULT_255_2_778
10
11.3646543
20
106.4889791
11
11.9689543
21
106.4889791
0
LINE
8
DEFAULT_255_2_778
10
11.9689543
20
106.4889791
11
11.9689543
21
104.4789791
0
LINE
8
DEFAULT_255_2_778
10
11.9689543
20
104.4789791
11
12.5124543
21
104.4789791
0
LINE
8
DEFAULT_255_2_778
10
12.5124543
20
104.4789791
11
12.5124543
21
106.4889791
0
LINE
8
DEFAULT_255_2_778
10
12.5124543
20
106.4889791
11
12.7206543
21
106.4889791
0
LINE
8
DEFAULT_255_2_778
10
13.1061543
20
106.1132791
11
13.1061543
21
104.4789791
0
LINE
8
DEFAULT_255_2_778
10
13.1061543
20
104.4789791
11
13.6509543
21
104.4789791
0
LINE
8
DEFAULT_255_2_778
10
13.6509543
20
104.4789791
11
13.6509543
21
106.0939791
0
LINE
8
DEFAULT_255_2_778
10
12.7801543
20
106.9654791
11
11.3749543
21
106.9654791
0
LINE
8
DEFAULT_255_2_778
10
11.3749543
20
106.9654791
11
10.8212543
21
106.9448791
0
LINE
8
DEFAULT_255_2_778
10
10.8212543
20
106.9448791
11
10.8212543
21
106.9448791
0
LINE
8
DEFAULT_255_2_778
10
17.3614543
20
104.4193791
11
17.3614543
21
104.4193791
0
LINE
8
DEFAULT_255_2_778
10
9.3668543
20
104.4193791
11
9.3668543
21
104.4193791
0
LINE
8
DEFAULT_255_1_234
10
11.6141879
20
103.0441211
11
11.6141879
21
101.8747
0
LINE
8
DEFAULT_255_1_234
10
11.6141879
20
101.8747
11
11.4591753
21
101.8747
0
LINE
8
DEFAULT_255_1_234
10
11.4591753
20
101.8747
11
10.8704489
21
102.775861
0
LINE
8
DEFAULT_255_1_234
10
10.8704489
20
102.775861
11
10.8704489
21
101.8747
0
LINE
8
DEFAULT_255_1_234
10
10.8704489
20
101.8747
11
10.7154364
21
101.8747
0
LINE
8
DEFAULT_255_1_234
10
10.7154364
20
101.8747
11
10.7154364
21
103.0441211
0
LINE
8
DEFAULT_255_1_234
10
10.7154364
20
103.0441211
11
10.8704489
21
103.0441211
0
LINE
8
DEFAULT_255_1_234
10
10.8704489
20
103.0441211
11
11.4607817
21
102.1389442
0
LINE
8
DEFAULT_255_1_234
10
11.4607817
20
102.1389442
11
11.4607817
21
103.0441211
0
LINE
8
DEFAULT_255_1_234
10
11.4607817
20
103.0441211
11
11.6141879
21
103.0441211
0
LINE
8
DEFAULT_255_1_234
10
12.0013177
20
103.0441211
11
12.2832317
21
102.5959501
0
LINE
8
DEFAULT_255_1_234
10
12.2832317
20
102.5959501
11
12.5635394
21
103.0441211
0
LINE
8
DEFAULT_255_1_234
10
12.5635394
20
103.0441211
11
12.7450566
21
103.0441211
0
LINE
8
DEFAULT_255_1_234
10
12.7450566
20
103.0441211
11
12.3755967
21
102.4642296
0
LINE
8
DEFAULT_255_1_234
10
12.3755967
20
102.4642296
11
12.7538916
21
101.8747
0
LINE
8
DEFAULT_255_1_234
10
12.7538916
20
101.8747
11
12.5707679
21
101.8747
0
LINE
8
DEFAULT_255_1_234
10
12.5707679
20
101.8747
11
12.2832317
21
102.3309027
0
LINE
8
DEFAULT_255_1_234
10
12.2832317
20
102.3309027
11
11.9940891
21
101.8747
0
LINE
8
DEFAULT_255_1_234
10
11.9940891
20
101.8747
11
11.8117687
21
101.8747
0
LINE
8
DEFAULT_255_1_234
10
11.8117687
20
101.8747
11
12.1908667
21
102.4642296
0
LINE
8
DEFAULT_255_1_234
10
12.1908667
20
102.4642296
11
11.8206036
21
103.0441211
0
LINE
8
DEFAULT_255_1_234
10
11.8206036
20
103.0441211
11
12.0013177
21
103.0441211
0
LINE
8
DEFAULT_255_1_234
10
13.1819832
20
102.4321026
11
13.1819832
21
102.3108234
0
LINE
8
DEFAULT_255_1_234
10
13.1819832
20
102.3108234
11
12.7900344
21
102.3108234
0
LINE
8
DEFAULT_255_1_234
10
12.7900344
20
102.3108234
11
12.7900344
21
102.4321026
0
LINE
8
DEFAULT_255_1_234
10
12.7900344
20
102.4321026
11
13.1819832
21
102.4321026
0
LINE
8
DEFAULT_255_1_234
10
14.1257125
20
102.7059849
11
13.9706999
21
102.7059849
0
LINE
8
DEFAULT_255_1_234
10
13.2783641
20
102.2136394
11
13.4333766
21
102.2136394
0
ARC
8
DEFAULT_255_1_234
10
14.0365812
20
103.6006768
40
1.252368
50
248.9199003
51
254.1439814
0
ARC
8
DEFAULT_255_1_234
10
13.8685307
20
103.1680234
40
0.788226
50
241.633709
51
249.0064503
0
ARC
8
DEFAULT_255_1_234
10
13.7156701
20
102.8879317
40
0.4691427
50
230.498225
51
241.8087113
0
ARC
8
DEFAULT_255_1_234
10
13.6372275
20
102.7879906
40
0.3421437
50
227.4064532
51
229.9881192
0
ARC
8
DEFAULT_255_1_234
10
13.5884796
20
102.7404088
40
0.2741476
50
200.6781896
51
228.1763934
0
ARC
8
DEFAULT_255_1_234
10
13.5957107
20
102.7389077
40
0.2804109
50
179.5061581
51
199.8694617
0
ARC
8
DEFAULT_255_1_234
10
13.5947858
20
102.746321
40
0.2795204
50
132.4834203
51
181.0242172
0
ARC
8
DEFAULT_255_1_234
10
13.6543441
20
102.6900704
40
0.3612768
50
129.2532479
51
133.4242687
0
ARC
8
DEFAULT_255_1_234
10
13.668989
20
102.6680965
40
0.3875675
50
101.98776
51
128.8742646
0
ARC
8
DEFAULT_255_1_234
10
13.7088501
20
102.4959741
40
0.5642249
50
89.5906553
51
102.3169264
0
ARC
8
DEFAULT_255_1_234
10
13.7158993
20
102.5278148
40
0.5323783
50
77.2360837
51
90.3248275
0
ARC
8
DEFAULT_255_1_234
10
13.7366072
20
102.62454
40
0.4334697
50
63.837784
51
77.0809408
0
ARC
8
DEFAULT_255_1_234
10
13.7643834
20
102.6762911
40
0.3747796
50
45.9864267
51
64.1607727
0
ARC
8
DEFAULT_255_1_234
10
13.7904715
20
102.7060866
40
0.3352302
50
32.2747395
51
45.6547121
0
ARC
8
DEFAULT_255_1_234
10
13.7971156
20
102.707988
40
0.328603
50
359.6507365
51
32.6130309
0
ARC
8
DEFAULT_255_1_234
10
13.7028251
20
102.708466
40
0.2678863
50
359.469343
51
14.9832209
0
ARC
8
DEFAULT_255_1_234
10
13.7733314
20
102.7273539
40
0.1948938
50
14.9781179
51
48.2004265
0
ARC
8
DEFAULT_255_1_234
10
13.7568958
20
102.7066983
40
0.2212521
50
48.5927837
51
74.1241538
0
ARC
8
DEFAULT_255_1_234
10
13.7235447
20
102.5966248
40
0.3362561
50
73.7888341
51
86.6652678
0
ARC
8
DEFAULT_255_1_234
10
13.7133013
20
102.4758881
40
0.4573953
50
86.2640471
51
90.0526343
0
ARC
8
DEFAULT_255_1_234
10
13.7104725
20
102.5154192
40
0.4178709
50
89.6697524
51
99.2309573
0
ARC
8
DEFAULT_255_1_234
10
13.6862176
20
102.6598964
40
0.2713749
50
99.069534
51
113.7658566
0
ARC
8
DEFAULT_255_1_234
10
13.6588367
20
102.7244677
40
0.2012469
50
114.0401004
51
127.9850673
0
ARC
8
DEFAULT_255_1_234
10
13.6347931
20
102.754073
40
0.1631167
50
127.7287463
51
176.7105154
0
ARC
8
DEFAULT_255_1_234
10
13.7026649
20
102.7439693
40
0.2315392
50
175.1779447
51
180.0581938
0
ARC
8
DEFAULT_255_1_234
10
13.6183496
20
102.7427428
40
0.1472271
50
179.6142195
51
228.1246017
0
ARC
8
DEFAULT_255_1_234
10
13.6625164
20
102.7836308
40
0.2072299
50
226.5779593
51
230.8800004
0
ARC
8
DEFAULT_255_1_234
10
13.7096243
20
102.8461636
40
0.2854818
50
231.4635071
51
241.9260842
0
ARC
8
DEFAULT_255_1_234
10
13.8293421
20
103.06648
40
0.53622
50
241.7178533
51
248.3259551
0
ARC
8
DEFAULT_255_1_234
10
13.9678793
20
103.4097064
40
0.9063478
50
248.2007737
51
252.4528373
0
ARC
8
DEFAULT_255_1_234
10
14.0882518
20
103.7818441
40
1.2974635
50
252.3391078
51
254.3469452
0
ARC
8
DEFAULT_255_1_234
10
13.334022
20
101.0841148
40
1.5037162
50
71.0197183
51
74.4087047
0
ARC
8
DEFAULT_255_1_234
10
13.5034906
20
101.5733111
40
0.9859993
50
66.1847285
51
71.086374
0
ARC
8
DEFAULT_255_1_234
10
13.6591218
20
101.92372
40
0.6025855
50
59.3536294
51
66.2691831
0
ARC
8
DEFAULT_255_1_234
10
13.747987
20
102.0740609
40
0.4279449
50
49.1020879
51
59.3293958
0
ARC
8
DEFAULT_255_1_234
10
13.829861
20
102.1673834
40
0.3038015
50
32.7919921
51
49.2505539
0
ARC
8
DEFAULT_255_1_234
10
13.86197
20
102.1902191
40
0.264448
50
31.1181161
51
32.4005348
0
ARC
8
DEFAULT_255_1_234
10
13.8531238
20
102.1866779
40
0.2738556
50
8.1116974
51
30.7958831
0
ARC
8
DEFAULT_255_1_234
10
13.7720906
20
102.1728753
40
0.3560327
50
359.8389159
51
8.4706516
0
ARC
8
DEFAULT_255_1_234
10
13.8346697
20
102.1680137
40
0.2934776
50
337.4731098
51
0.7537279
0
ARC
8
DEFAULT_255_1_234
10
13.8525392
20
102.1660387
40
0.2762607
50
307.5917067
51
336.4315538
0
ARC
8
DEFAULT_255_1_234
10
13.806522
20
102.2173102
40
0.3449979
50
307.6551545
51
308.4529766
0
ARC
8
DEFAULT_255_1_234
10
13.7834939
20
102.252825
40
0.3871988
50
284.3734338
51
307.1424381
0
ARC
8
DEFAULT_255_1_234
10
13.7339769
20
102.4349932
40
0.5759636
50
272.4382747
51
284.646547
0
ARC
8
DEFAULT_255_1_234
10
13.7212978
20
102.6149893
40
0.7563528
50
269.9708387
51
272.8178037
0
ARC
8
DEFAULT_255_1_234
10
13.7170018
20
102.4111716
40
0.5525489
50
248.2707594
51
270.4055579
0
ARC
8
DEFAULT_255_1_234
10
13.7115759
20
102.3921192
40
0.5328452
50
246.1383403
51
248.0542782
0
ARC
8
DEFAULT_255_1_234
10
13.6697138
20
102.3041843
40
0.4355005
50
233.1670131
51
246.4950969
0
ARC
8
DEFAULT_255_1_234
10
13.6143043
20
102.2293812
40
0.3424126
50
215.3403242
51
233.0843104
0
ARC
8
DEFAULT_255_1_234
10
13.5870474
20
102.2095549
40
0.3087104
50
179.2419209
51
215.2648451
0
ARC
8
DEFAULT_255_1_234
10
13.6638068
20
102.2109666
40
0.2304457
50
179.335461
51
199.1045811
0
ARC
8
DEFAULT_255_1_234
10
13.6305744
20
102.2022766
40
0.1962176
50
199.8828939
51
232.7063202
0
ARC
8
DEFAULT_255_1_234
10
13.6778013
20
102.2616788
40
0.2720938
50
232.3738199
51
255.5136649
0
ARC
8
DEFAULT_255_1_234
10
13.7118879
20
102.3860835
40
0.4010747
50
255.2446292
51
267.5320849
0
ARC
8
DEFAULT_255_1_234
10
13.7206503
20
102.5093702
40
0.5246356
50
267.1557994
51
270.0286766
0
ARC
8
DEFAULT_255_1_234
10
13.7234275
20
102.464995
40
0.4802668
50
269.7000017
51
278.1660162
0
ARC
8
DEFAULT_255_1_234
10
13.749028
20
102.2919515
40
0.3053425
50
278.0231263
51
290.625471
0
ARC
8
DEFAULT_255_1_234
10
13.7837967
20
102.1992025
40
0.206291
50
290.6619762
51
307.0370976
0
ARC
8
DEFAULT_255_1_234
10
13.8138356
20
102.1623504
40
0.1587906
50
306.3943566
51
355.3030547
0
ARC
8
DEFAULT_255_1_234
10
13.7626288
20
102.1700113
40
0.2104809
50
354.3660432
51
0.0698737
0
ARC
8
DEFAULT_255_1_234
10
13.7768633
20
102.1722617
40
0.1962563
50
359.417946
51
16.1971788
0
ARC
8
DEFAULT_255_1_234
10
13.8223943
20
102.1847418
40
0.149053
50
16.4723299
51
52.6262157
0
ARC
8
DEFAULT_255_1_234
10
13.7402997
20
102.0763433
40
0.2850296
50
52.7386432
51
62.4979148
0
ARC
8
DEFAULT_255_1_234
10
13.6018074
20
101.8157283
40
0.5801521
50
62.2515216
51
68.1220564
0
ARC
8
DEFAULT_255_1_234
10
13.4297985
20
101.3929872
40
1.0365451
50
68.0062803
51
71.8053402
0
ARC
8
DEFAULT_255_1_234
10
13.2502356
20
100.8544758
40
1.6042013
50
71.7183119
51
73.9258742
0
LINE
8
DEFAULT_255_1_234
10
14.2646615
20
102.2851218
11
14.2646615
21
102.3124297
0
LINE
8
DEFAULT_255_1_234
10
15.0019751
20
102.3284932
11
15.0019751
21
102.2666488
0
LINE
8
DEFAULT_255_1_234
10
15.0019751
20
102.2666488
11
14.4132487
21
102.2666488
0
LINE
8
DEFAULT_255_1_234
10
14.899972
20
102.0971792
11
14.9907307
21
102.0264999
0
LINE
8
DEFAULT_255_1_234
10
14.4180677
20
102.3887313
11
14.8533879
21
102.3887313
0
LINE
8
DEFAULT_255_1_234
10
14.8533879
20
102.3887313
11
14.8533879
21
102.3999757
0
ARC
8
DEFAULT_255_1_234
10
14.658598
20
102.2962332
40
0.4376191
50
252.3266134
51
270.5810217
0
ARC
8
DEFAULT_255_1_234
10
14.6381069
20
102.2221644
40
0.3608374
50
223.3000567
51
251.8561855
0
ARC
8
DEFAULT_255_1_234
10
14.659243
20
102.2426937
40
0.3902993
50
190.9374509
51
223.3654032
0
ARC
8
DEFAULT_255_1_234
10
14.8317402
20
102.2816885
40
0.5670891
50
179.6531105
51
191.4989439
0
ARC
8
DEFAULT_255_1_234
10
14.8439415
20
102.3156417
40
0.5792888
50
167.4007466
51
180.3176909
0
ARC
8
DEFAULT_255_1_234
10
14.7387476
20
102.3378885
40
0.471777
50
154.1835823
51
167.250763
0
ARC
8
DEFAULT_255_1_234
10
14.6755944
20
102.3711417
40
0.4004528
50
134.3149965
51
154.5315275
0
ARC
8
DEFAULT_255_1_234
10
14.6538439
20
102.3902228
40
0.371612
50
122.8616532
51
133.9707695
0
ARC
8
DEFAULT_255_1_234
10
14.6435013
20
102.4124703
40
0.3473289
50
89.8249009
51
123.4199222
0
ARC
8
DEFAULT_255_1_234
10
14.6485054
20
102.3477967
40
0.4120197
50
74.7876118
51
90.5482747
0
ARC
8
DEFAULT_255_1_234
10
14.6778797
20
102.456303
40
0.2996077
50
39.8178249
51
74.7633718
0
ARC
8
DEFAULT_255_1_234
10
14.6266117
20
102.4163351
40
0.3645855
50
16.8990863
51
39.4829761
0
ARC
8
DEFAULT_255_1_234
10
14.4371414
20
102.3556526
40
0.5635218
50
4.9636328
51
17.2026414
0
ARC
8
DEFAULT_255_1_234
10
14.1953484
20
102.330134
40
0.8066286
50
359.8834553
51
5.2834307
0
ARC
8
DEFAULT_255_1_234
10
14.7991008
20
102.2732803
40
0.3859091
50
180.9846213
51
194.9401313
0
ARC
8
DEFAULT_255_1_234
10
14.6941286
20
102.2445849
40
0.2770883
50
194.80314
51
222.0412631
0
ARC
8
DEFAULT_255_1_234
10
14.6637168
20
102.2144116
40
0.2343055
50
221.5417084
51
268.8614402
0
ARC
8
DEFAULT_255_1_234
10
14.6710163
20
102.2820686
40
0.3021528
50
267.732405
51
270.0097136
0
ARC
8
DEFAULT_255_1_234
10
14.6727973
20
102.3022105
40
0.3222994
50
269.6924892
51
280.4117579
0
ARC
8
DEFAULT_255_1_234
10
14.690438
20
102.2103193
40
0.2287344
50
280.2255091
51
298.6338936
0
ARC
8
DEFAULT_255_1_234
10
14.7021171
20
102.1859223
40
0.2017294
50
299.0430333
51
300.4643464
0
ARC
8
DEFAULT_255_1_234
10
14.6341177
20
102.2993038
40
0.3339357
50
300.6577328
51
322.0378878
0
ARC
8
DEFAULT_255_1_234
10
14.5990716
20
102.3297021
40
0.3802736
50
321.6750233
51
322.3046845
0
ARC
8
DEFAULT_255_1_234
10
14.6921677
20
102.213037
40
0.3520454
50
276.9728461
51
328.0035423
0
ARC
8
DEFAULT_255_1_234
10
14.664473
20
102.3610841
40
0.5024498
50
269.8361028
51
278.0581756
0
ARC
8
DEFAULT_255_1_234
10
14.6417468
20
102.4355757
40
0.202159
50
89.2018686
51
117.2851756
0
ARC
8
DEFAULT_255_1_234
10
14.6470637
20
102.4313752
40
0.2083484
50
118.0551165
51
137.4540413
0
ARC
8
DEFAULT_255_1_234
10
14.6845377
20
102.3973304
40
0.2589774
50
137.5109581
51
158.8516286
0
ARC
8
DEFAULT_255_1_234
10
14.7983212
20
102.3514074
40
0.38167
50
158.5845963
51
170.1721436
0
ARC
8
DEFAULT_255_1_234
10
14.9152601
20
102.3281823
40
0.5008657
50
169.8376422
51
173.0566086
0
ARC
8
DEFAULT_255_1_234
10
14.4455675
20
102.3792509
40
0.4083467
50
2.9091802
51
12.8847116
0
ARC
8
DEFAULT_255_1_234
10
14.5826352
20
102.4115101
40
0.2675383
50
12.6957781
51
28.6404489
0
ARC
8
DEFAULT_255_1_234
10
14.6368023
20
102.4395458
40
0.2065654
50
29.0169854
51
41.1487595
0
ARC
8
DEFAULT_255_1_234
10
14.6570808
20
102.4572003
40
0.1796786
50
41.1646065
51
85.0013516
0
ARC
8
DEFAULT_255_1_234
10
14.6449904
20
102.3837431
40
0.2539726
50
83.7280015
51
90.0964893
0
LINE
8
DEFAULT_255_1_234
10
15.5939142
20
102.7485531
11
15.5939142
21
102.6104072
0
LINE
8
DEFAULT_255_1_234
10
15.3224415
20
102.4915375
11
15.3224415
21
101.8747
0
LINE
8
DEFAULT_255_1_234
10
15.3224415
20
101.8747
11
15.1738543
21
101.8747
0
LINE
8
DEFAULT_255_1_234
10
15.1738543
20
101.8747
11
15.1738543
21
102.7437341
0
LINE
8
DEFAULT_255_1_234
10
15.1738543
20
102.7437341
11
15.3184256
21
102.7437341
0
LINE
8
DEFAULT_255_1_234
10
15.3184256
20
102.7437341
11
15.3208351
21
102.6433374
0
ARC
8
DEFAULT_255_1_234
10
15.5272548
20
102.2044342
40
0.4114092
50
80.6754243
51
86.8932892
0
ARC
8
DEFAULT_255_1_234
10
15.5212082
20
102.10767
40
0.5083596
50
86.8038578
51
90.0431435
0
ARC
8
DEFAULT_255_1_234
10
15.5175063
20
102.3533866
40
0.2626638
50
89.2759698
51
106.6213787
0
ARC
8
DEFAULT_255_1_234
10
15.4970627
20
102.427683
40
0.1856317
50
107.1346045
51
157.6458115
0
ARC
8
DEFAULT_255_1_234
10
15.5662228
20
102.3893311
40
0.2643398
50
155.6586782
51
157.2539184
0
ARC
8
DEFAULT_255_1_234
10
15.545743
20
102.5062157
40
0.2634121
50
127.8165941
51
148.6302098
0
ARC
8
DEFAULT_255_1_234
10
15.5203899
20
102.5322218
40
0.2273596
50
91.3329982
51
126.7875809
0
ARC
8
DEFAULT_255_1_234
10
15.527984
20
102.4607195
40
0.299078
50
89.986594
51
92.4688449
0
ARC
8
DEFAULT_255_1_234
10
15.5288235
20
102.4882078
40
0.2715908
50
85.3589899
51
90.1623399
0
ARC
8
DEFAULT_255_1_234
10
15.537275
20
102.5886164
40
0.1708278
50
78.401942
51
85.4594656
0
ARC
8
DEFAULT_255_1_234
10
15.5517634
20
102.6577236
40
0.1002194
50
67.7858312
51
78.5728455
0
ARC
8
DEFAULT_255_1_234
10
15.5625487
20
102.6856887
40
0.0702548
50
63.4835954
51
67.3062642
0
LINE
8
DEFAULT_255_1_234
10
15.8918917
20
102.7437341
11
15.8918917
21
101.8747
0
LINE
8
DEFAULT_255_1_234
10
15.8918917
20
101.8747
11
15.7433045
21
101.8747
0
LINE
8
DEFAULT_255_1_234
10
15.7433045
20
101.8747
11
15.7433045
21
102.7437341
0
LINE
8
DEFAULT_255_1_234
10
15.7433045
20
102.7437341
11
15.8918917
21
102.7437341
0
ARC
8
DEFAULT_255_1_234
10
15.8291194
20
102.9751889
40
0.097867
50
161.415052
51
180.5526306
0
ARC
8
DEFAULT_255_1_234
10
15.8166972
20
102.9786077
40
0.0850062
50
138.1827368
51
160.9307106
0
ARC
8
DEFAULT_255_1_234
10
15.8056918
20
102.9881588
40
0.0704362
50
104.6368899
51
138.0039868
0
ARC
8
DEFAULT_255_1_234
10
15.8164073
20
102.9514963
40
0.1086221
50
92.0600725
51
105.2189128
0
ARC
8
DEFAULT_255_1_234
10
15.8187421
20
102.9172117
40
0.1429728
50
89.9756393
51
92.5012496
0
ARC
8
DEFAULT_255_1_234
10
15.819744
20
102.9397731
40
0.1204151
50
78.0235316
51
90.4478182
0
ARC
8
DEFAULT_255_1_234
10
15.8289532
20
102.9811295
40
0.0780493
50
55.051506
51
78.3369085
0
ARC
8
DEFAULT_255_1_234
10
15.8339807
20
102.9895711
40
0.0682538
50
42.0501187
51
54.4513741
0
ARC
8
DEFAULT_255_1_234
10
15.8204674
20
102.9771798
40
0.0865878
50
1.7497075
51
42.1496013
0
ARC
8
DEFAULT_255_1_234
10
15.7950007
20
102.9742738
40
0.1121515
50
359.9852656
51
2.8364544
0
ARC
8
DEFAULT_255_1_234
10
15.8115999
20
102.9733229
40
0.0955566
50
342.1070653
51
0.552888
0
ARC
8
DEFAULT_255_1_234
10
15.8258696
20
102.9693904
40
0.0807713
50
316.7107116
51
341.6516965
0
ARC
8
DEFAULT_255_1_234
10
15.8325733
20
102.9633823
40
0.0717724
50
285.4397031
51
316.5324284
0
ARC
8
DEFAULT_255_1_234
10
15.821565
20
102.9999554
40
0.1099597
50
272.3547054
51
285.8953117
0
ARC
8
DEFAULT_255_1_234
10
15.8188808
20
103.0365048
40
0.1465932
50
269.9695369
51
272.8160237
0
ARC
8
DEFAULT_255_1_234
10
15.817899
20
103.0145863
40
0.1246779
50
258.8431134
51
270.4153935
0
ARC
8
DEFAULT_255_1_234
10
15.8089032
20
102.9710414
40
0.0802162
50
238.5431189
51
259.1288175
0
ARC
8
DEFAULT_255_1_234
10
15.8020917
20
102.9586856
40
0.0661247
50
222.5062634
51
237.9906969
0
ARC
8
DEFAULT_255_1_234
10
15.8148504
20
102.9702889
40
0.0833707
50
184.1069131
51
222.460413
0
ARC
8
DEFAULT_255_1_234
10
15.8417745
20
102.9741349
40
0.1105176
50
179.9429482
51
185.0960898
0
LINE
8
DEFAULT_255_1_234
10
16.091882
20
102.2851218
11
16.091882
21
102.3124297
0
LINE
8
DEFAULT_255_1_234
10
16.8291956
20
102.3284932
11
16.8291956
21
102.2666488
0
LINE
8
DEFAULT_255_1_234
10
16.8291956
20
102.2666488
11
16.2404691
21
102.2666488
0
LINE
8
DEFAULT_255_1_234
10
16.7271925
20
102.0971792
11
16.8179511
21
102.0264999
0
LINE
8
DEFAULT_255_1_234
10
16.2452882
20
102.3887313
11
16.6806084
21
102.3887313
0
LINE
8
DEFAULT_255_1_234
10
16.6806084
20
102.3887313
11
16.6806084
21
102.3999757
0
ARC
8
DEFAULT_255_1_234
10
16.4858185
20
102.2962332
40
0.4376191
50
252.3266134
51
270.5810217
0
ARC
8
DEFAULT_255_1_234
10
16.4653274
20
102.2221644
40
0.3608374
50
223.3000567
51
251.8561855
0
ARC
8
DEFAULT_255_1_234
10
16.4864635
20
102.2426937
40
0.3902993
50
190.9374509
51
223.3654032
0
ARC
8
DEFAULT_255_1_234
10
16.6589607
20
102.2816885
40
0.5670891
50
179.6531105
51
191.4989439
0
ARC
8
DEFAULT_255_1_234
10
16.6711619
20
102.3156417
40
0.5792888
50
167.4007466
51
180.3176909
0
ARC
8
DEFAULT_255_1_234
10
16.5659681
20
102.3378885
40
0.471777
50
154.1835823
51
167.250763
0
ARC
8
DEFAULT_255_1_234
10
16.5028148
20
102.3711417
40
0.4004528
50
134.3149965
51
154.5315275
0
ARC
8
DEFAULT_255_1_234
10
16.4810643
20
102.3902228
40
0.371612
50
122.8616532
51
133.9707695
0
ARC
8
DEFAULT_255_1_234
10
16.4707217
20
102.4124703
40
0.3473289
50
89.8249009
51
123.4199222
0
ARC
8
DEFAULT_255_1_234
10
16.4757258
20
102.3477967
40
0.4120197
50
74.7876118
51
90.5482747
0
ARC
8
DEFAULT_255_1_234
10
16.5051002
20
102.456303
40
0.2996077
50
39.8178249
51
74.7633718
0
ARC
8
DEFAULT_255_1_234
10
16.4538322
20
102.4163351
40
0.3645855
50
16.8990863
51
39.4829761
0
ARC
8
DEFAULT_255_1_234
10
16.2643618
20
102.3556526
40
0.5635218
50
4.9636328
51
17.2026414
0
ARC
8
DEFAULT_255_1_234
10
16.0225688
20
102.330134
40
0.8066286
50
359.8834553
51
5.2834307
0
ARC
8
DEFAULT_255_1_234
10
16.6263213
20
102.2732803
40
0.3859091
50
180.9846213
51
194.9401313
0
ARC
8
DEFAULT_255_1_234
10
16.5213491
20
102.2445849
40
0.2770883
50
194.80314
51
222.0412631
0
ARC
8
DEFAULT_255_1_234
10
16.4909373
20
102.2144116
40
0.2343055
50
221.5417084
51
268.8614402
0
ARC
8
DEFAULT_255_1_234
10
16.4982367
20
102.2820686
40
0.3021528
50
267.732405
51
270.0097136
0
ARC
8
DEFAULT_255_1_234
10
16.5000177
20
102.3022105
40
0.3222994
50
269.6924892
51
280.4117579
0
ARC
8
DEFAULT_255_1_234
10
16.5176584
20
102.2103193
40
0.2287344
50
280.2255091
51
298.6338936
0
ARC
8
DEFAULT_255_1_234
10
16.5293376
20
102.1859223
40
0.2017294
50
299.0430333
51
300.4643464
0
ARC
8
DEFAULT_255_1_234
10
16.4613382
20
102.2993038
40
0.3339357
50
300.6577328
51
322.0378878
0
ARC
8
DEFAULT_255_1_234
10
16.4262921
20
102.3297021
40
0.3802736
50
321.6750233
51
322.3046845
0
ARC
8
DEFAULT_255_1_234
10
16.5193882
20
102.213037
40
0.3520454
50
276.9728461
51
328.0035423
0
ARC
8
DEFAULT_255_1_234
10
16.4916935
20
102.3610841
40
0.5024498
50
269.8361028
51
278.0581756
0
ARC
8
DEFAULT_255_1_234
10
16.4689672
20
102.4355757
40
0.202159
50
89.2018686
51
117.2851756
0
ARC
8
DEFAULT_255_1_234
10
16.4742841
20
102.4313752
40
0.2083484
50
118.0551165
51
137.4540413
0
ARC
8
DEFAULT_255_1_234
10
16.5117581
20
102.3973304
40
0.2589774
50
137.5109581
51
158.8516286
0
ARC
8
DEFAULT_255_1_234
10
16.6255417
20
102.3514074
40
0.38167
50
158.5845963
51
170.1721436
0
ARC
8
DEFAULT_255_1_234
10
16.7424806
20
102.3281823
40
0.5008657
50
169.8376422
51
173.0566086
0
ARC
8
DEFAULT_255_1_234
10
16.272788
20
102.3792509
40
0.4083467
50
2.9091802
51
12.8847116
0
ARC
8
DEFAULT_255_1_234
10
16.4098556
20
102.4115101
40
0.2675383
50
12.6957781
51
28.6404489
0
ARC
8
DEFAULT_255_1_234
10
16.4640227
20
102.4395458
40
0.2065654
50
29.0169854
51
41.1487595
0
ARC
8
DEFAULT_255_1_234
10
16.4843012
20
102.4572003
40
0.1796786
50
41.1646065
51
85.0013516
0
ARC
8
DEFAULT_255_1_234
10
16.4722109
20
102.3837431
40
0.2539726
50
83.7280015
51
90.0964893
0
LINE
8
DEFAULT_255_1_234
10
17.6476297
20
102.4883248
11
17.4982394
21
102.4883248
0
LINE
8
DEFAULT_255_1_234
10
16.9649319
20
102.1421569
11
17.1135191
21
102.1421569
0
ARC
8
DEFAULT_255_1_234
10
17.3794212
20
102.1066959
40
0.1276617
50
359.3334982
51
18.5871358
0
ARC
8
DEFAULT_255_1_234
10
17.4002849
20
102.1122133
40
0.1061371
50
19.3540742
51
54.6485071
0
ARC
8
DEFAULT_255_1_234
10
17.3498751
20
102.0426919
40
0.1920087
50
54.3827097
51
65.0622807
0
ARC
8
DEFAULT_255_1_234
10
17.2730148
20
101.88099
40
0.3710447
50
64.8282493
51
71.4200025
0
ARC
8
DEFAULT_255_1_234
10
17.1828023
20
101.6163107
40
0.6506741
50
71.3164301
51
75.8006402
0
ARC
8
DEFAULT_255_1_234
10
17.0986843
20
101.2922561
40
0.9854641
50
75.6809531
51
78.0061883
0
ARC
8
DEFAULT_255_1_234
10
17.5435376
20
103.390177
40
1.1591028
50
254.6901892
51
258.0466452
0
ARC
8
DEFAULT_255_1_234
10
17.4397285
20
103.0142781
40
0.7691345
50
249.9010773
51
254.755261
0
ARC
8
DEFAULT_255_1_234
10
17.3393627
20
102.7416982
40
0.478665
50
243.3097214
51
249.9709442
0
ARC
8
DEFAULT_255_1_234
10
17.2764648
20
102.6162778
40
0.3383568
50
234.4047477
51
243.2862168
0
ARC
8
DEFAULT_255_1_234
10
17.2142172
20
102.5303232
40
0.2322322
50
220.8667099
51
234.5493881
0
ARC
8
DEFAULT_255_1_234
10
17.1800112
20
102.4991817
40
0.1859923
50
214.3062465
51
220.5065136
0
ARC
8
DEFAULT_255_1_234
10
17.1774192
20
102.496088
40
0.1821108
50
186.912965
51
213.9618616
0
ARC
8
DEFAULT_255_1_234
10
17.2306286
20
102.5047009
40
0.2359799
50
179.8808832
51
187.4339886
0
ARC
8
DEFAULT_255_1_234
10
17.215142
20
102.5067088
40
0.2204978
50
132.005434
51
180.3942919
0
ARC
8
DEFAULT_255_1_234
10
17.2808033
20
102.4461083
40
0.3095791
50
129.2319861
51
133.5302299
0
ARC
8
DEFAULT_255_1_234
10
17.2861541
20
102.4366928
40
0.3202615
50
100.4410011
51
128.9081242
0
ARC
8
DEFAULT_255_1_234
10
17.3135425
20
102.3081455
40
0.4516583
50
89.6985377
51
100.9026564
0
ARC
8
DEFAULT_255_1_234
10
17.3192467
20
102.2921166
40
0.4676928
50
77.6965325
51
90.4076836
0
ARC
8
DEFAULT_255_1_234
10
17.3523451
20
102.4348413
40
0.3211988
50
50.7276602
51
78.0399361
0
ARC
8
DEFAULT_255_1_234
10
17.396791
20
102.4866296
40
0.2529778
50
25.7545084
51
51.0957453
0
ARC
8
DEFAULT_255_1_234
10
17.3969134
20
102.4916206
40
0.250738
50
359.2468627
51
24.7394243
0
ARC
8
DEFAULT_255_1_234
10
17.3684586
20
102.4887664
40
0.1297815
50
359.8050318
51
45.1544908
0
ARC
8
DEFAULT_255_1_234
10
17.3277728
20
102.4539794
40
0.1831883
50
43.8047702
51
49.6271585
0
ARC
8
DEFAULT_255_1_234
10
17.328563
20
102.4540678
40
0.18261
50
49.7980766
51
82.1218353
0
ARC
8
DEFAULT_255_1_234
10
17.3166601
20
102.3893998
40
0.2483163
50
81.4465357
51
90.1710293
0
ARC
8
DEFAULT_255_1_234
10
17.3142204
20
102.336788
40
0.300932
50
89.6766211
51
99.1264602
0
ARC
8
DEFAULT_255_1_234
10
17.2970666
20
102.4401537
40
0.1961547
50
98.968313
51
113.4570237
0
ARC
8
DEFAULT_255_1_234
10
17.2774751
20
102.4869965
40
0.1453859
50
113.722589
51
127.4763106
0
ARC
8
DEFAULT_255_1_234
10
17.2606397
20
102.5070124
40
0.1192639
50
126.9083309
51
150.3165862
0
ARC
8
DEFAULT_255_1_234
10
17.255873
20
102.5120981
40
0.112623
50
151.3635175
51
180.0701457
0
ARC
8
DEFAULT_255_1_234
10
17.2867515
20
102.509999
40
0.1435149
50
179.2169974
51
179.9954013
0
ARC
8
DEFAULT_255_1_234
10
17.2506572
20
102.5087056
40
0.1074286
50
179.3040112
51
198.4225446
0
ARC
8
DEFAULT_255_1_234
10
17.2314706
20
102.5037127
40
0.0876573
50
199.2895851
51
238.6034594
0
ARC
8
DEFAULT_255_1_234
10
17.2917552
20
102.598345
40
0.1998512
50
237.9846301
51
246.8744712
0
ARC
8
DEFAULT_255_1_234
10
17.3775497
20
102.7946205
40
0.4140547
50
246.6234531
51
251.8168941
0
ARC
8
DEFAULT_255_1_234
10
17.4806041
20
103.1040905
40
0.7402308
50
251.713434
51
255.0778414
0
ARC
8
DEFAULT_255_1_234
10
17.6005303
20
103.5507563
40
1.2027155
50
255.0367487
51
257.4705983
0
ARC
8
DEFAULT_255_1_234
10
17.0897313
20
101.2493863
40
1.1546601
50
73.6837552
51
77.5016755
0
ARC
8
DEFAULT_255_1_234
10
17.1986088
20
101.6193581
40
0.7690009
50
68.7044154
51
73.7249639
0
ARC
8
DEFAULT_255_1_234
10
17.2889109
20
101.8520654
40
0.5193873
50
63.590599
51
68.6626804
0
ARC
8
DEFAULT_255_1_234
10
17.3660128
20
102.0058123
40
0.3473927
50
54.7106439
51
63.7013633
0
ARC
8
DEFAULT_255_1_234
10
17.4284582
20
102.09304
40
0.2401192
50
41.0622434
51
54.8487496
0
ARC
8
DEFAULT_255_1_234
10
17.4625969
20
102.1243592
40
0.1938094
50
34.4950568
51
40.7105546
0
ARC
8
DEFAULT_255_1_234
10
17.4672776
20
102.1292078
40
0.1872106
50
9.3763373
51
34.0833615
0
ARC
8
DEFAULT_255_1_234
10
17.4019646
20
102.1166728
40
0.2536988
50
359.7694872
51
9.7663171
0
ARC
8
DEFAULT_255_1_234
10
17.4217147
20
102.1123764
40
0.2339696
50
335.8654732
51
0.8022045
0
ARC
8
DEFAULT_255_1_234
10
17.4292192
20
102.1137197
40
0.2277108
50
307.7357725
51
334.7849066
0
ARC
8
DEFAULT_255_1_234
10
17.3891367
20
102.1587645
40
0.2878951
50
307.0241536
51
308.5578354
0
ARC
8
DEFAULT_255_1_234
10
17.3633699
20
102.1973801
40
0.3342515
50
282.9362969
51
306.5646424
0
ARC
8
DEFAULT_255_1_234
10
17.3271996
20
102.3441108
40
0.4853615
50
271.1026298
51
283.2200835
0
ARC
8
DEFAULT_255_1_234
10
17.320824
20
102.4682418
40
0.6096052
50
269.9919117
51
271.4772449
0
ARC
8
DEFAULT_255_1_234
10
17.3181995
20
102.3604436
40
0.5018135
50
259.0723564
51
270.289833
0
ARC
8
DEFAULT_255_1_234
10
17.2969727
20
102.2487271
40
0.388099
50
245.4963068
51
259.0227342
0
ARC
8
DEFAULT_255_1_234
10
17.2691684
20
102.1905615
40
0.3236422
50
228.9684658
51
245.7044727
0
ARC
8
DEFAULT_255_1_234
10
17.2426127
20
102.1578575
40
0.2815426
50
214.4011705
51
228.6759915
0
ARC
8
DEFAULT_255_1_234
10
17.2136868
20
102.142029
40
0.2487548
50
179.9705531
51
215.1572795
0
ARC
8
DEFAULT_255_1_234
10
17.2837468
20
102.1493806
40
0.1703809
50
182.4299387
51
203.0329699
0
ARC
8
DEFAULT_255_1_234
10
17.2653125
20
102.1437396
40
0.1512226
50
203.798802
51
232.548466
0
ARC
8
DEFAULT_255_1_234
10
17.2929647
20
102.1788826
40
0.1959374
50
232.3782728
51
256.3934612
0
ARC
8
DEFAULT_255_1_234
10
17.3160008
20
102.2678842
40
0.2878639
50
256.104506
51
268.4626716
0
ARC
8
DEFAULT_255_1_234
10
17.3206493
20
102.3475487
40
0.3676329
50
268.0715632
51
270.0138206
0
ARC
8
DEFAULT_255_1_234
10
17.3225017
20
102.3203083
40
0.3403971
50
269.7031147
51
278.8341955
0
ARC
8
DEFAULT_255_1_234
10
17.3407111
20
102.2072876
40
0.2259217
50
278.6728789
51
292.8232582
0
ARC
8
DEFAULT_255_1_234
10
17.3607649
20
102.1571449
40
0.171929
50
293.1452328
51
303.6655899
0
ARC
8
DEFAULT_255_1_234
10
17.3872528
20
102.1195204
40
0.1259367
50
303.1248165
51
321.742847
0
ARC
8
DEFAULT_255_1_234
10
17.4058408
20
102.1032156
40
0.1012531
50
322.4748573
51
1.1291126
0
LINE
8
DEFAULT_255_2_778
10
19.9765417
20
92.4719078
11
18.6536417
21
92.4719078
0
LINE
8
DEFAULT_255_2_778
10
18.6536417
20
92.4719078
11
18.6536417
21
51.4615078
0
LINE
8
DEFAULT_255_2_778
10
17.3307834
20
51.4614333
11
19.9765834
21
51.4614333
0
LINE
8
DEFAULT_255_2_778
10
19.9765834
20
51.4614333
11
19.9765834
21
46.1697333
0
LINE
8
DEFAULT_255_2_778
10
19.9765834
20
46.1697333
11
17.3307834
21
46.1697333
0
LINE
8
DEFAULT_255_2_778
10
17.3307834
20
46.1697333
11
17.3307834
21
51.4614333
0
ARC
8
DEFAULT_255_2_778_1
10
21.1303591
20
46.272177
40
4.816461
50
120.9442904
51
122.351755
0
ARC
8
DEFAULT_255_2_778_1
10
20.6837523
20
46.9758039
40
3.9830657
50
122.3407904
51
124.1946752
0
ARC
8
DEFAULT_255_2_778_1
10
20.2438464
20
47.6223306
40
3.2010724
50
124.1855758
51
126.4338849
0
ARC
8
DEFAULT_255_2_778_1
10
19.8579129
20
48.1450611
40
2.5513094
50
126.4326926
51
128.8877368
0
ARC
8
DEFAULT_255_2_778_1
10
19.5230968
20
48.5594658
40
2.0185498
50
128.8749205
51
131.8726567
0
ARC
8
DEFAULT_255_2_778_1
10
19.2259677
20
48.8904854
40
1.5737356
50
131.8616166
51
135.4168838
0
ARC
8
DEFAULT_255_2_778_1
10
18.963168
20
49.1486765
40
1.2053256
50
135.3893975
51
139.9687014
0
ARC
8
DEFAULT_255_2_778_1
10
18.7302889
20
49.3435102
40
0.9016937
50
139.9301659
51
145.9260426
0
ARC
8
DEFAULT_255_2_778_1
10
18.534154
20
49.4755104
40
0.6652776
50
145.8787362
51
153.8146208
0
ARC
8
DEFAULT_255_2_778_1
10
18.3820553
20
49.5498797
40
0.4959714
50
153.770634
51
164.3484794
0
ARC
8
DEFAULT_255_2_778_1
10
18.2807387
20
49.5780786
40
0.3908039
50
164.3220276
51
179.8083066
0
ARC
8
DEFAULT_255_2_778_1
10
18.3017789
20
49.586215
40
0.4118985
50
180.9499449
51
213.8111542
0
ARC
8
DEFAULT_255_2_778_1
10
18.5776828
20
49.7557896
40
0.73561
50
212.8271214
51
224.258472
0
ARC
8
DEFAULT_255_2_778_1
10
18.9605335
20
50.1251236
40
1.267567
50
224.1376218
51
231.4508261
0
ARC
8
DEFAULT_255_2_778_1
10
19.6032195
20
50.9281168
40
2.2960809
50
231.3955893
51
236.1256478
0
ARC
8
DEFAULT_255_2_778_1
10
21.4355223
20
53.6746293
40
5.5976905
50
236.2233172
51
239.1314682
0
ARC
8
DEFAULT_255_2_778_1
10
33.385427
20
73.4023568
40
28.6623793
50
238.8606853
51
239.0711101
0
ARC
8
DEFAULT_255_2_778_1
10
14.2132281
20
41.3052653
40
8.7248518
50
57.2420924
51
59.4062964
0
ARC
8
DEFAULT_255_2_778_1
10
17.4409241
20
46.3362102
40
2.747542
50
52.8289294
51
57.079028
0
ARC
8
DEFAULT_255_2_778_1
10
18.2155783
20
47.3565488
40
1.466457
50
46.3041868
51
52.8596521
0
ARC
8
DEFAULT_255_2_778_1
10
18.6478073
20
47.8066842
40
0.8424061
50
36.2174211
51
46.4090895
0
ARC
8
DEFAULT_255_2_778_1
10
18.9323088
20
48.0115128
40
0.4918609
50
17.400375
51
36.5489745
0
ARC
8
DEFAULT_255_2_778_1
10
19.0463994
20
48.0513754
40
0.3710912
50
0.0676858
51
16.7951297
0
ARC
8
DEFAULT_255_2_778_1
10
19.0253613
20
48.0532428
40
0.3921317
50
343.8035191
51
359.7912046
0
ARC
8
DEFAULT_255_2_778_1
10
18.9190912
20
48.0837167
40
0.5026844
50
333.2506233
51
343.8465691
0
ARC
8
DEFAULT_255_2_778_1
10
18.7652757
20
48.1604313
40
0.6745679
50
325.6600948
51
333.3122657
0
ARC
8
DEFAULT_255_2_778_1
10
18.5698344
20
48.2932296
40
0.9108568
50
319.7560915
51
325.6976089
0
ARC
8
DEFAULT_255_2_778_1
10
18.341699
20
48.4850002
40
1.2088854
50
315.4577584
51
319.8037947
0
ARC
8
DEFAULT_255_2_778_1
10
18.0783127
20
48.7438507
40
1.5781764
50
311.7298824
51
315.4670864
0
ARC
8
DEFAULT_255_2_778_1
10
17.7692879
20
49.0894074
40
2.0417554
50
308.723055
51
311.7470879
0
ARC
8
DEFAULT_255_2_778_1
10
17.415089
20
49.5306492
40
2.6075745
50
306.1165163
51
308.7300151
0
ARC
8
DEFAULT_255_2_778_1
10
17.0121091
20
50.0819523
40
3.2904564
50
303.9559446
51
306.1266333
0
ARC
8
DEFAULT_255_2_778_1
10
16.6005432
20
50.691215
40
4.0257023
50
302.3733397
51
303.9712246
0
ARC
8
DEFAULT_255_2_778_1
10
16.1809347
20
51.3527058
40
4.8090549
50
300.9434827
51
302.3758078
0
LINE
8
DEFAULT_255_2_778
10
18.6536417
20
46.1698078
11
18.6536417
21
5.1594078
0
LINE
8
DEFAULT_255_2_778
10
18.6536417
20
5.1594078
11
19.9765417
21
5.1594078
0
LINE
8
DEFAULT_255_1_234
10
4.9274119
20
100.0116792
11
4.9274119
21
99.8904
0
LINE
8
DEFAULT_255_1_234
10
4.9274119
20
99.8904
11
4.161184
21
99.8904
0
LINE
8
DEFAULT_255_1_234
10
4.161184
20
99.8904
11
4.161184
21
99.9972221
0
LINE
8
DEFAULT_255_1_234
10
4.161184
20
99.9972221
11
4.5659836
21
100.4469995
0
LINE
8
DEFAULT_255_1_234
10
4.2872823
20
100.7152595
11
4.1386952
21
100.7152595
0
LINE
8
DEFAULT_255_1_234
10
4.6535296
20
100.3514218
11
4.3402918
21
100.0116792
0
LINE
8
DEFAULT_255_1_234
10
4.3402918
20
100.0116792
11
4.9274119
21
100.0116792
0
ARC
8
DEFAULT_255_1_234
10
3.216967
20
101.6399527
40
1.8008286
50
318.5132453
51
320.7828378
0
ARC
8
DEFAULT_255_1_234
10
3.7456644
20
101.2096426
40
1.1191493
50
320.7372736
51
323.9737074
0
ARC
8
DEFAULT_255_1_234
10
4.1376501
20
100.9256361
40
0.6350923
50
323.8961724
51
328.6421089
0
ARC
8
DEFAULT_255_1_234
10
4.3423096
20
100.7994031
40
0.3946393
50
328.8299013
51
331.789948
0
ARC
8
DEFAULT_255_1_234
10
4.4420274
20
100.7479509
40
0.2824501
50
331.4255242
51
352.9364833
0
ARC
8
DEFAULT_255_1_234
10
4.4556775
20
100.7448976
40
0.2685315
50
353.2248685
51
0.0169286
0
ARC
8
DEFAULT_255_1_234
10
4.4766652
20
100.747195
40
0.2475536
50
359.4866256
51
15.9339782
0
ARC
8
DEFAULT_255_1_234
10
4.5273637
20
100.7608286
40
0.1950618
50
16.1714718
51
43.5284424
0
ARC
8
DEFAULT_255_1_234
10
4.5350946
20
100.7685573
40
0.184134
50
43.4415429
51
83.1661404
0
ARC
8
DEFAULT_255_1_234
10
4.5216864
20
100.6948771
40
0.258926
50
82.160215
51
90.1505798
0
ARC
8
DEFAULT_255_1_234
10
4.5185291
20
100.6411865
40
0.3126255
50
89.5460705
51
102.5418777
0
ARC
8
DEFAULT_255_1_234
10
4.4942377
20
100.7442665
40
0.2067346
50
102.1739365
51
129.2061916
0
ARC
8
DEFAULT_255_1_234
10
4.4863449
20
100.7567094
40
0.1921118
50
129.7279328
51
135.7542026
0
ARC
8
DEFAULT_255_1_234
10
4.4984977
20
100.7470045
40
0.2075944
50
136.175737
51
166.3674722
0
ARC
8
DEFAULT_255_1_234
10
4.5991896
20
100.7200182
40
0.3118201
50
165.9092917
51
178.8683903
0
ARC
8
DEFAULT_255_1_234
10
4.6856757
20
100.7153179
40
0.3983935
50
178.438168
51
180.0083905
0
ARC
8
DEFAULT_255_1_234
10
4.5455359
20
100.7192231
40
0.4068601
50
163.2878735
51
180.5581814
0
ARC
8
DEFAULT_255_1_234
10
4.4653621
20
100.741284
40
0.3237344
50
133.454115
51
162.9470031
0
ARC
8
DEFAULT_255_1_234
10
4.4832162
20
100.7223
40
0.349795
50
100.7869394
51
133.4384016
0
ARC
8
DEFAULT_255_1_234
10
4.5179934
20
100.5674319
40
0.5084616
50
89.6605301
51
101.3704185
0
ARC
8
DEFAULT_255_1_234
10
4.5246273
20
100.5735496
40
0.502348
50
78.2171172
51
90.4130393
0
ARC
8
DEFAULT_255_1_234
10
4.5601351
20
100.7359637
40
0.3361092
50
55.9268222
51
78.4888551
0
ARC
8
DEFAULT_255_1_234
10
4.5797791
20
100.7698324
40
0.2970617
50
47.9292255
51
55.4054003
0
ARC
8
DEFAULT_255_1_234
10
4.5899352
20
100.7801502
40
0.2825983
50
4.3347696
51
48.0560701
0
ARC
8
DEFAULT_255_1_234
10
4.4803745
20
100.7631601
40
0.393225
50
359.925209
51
5.5967654
0
ARC
8
DEFAULT_255_1_234
10
4.5232637
20
100.7687816
40
0.3503892
50
337.8914096
51
358.9967724
0
ARC
8
DEFAULT_255_1_234
10
4.2519049
20
100.8734706
40
0.6412172
50
326.9135351
51
338.3505194
0
ARC
8
DEFAULT_255_1_234
10
3.8533353
20
101.1289284
40
1.1146189
50
319.6472867
51
327.095818
0
ARC
8
DEFAULT_255_1_234
10
3.4700356
20
101.4451
40
1.6114559
50
317.2586784
51
319.9046139
0
LINE
8
DEFAULT_255_1_234
10
5.7121127
20
101.0598211
11
5.7121127
21
100.283152
0
LINE
8
DEFAULT_255_1_234
10
5.7121127
20
100.283152
11
5.8743538
21
100.283152
0
LINE
8
DEFAULT_255_1_234
10
5.8743538
20
100.283152
11
5.8743538
21
100.1618728
0
LINE
8
DEFAULT_255_1_234
10
5.8743538
20
100.1618728
11
5.7121127
21
100.1618728
0
LINE
8
DEFAULT_255_1_234
10
5.7121127
20
100.1618728
11
5.7121127
21
99.8904
0
LINE
8
DEFAULT_255_1_234
10
5.7121127
20
99.8904
11
5.5627224
21
99.8904
0
LINE
8
DEFAULT_255_1_234
10
5.5627224
20
99.8904
11
5.5627224
21
100.1618728
0
LINE
8
DEFAULT_255_1_234
10
5.5627224
20
100.1618728
11
5.0302181
21
100.1618728
0
LINE
8
DEFAULT_255_1_234
10
5.0302181
20
100.1618728
11
5.0302181
21
100.2494187
0
LINE
8
DEFAULT_255_1_234
10
5.0302181
20
100.2494187
11
5.5538875
21
101.0598211
0
LINE
8
DEFAULT_255_1_234
10
5.5538875
20
101.0598211
11
5.7121127
21
101.0598211
0
LINE
8
DEFAULT_255_1_234
10
5.5450525
20
100.8244912
11
5.1988846
21
100.283152
0
LINE
8
DEFAULT_255_1_234
10
5.1988846
20
100.283152
11
5.5627224
21
100.283152
0
LINE
8
DEFAULT_255_1_234
10
5.5627224
20
100.283152
11
5.5627224
21
100.8566181
0
LINE
8
DEFAULT_255_1_234
10
5.5627224
20
100.8566181
11
5.5450525
21
100.8244912
0
LINE
8
DEFAULT_255_1_234
10
6.101652
20
101.0598211
11
6.434166
21
100.0952093
0
LINE
8
DEFAULT_255_1_234
10
6.434166
20
100.0952093
11
6.7682863
21
101.0598211
0
LINE
8
DEFAULT_255_1_234
10
6.7682863
20
101.0598211
11
6.9369528
21
101.0598211
0
LINE
8
DEFAULT_255_1_234
10
6.9369528
20
101.0598211
11
6.5032389
21
99.8904
0
LINE
8
DEFAULT_255_1_234
10
6.5032389
20
99.8904
11
6.3666994
21
99.8904
0
LINE
8
DEFAULT_255_1_234
10
6.3666994
20
99.8904
11
5.9337887
21
101.0598211
0
LINE
8
DEFAULT_255_1_234
10
5.9337887
20
101.0598211
11
6.101652
21
101.0598211
0
LINE
8
DEFAULT_255_1_234
10
23.1649817
20
100.5819327
11
23.1649817
21
100.3891709
0
LINE
8
DEFAULT_255_1_234
10
22.426865
20
100.3690916
11
22.426865
21
100.5674755
0
LINE
8
DEFAULT_255_1_234
10
23.0163946
20
100.3490123
11
23.0163946
21
100.5923739
0
LINE
8
DEFAULT_255_1_234
10
22.5754521
20
100.6036184
11
22.5754521
21
100.3658789
0
ARC
8
DEFAULT_255_1_234
10
21.9402707
20
100.3842805
40
1.2247208
50
353.8441951
51
0.2287902
0
ARC
8
DEFAULT_255_1_234
10
22.4042211
20
100.3324806
40
0.7578929
50
344.4934747
51
353.9765454
0
ARC
8
DEFAULT_255_1_234
10
22.7034801
20
100.2473981
40
0.4467846
50
329.2803592
51
344.7472793
0
ARC
8
DEFAULT_255_1_234
10
22.8027626
20
100.1929018
40
0.3336173
50
324.9352394
51
328.6160465
0
ARC
8
DEFAULT_255_1_234
10
22.8404734
20
100.1665427
40
0.2876076
50
280.580143
51
324.9173126
0
ARC
8
DEFAULT_255_1_234
10
22.8003527
20
100.3336099
40
0.4592847
50
269.5977311
51
281.6734359
0
ARC
8
DEFAULT_255_1_234
10
22.7931433
20
100.3216173
40
0.4472986
50
256.6228859
51
270.51044
0
ARC
8
DEFAULT_255_1_234
10
22.752941
20
100.1667877
40
0.2873874
50
215.8618325
51
257.2788573
0
ARC
8
DEFAULT_255_1_234
10
22.8550442
20
100.2352977
40
0.4102928
50
197.9693508
51
215.2623606
0
ARC
8
DEFAULT_255_1_234
10
23.1035558
20
100.3191709
40
0.6725652
50
187.8816417
51
198.2346507
0
ARC
8
DEFAULT_255_1_234
10
23.4993766
20
100.3763079
40
1.0724845
50
180.8976217
51
188.0055519
0
ARC
8
DEFAULT_255_1_234
10
23.7793954
20
100.3866777
40
1.3526448
50
180.7449369
51
181.1510016
0
ARC
8
DEFAULT_255_1_234
10
23.6216683
20
100.5723042
40
1.1948131
50
173.7675579
51
180.231553
0
ARC
8
DEFAULT_255_1_234
10
23.169883
20
100.6233666
40
0.7401564
50
164.3058563
51
173.9002247
0
ARC
8
DEFAULT_255_1_234
10
22.8786899
20
100.7072656
40
0.4371288
50
148.7922025
51
164.568378
0
ARC
8
DEFAULT_255_1_234
10
22.7835351
20
100.7603929
40
0.3282386
50
144.5883898
51
148.1176286
0
ARC
8
DEFAULT_255_1_234
10
22.7492249
20
100.7843315
40
0.2864044
50
101.6440918
51
144.514236
0
ARC
8
DEFAULT_255_1_234
10
22.7917315
20
100.6154069
40
0.4604934
50
89.5284041
51
102.5819763
0
ARC
8
DEFAULT_255_1_234
10
22.7996403
20
100.6115018
40
0.464401
50
77.0437873
51
90.5081339
0
ARC
8
DEFAULT_255_1_234
10
22.8398405
20
100.7757615
40
0.2953195
50
48.2778575
51
77.4994676
0
ARC
8
DEFAULT_255_1_234
10
22.8471036
20
100.7886746
40
0.2808655
50
36.3142134
51
47.6305865
0
ARC
8
DEFAULT_255_1_234
10
22.7602343
20
100.7301515
40
0.3855453
50
18.2931786
51
35.6769206
0
ARC
8
DEFAULT_255_1_234
10
22.5059102
20
100.6428593
40
0.654423
50
8.024666
51
18.5605216
0
ARC
8
DEFAULT_255_1_234
10
22.0896022
20
100.5813792
40
1.0752407
50
1.1274072
51
8.1718305
0
ARC
8
DEFAULT_255_1_234
10
21.7660213
20
100.5686885
40
1.3990231
50
0.5424119
51
1.3863029
0
ARC
8
DEFAULT_255_1_234
10
21.948159
20
100.5959342
40
1.0682415
50
359.8090433
51
4.9407866
0
ARC
8
DEFAULT_255_1_234
10
22.3691604
20
100.6335113
40
0.6455691
50
4.8362157
51
12.2904523
0
ARC
8
DEFAULT_255_1_234
10
22.6446719
20
100.6948965
40
0.3633074
50
12.0805627
51
23.8173984
0
ARC
8
DEFAULT_255_1_234
10
22.7620425
20
100.7445919
40
0.2358723
50
24.2871213
51
31.3935614
0
ARC
8
DEFAULT_255_1_234
10
22.8145122
20
100.7789233
40
0.1732111
50
30.7407893
51
82.4657128
0
ARC
8
DEFAULT_255_1_234
10
22.7965256
20
100.6905691
40
0.263235
50
81.1060089
51
90.2184952
0
ARC
8
DEFAULT_255_1_234
10
22.7929555
20
100.7163924
40
0.2374236
50
89.3806855
51
105.6762551
0
ARC
8
DEFAULT_255_1_234
10
22.7746186
20
100.7830567
40
0.1682847
50
105.7981136
51
149.7388061
0
ARC
8
DEFAULT_255_1_234
10
22.8810264
20
100.719095
40
0.2924306
50
149.4208916
51
163.6286378
0
ARC
8
DEFAULT_255_1_234
10
23.0901152
20
100.655325
40
0.5110213
50
163.3763315
51
172.1410975
0
ARC
8
DEFAULT_255_1_234
10
23.4201871
20
100.6080518
40
0.8444586
50
172.0259487
51
178.0703232
0
ARC
8
DEFAULT_255_1_234
10
23.723196
20
100.5936906
40
1.1477868
50
177.8631668
51
179.5044149
0
ARC
8
DEFAULT_255_1_234
10
23.6159365
20
100.3622389
40
1.0404907
50
179.7995573
51
185.2460446
0
ARC
8
DEFAULT_255_1_234
10
23.2116404
20
100.3239513
40
0.6343885
50
185.1411642
51
193.0079639
0
ARC
8
DEFAULT_255_1_234
10
22.9472877
20
100.2614641
40
0.3627568
50
192.7897626
51
205.2507664
0
ARC
8
DEFAULT_255_1_234
10
22.8426424
20
100.2147415
40
0.2481908
50
205.8005384
51
211.2537509
0
ARC
8
DEFAULT_255_1_234
10
22.7902864
20
100.179658
40
0.1852521
50
210.3789793
51
238.4008143
0
ARC
8
DEFAULT_255_1_234
10
22.7883386
20
100.1843376
40
0.1882621
50
239.6520629
51
265.9793761
0
ARC
8
DEFAULT_255_1_234
10
22.7968586
20
100.2515427
40
0.2559272
50
265.1315437
51
270.060332
0
ARC
8
DEFAULT_255_1_234
10
22.7997365
20
100.2191534
40
0.2235528
50
269.3314664
51
287.2178029
0
ARC
8
DEFAULT_255_1_234
10
22.8135217
20
100.1688279
40
0.1714108
50
287.7958004
51
329.080874
0
ARC
8
DEFAULT_255_1_234
10
22.7177674
20
100.228593
40
0.2842745
50
328.6634704
51
343.3325132
0
ARC
8
DEFAULT_255_1_234
10
22.5004694
20
100.2962863
40
0.5118644
50
343.0499468
51
351.9393422
0
ARC
8
DEFAULT_255_1_234
10
22.1537994
20
100.3473949
40
0.8622784
50
351.8069023
51
357.7959224
0
ARC
8
DEFAULT_255_1_234
10
21.830255
20
100.3641721
40
1.1862365
50
357.5871873
51
359.2677531
0
LINE
8
DEFAULT_255_1_234
10
23.4485021
20
101.0598211
11
23.7810161
21
100.0952093
0
LINE
8
DEFAULT_255_1_234
10
23.7810161
20
100.0952093
11
24.1151364
21
101.0598211
0
LINE
8
DEFAULT_255_1_234
10
24.1151364
20
101.0598211
11
24.2838029
21
101.0598211
0
LINE
8
DEFAULT_255_1_234
10
24.2838029
20
101.0598211
11
23.850089
21
99.8904
0
LINE
8
DEFAULT_255_1_234
10
23.850089
20
99.8904
11
23.7135495
21
99.8904
0
LINE
8
DEFAULT_255_1_234
10
23.7135495
20
99.8904
11
23.2806388
21
101.0598211
0
LINE
8
DEFAULT_255_1_234
10
23.2806388
20
101.0598211
11
23.4485021
21
101.0598211
0
LINE
8
DEFAULT_255_1_234
10
21.9034902
20
5.8098211
11
21.9034902
21
4.6404
0
LINE
8
DEFAULT_255_1_234
10
21.9034902
20
4.6404
11
21.7492808
21
4.6404
0
LINE
8
DEFAULT_255_1_234
10
21.7492808
20
4.6404
11
21.7492808
21
5.8098211
0
LINE
8
DEFAULT_255_1_234
10
21.7492808
20
5.8098211
11
21.9034902
21
5.8098211
0
LINE
8
DEFAULT_255_1_234
10
23.0849589
20
5.2612534
11
23.0849589
21
5.1873614
0
LINE
8
DEFAULT_255_1_234
10
22.1444423
20
5.1769201
11
22.1444423
21
5.2612534
0
LINE
8
DEFAULT_255_1_234
10
22.9315527
20
5.1761169
11
22.9315527
21
5.2628597
0
LINE
8
DEFAULT_255_1_234
10
22.2978485
20
5.273301
11
22.2978485
21
5.1873614
0
ARC
8
DEFAULT_255_1_234
10
22.2207615
20
5.1834015
40
0.8642064
50
350.487711
51
0.2625388
0
ARC
8
DEFAULT_255_1_234
10
22.4500857
20
5.1439578
40
0.631518
50
336.0277639
51
350.5787438
0
ARC
8
DEFAULT_255_1_234
10
22.584568
20
5.0831892
40
0.4839466
50
319.8877444
51
336.1328423
0
ARC
8
DEFAULT_255_1_234
10
22.6448321
20
5.034958
40
0.4067874
50
302.4806467
51
319.6143626
0
ARC
8
DEFAULT_255_1_234
10
22.6333331
20
5.0571202
40
0.4316636
50
275.8195682
51
302.1884709
0
ARC
8
DEFAULT_255_1_234
10
22.6166964
20
5.1713665
40
0.5470306
50
269.9171439
51
276.3397983
0
ARC
8
DEFAULT_255_1_234
10
22.6122174
20
5.1027681
40
0.4784458
50
252.5219675
51
270.4416499
0
ARC
8
DEFAULT_255_1_234
10
22.5978433
20
5.0488592
40
0.422716
50
237.5352116
51
252.1857531
0
ARC
8
DEFAULT_255_1_234
10
22.6067629
20
5.0602363
40
0.4371052
50
209.063312
51
237.3492538
0
ARC
8
DEFAULT_255_1_234
10
22.6937477
20
5.1148685
40
0.5397041
50
205.1183774
51
209.6470015
0
ARC
8
DEFAULT_255_1_234
10
22.7734514
20
5.148683
40
0.6262326
50
188.7215458
51
204.8240747
0
ARC
8
DEFAULT_255_1_234
10
22.9732042
20
5.1823067
40
0.8287794
50
180.3723947
51
188.9252049
0
ARC
8
DEFAULT_255_1_234
10
22.9704794
20
5.2652402
40
0.8260467
50
169.5253763
51
180.2765336
0
ARC
8
DEFAULT_255_1_234
10
22.7802243
20
5.3002309
40
0.6326007
50
155.8315255
51
169.5089989
0
ARC
8
DEFAULT_255_1_234
10
22.6521744
20
5.3596348
40
0.4914567
50
139.6258461
51
156.0379525
0
ARC
8
DEFAULT_255_1_234
10
22.5932077
20
5.4070799
40
0.4158054
50
122.6416387
51
139.3430715
0
ARC
8
DEFAULT_255_1_234
10
22.6032697
20
5.3887451
40
0.4366739
50
93.0223692
51
122.455762
0
ARC
8
DEFAULT_255_1_234
10
22.6140694
20
5.2922709
40
0.5336137
50
89.975342
51
93.6341897
0
ARC
8
DEFAULT_255_1_234
10
22.6179473
20
5.3321242
40
0.4937738
50
73.746375
51
90.4233405
0
ARC
8
DEFAULT_255_1_234
10
22.6355052
20
5.4001287
40
0.4235786
50
57.662753
51
73.4518111
0
ARC
8
DEFAULT_255_1_234
10
22.6347058
20
5.4022832
40
0.4221899
50
29.1440151
51
57.414694
0
ARC
8
DEFAULT_255_1_234
10
22.5412253
20
5.3439005
40
0.5322966
50
24.0982783
51
29.7323517
0
ARC
8
DEFAULT_255_1_234
10
22.4378528
20
5.3010399
40
0.6441673
50
8.6655297
51
23.8241346
0
ARC
8
DEFAULT_255_1_234
10
22.2144266
20
5.2645854
40
0.8705386
50
359.7806941
51
8.8218784
0
ARC
8
DEFAULT_255_1_234
10
22.0997264
20
5.2671345
40
0.8318373
50
359.7055579
51
8.036044
0
ARC
8
DEFAULT_255_1_234
10
22.399727
20
5.3108239
40
0.5286768
50
7.8928306
51
20.2962107
0
ARC
8
DEFAULT_255_1_234
10
22.5624841
20
5.3708395
40
0.3552073
50
20.3231126
51
36.4992797
0
ARC
8
DEFAULT_255_1_234
10
22.6310387
20
5.4236402
40
0.2686974
50
36.1437156
51
85.6627023
0
ARC
8
DEFAULT_255_1_234
10
22.6147933
20
5.3196221
40
0.373739
50
84.3852322
51
90.0757696
0
ARC
8
DEFAULT_255_1_234
10
22.6105605
20
5.3856839
40
0.3076997
50
89.3038458
51
109.9045693
0
ARC
8
DEFAULT_255_1_234
10
22.6012996
20
5.4239062
40
0.2686424
50
110.8228367
51
143.9179474
0
ARC
8
DEFAULT_255_1_234
10
22.6946656
20
5.3526236
40
0.3860887
50
143.5289163
51
163.2980757
0
ARC
8
DEFAULT_255_1_234
10
22.8854477
20
5.2926433
40
0.5860659
50
163.0418846
51
174.3140048
0
ARC
8
DEFAULT_255_1_234
10
23.1258589
20
5.2648854
40
0.8280531
50
174.0509143
51
179.4176892
0
ARC
8
DEFAULT_255_1_234
10
23.0754328
20
5.1831954
40
0.7775954
50
179.6930361
51
188.7906598
0
ARC
8
DEFAULT_255_1_234
10
22.8090807
20
5.1405935
40
0.5078633
50
188.6331305
51
202.5629587
0
ARC
8
DEFAULT_255_1_234
10
22.6836399
20
5.0901996
40
0.3726913
50
202.8081362
51
216.1193925
0
ARC
8
DEFAULT_255_1_234
10
22.6026969
20
5.0250676
40
0.2689577
50
215.0755913
51
264.6379694
0
ARC
8
DEFAULT_255_1_234
10
22.6153919
20
5.1081513
40
0.3528978
50
263.846392
51
270.0833719
0
ARC
8
DEFAULT_255_1_234
10
22.6195309
20
5.0823374
40
0.3271036
50
269.3649385
51
287.5152008
0
ARC
8
DEFAULT_255_1_234
10
22.6373467
20
5.0176238
40
0.2600406
50
288.0630309
51
323.8113348
0
ARC
8
DEFAULT_255_1_234
10
22.5502309
20
5.0826049
40
0.3687189
50
323.6547608
51
342.6590488
0
ARC
8
DEFAULT_255_1_234
10
22.3470924
20
5.1486952
40
0.5823286
50
342.4091907
51
353.6451149
0
ARC
8
DEFAULT_255_1_234
10
22.0639434
20
5.183919
40
0.8676442
50
353.4029884
51
359.4847795
0
LINE
8
DEFAULT_255_1_234
10
24.1796848
20
5.222701
11
24.1796848
21
4.7938062
0
LINE
8
DEFAULT_255_1_234
10
23.2785238
20
5.1688884
11
23.2785238
21
5.2708915
0
LINE
8
DEFAULT_255_1_234
10
24.1796848
20
5.4668659
11
24.0254754
21
5.4668659
0
LINE
8
DEFAULT_255_1_234
10
23.4335363
20
5.2749073
11
23.4335363
21
5.1793296
0
LINE
8
DEFAULT_255_1_234
10
24.0262786
20
4.8347681
11
24.0262786
21
5.0974059
0
LINE
8
DEFAULT_255_1_234
10
24.0262786
20
5.0974059
11
23.755609
21
5.0974059
0
LINE
8
DEFAULT_255_1_234
10
23.755609
20
5.0974059
11
23.755609
21
5.222701
0
LINE
8
DEFAULT_255_1_234
10
23.755609
20
5.222701
11
24.1796848
21
5.222701
0
ARC
8
DEFAULT_255_1_234
10
23.8965354
20
4.9931396
40
0.3462765
50
295.8437914
51
324.8549609
0
ARC
8
DEFAULT_255_1_234
10
23.8549321
20
5.0684567
40
0.4322211
50
291.5695085
51
296.4549398
0
ARC
8
DEFAULT_255_1_234
10
23.8038573
20
5.2049275
40
0.5779178
50
278.6622409
51
291.3045483
0
ARC
8
DEFAULT_255_1_234
10
23.7699064
20
5.4197408
40
0.7953952
50
270.020006
51
278.7494541
0
ARC
8
DEFAULT_255_1_234
10
23.7660988
20
5.5514036
40
0.927067
50
269.9969998
51
270.2524872
0
ARC
8
DEFAULT_255_1_234
10
23.7622702
20
5.1430589
40
0.5187361
50
253.5786322
51
270.4175299
0
ARC
8
DEFAULT_255_1_234
10
23.7449358
20
5.0759236
40
0.4494451
50
238.8203306
51
253.2788235
0
ARC
8
DEFAULT_255_1_234
10
23.7429731
20
5.0708231
40
0.4440665
50
206.7883783
51
238.6962764
0
ARC
8
DEFAULT_255_1_234
10
23.8203641
20
5.1172405
40
0.5341121
50
206.1129412
51
207.4916643
0
ARC
8
DEFAULT_255_1_234
10
23.8800556
20
5.1426488
40
0.5989041
50
188.6921119
51
205.7821245
0
ARC
8
DEFAULT_255_1_234
10
24.0656918
20
5.174223
40
0.7871862
50
180.3882829
51
188.9219216
0
ARC
8
DEFAULT_255_1_234
10
24.1884732
20
5.2765464
40
0.909967
50
170.2024264
51
180.3560651
0
ARC
8
DEFAULT_255_1_234
10
23.872125
20
5.3331237
40
0.5886083
50
154.2857445
51
170.3893044
0
ARC
8
DEFAULT_255_1_234
10
23.7439453
20
5.391795
40
0.4476743
50
139.8401567
51
153.9332699
0
ARC
8
DEFAULT_255_1_234
10
23.7080189
20
5.4205577
40
0.4016697
50
98.4190291
51
139.6707122
0
ARC
8
DEFAULT_255_1_234
10
23.7459706
20
5.2360328
40
0.5898566
50
89.7659205
51
99.4415478
0
ARC
8
DEFAULT_255_1_234
10
23.7524956
20
5.2425844
40
0.5833147
50
78.0551672
51
90.4042112
0
ARC
8
DEFAULT_255_1_234
10
23.7929466
20
5.4244644
40
0.3970055
50
54.6380464
51
78.3339173
0
ARC
8
DEFAULT_255_1_234
10
23.8119522
20
5.4564795
40
0.3599102
50
50.031736
51
54.1558201
0
ARC
8
DEFAULT_255_1_234
10
23.8012309
20
5.4468766
40
0.3741624
50
18.1092409
51
49.7180913
0
ARC
8
DEFAULT_255_1_234
10
23.6555509
20
5.3935089
40
0.5292424
50
7.9672797
51
18.6984571
0
ARC
8
DEFAULT_255_1_234
10
23.6705988
20
5.4058504
40
0.3600838
50
9.7557294
51
27.3215714
0
ARC
8
DEFAULT_255_1_234
10
23.7833459
20
5.4621912
40
0.2340608
50
27.7361077
51
84.5257964
0
ARC
8
DEFAULT_255_1_234
10
23.7505846
20
5.297864
40
0.4011215
50
82.106034
51
90.2001166
0
ARC
8
DEFAULT_255_1_234
10
23.7456063
20
5.3486215
40
0.3503799
50
89.4150119
51
105.5823402
0
ARC
8
DEFAULT_255_1_234
10
23.7199061
20
5.4421867
40
0.2533503
50
105.6678618
51
144.2648758
0
ARC
8
DEFAULT_255_1_234
10
23.8092317
20
5.3786289
40
0.3629787
50
144.3561283
51
162.8564086
0
ARC
8
DEFAULT_255_1_234
10
24.0176226
20
5.3117017
40
0.5818441
50
162.6076014
51
173.6780284
0
ARC
8
DEFAULT_255_1_234
10
24.3237369
20
5.274489
40
0.8902007
50
173.4670142
51
179.9730753
0
ARC
8
DEFAULT_255_1_234
10
24.1329041
20
5.175126
40
0.6993804
50
179.6556203
51
190.0080463
0
ARC
8
DEFAULT_255_1_234
10
23.901287
20
5.1326375
40
0.4639066
50
189.8116607
51
206.6796816
0
ARC
8
DEFAULT_255_1_234
10
23.8168022
20
5.0932503
40
0.3707421
50
207.1031645
51
217.7074368
0
ARC
8
DEFAULT_255_1_234
10
23.7533711
20
5.0380559
40
0.2868417
50
216.7345547
51
265.6812148
0
ARC
8
DEFAULT_255_1_234
10
23.7664502
20
5.1284855
40
0.3780509
50
264.7366618
51
270.0611241
0
ARC
8
DEFAULT_255_1_234
10
23.7687765
20
5.4125111
40
0.662079
50
269.8335834
51
276.0539546
0
ARC
8
DEFAULT_255_1_234
10
23.7894769
20
5.222356
40
0.4708016
50
275.9894168
51
284.4615085
0
ARC
8
DEFAULT_255_1_234
10
23.8092776
20
5.1390663
40
0.3852094
50
284.7034461
51
286.4953897
0
ARC
8
DEFAULT_255_1_234
10
23.849979
20
5.0079965
40
0.2479842
50
286.0770838
51
304.2625829
0
ARC
8
DEFAULT_255_1_234
10
23.8633204
20
4.9861594
40
0.2224291
50
304.5891602
51
317.1073298
0
LINE
8
DEFAULT_255_1_234
10
21.9034902
20
13.7473211
11
21.9034902
21
12.5779
0
LINE
8
DEFAULT_255_1_234
10
21.9034902
20
12.5779
11
21.7492808
21
12.5779
0
LINE
8
DEFAULT_255_1_234
10
21.7492808
20
12.5779
11
21.7492808
21
13.7473211
0
LINE
8
DEFAULT_255_1_234
10
21.7492808
20
13.7473211
11
21.9034902
21
13.7473211
0
LINE
8
DEFAULT_255_1_234
10
23.0849589
20
13.1987534
11
23.0849589
21
13.1248614
0
LINE
8
DEFAULT_255_1_234
10
22.1444423
20
13.1144201
11
22.1444423
21
13.1987534
0
LINE
8
DEFAULT_255_1_234
10
22.9315527
20
13.1136169
11
22.9315527
21
13.2003597
0
LINE
8
DEFAULT_255_1_234
10
22.2978485
20
13.210801
11
22.2978485
21
13.1248614
0
ARC
8
DEFAULT_255_1_234
10
22.2207615
20
13.1209015
40
0.8642064
50
350.487711
51
0.2625388
0
ARC
8
DEFAULT_255_1_234
10
22.4500857
20
13.0814578
40
0.631518
50
336.0277639
51
350.5787438
0
ARC
8
DEFAULT_255_1_234
10
22.584568
20
13.0206892
40
0.4839466
50
319.8877444
51
336.1328423
0
ARC
8
DEFAULT_255_1_234
10
22.6448321
20
12.972458
40
0.4067874
50
302.4806467
51
319.6143626
0
ARC
8
DEFAULT_255_1_234
10
22.6333331
20
12.9946202
40
0.4316636
50
275.8195682
51
302.1884709
0
ARC
8
DEFAULT_255_1_234
10
22.6166964
20
13.1088665
40
0.5470306
50
269.9171439
51
276.3397983
0
ARC
8
DEFAULT_255_1_234
10
22.6122174
20
13.0402681
40
0.4784458
50
252.5219675
51
270.4416499
0
ARC
8
DEFAULT_255_1_234
10
22.5978433
20
12.9863592
40
0.422716
50
237.5352116
51
252.1857531
0
ARC
8
DEFAULT_255_1_234
10
22.6067629
20
12.9977363
40
0.4371052
50
209.063312
51
237.3492538
0
ARC
8
DEFAULT_255_1_234
10
22.6937477
20
13.0523685
40
0.5397041
50
205.1183774
51
209.6470015
0
ARC
8
DEFAULT_255_1_234
10
22.7734514
20
13.086183
40
0.6262326
50
188.7215458
51
204.8240747
0
ARC
8
DEFAULT_255_1_234
10
22.9732042
20
13.1198067
40
0.8287794
50
180.3723947
51
188.9252049
0
ARC
8
DEFAULT_255_1_234
10
22.9704794
20
13.2027402
40
0.8260467
50
169.5253763
51
180.2765336
0
ARC
8
DEFAULT_255_1_234
10
22.7802243
20
13.2377309
40
0.6326007
50
155.8315255
51
169.5089989
0
ARC
8
DEFAULT_255_1_234
10
22.6521744
20
13.2971348
40
0.4914567
50
139.6258461
51
156.0379525
0
ARC
8
DEFAULT_255_1_234
10
22.5932077
20
13.3445799
40
0.4158054
50
122.6416387
51
139.3430715
0
ARC
8
DEFAULT_255_1_234
10
22.6032697
20
13.3262451
40
0.4366739
50
93.0223692
51
122.455762
0
ARC
8
DEFAULT_255_1_234
10
22.6140694
20
13.2297709
40
0.5336137
50
89.975342
51
93.6341897
0
ARC
8
DEFAULT_255_1_234
10
22.6179473
20
13.2696242
40
0.4937738
50
73.746375
51
90.4233405
0
ARC
8
DEFAULT_255_1_234
10
22.6355052
20
13.3376287
40
0.4235786
50
57.662753
51
73.4518111
0
ARC
8
DEFAULT_255_1_234
10
22.6347058
20
13.3397832
40
0.4221899
50
29.1440151
51
57.414694
0
ARC
8
DEFAULT_255_1_234
10
22.5412253
20
13.2814005
40
0.5322966
50
24.0982783
51
29.7323517
0
ARC
8
DEFAULT_255_1_234
10
22.4378528
20
13.2385399
40
0.6441673
50
8.6655297
51
23.8241346
0
ARC
8
DEFAULT_255_1_234
10
22.2144266
20
13.2020854
40
0.8705386
50
359.7806941
51
8.8218784
0
ARC
8
DEFAULT_255_1_234
10
22.0997264
20
13.2046345
40
0.8318373
50
359.7055579
51
8.036044
0
ARC
8
DEFAULT_255_1_234
10
22.399727
20
13.2483239
40
0.5286768
50
7.8928306
51
20.2962107
0
ARC
8
DEFAULT_255_1_234
10
22.5624841
20
13.3083395
40
0.3552073
50
20.3231126
51
36.4992797
0
ARC
8
DEFAULT_255_1_234
10
22.6310387
20
13.3611402
40
0.2686974
50
36.1437156
51
85.6627023
0
ARC
8
DEFAULT_255_1_234
10
22.6147933
20
13.2571221
40
0.373739
50
84.3852322
51
90.0757696
0
ARC
8
DEFAULT_255_1_234
10
22.6105605
20
13.3231839
40
0.3076997
50
89.3038458
51
109.9045693
0
ARC
8
DEFAULT_255_1_234
10
22.6012996
20
13.3614062
40
0.2686424
50
110.8228367
51
143.9179474
0
ARC
8
DEFAULT_255_1_234
10
22.6946656
20
13.2901236
40
0.3860887
50
143.5289163
51
163.2980757
0
ARC
8
DEFAULT_255_1_234
10
22.8854477
20
13.2301433
40
0.5860659
50
163.0418846
51
174.3140048
0
ARC
8
DEFAULT_255_1_234
10
23.1258589
20
13.2023854
40
0.8280531
50
174.0509143
51
179.4176892
0
ARC
8
DEFAULT_255_1_234
10
23.0754328
20
13.1206954
40
0.7775954
50
179.6930361
51
188.7906598
0
ARC
8
DEFAULT_255_1_234
10
22.8090807
20
13.0780935
40
0.5078633
50
188.6331305
51
202.5629587
0
ARC
8
DEFAULT_255_1_234
10
22.6836399
20
13.0276996
40
0.3726913
50
202.8081362
51
216.1193925
0
ARC
8
DEFAULT_255_1_234
10
22.6026969
20
12.9625676
40
0.2689577
50
215.0755913
51
264.6379694
0
ARC
8
DEFAULT_255_1_234
10
22.6153919
20
13.0456513
40
0.3528978
50
263.846392
51
270.0833719
0
ARC
8
DEFAULT_255_1_234
10
22.6195309
20
13.0198374
40
0.3271036
50
269.3649385
51
287.5152008
0
ARC
8
DEFAULT_255_1_234
10
22.6373467
20
12.9551238
40
0.2600406
50
288.0630309
51
323.8113348
0
ARC
8
DEFAULT_255_1_234
10
22.5502309
20
13.0201049
40
0.3687189
50
323.6547608
51
342.6590488
0
ARC
8
DEFAULT_255_1_234
10
22.3470924
20
13.0861952
40
0.5823286
50
342.4091907
51
353.6451149
0
ARC
8
DEFAULT_255_1_234
10
22.0639434
20
13.121419
40
0.8676442
50
353.4029884
51
359.4847795
0
LINE
8
DEFAULT_255_1_234
10
24.1796848
20
13.160201
11
24.1796848
21
12.7313062
0
LINE
8
DEFAULT_255_1_234
10
23.2785238
20
13.1063884
11
23.2785238
21
13.2083915
0
LINE
8
DEFAULT_255_1_234
10
24.1796848
20
13.4043659
11
24.0254754
21
13.4043659
0
LINE
8
DEFAULT_255_1_234
10
23.4335363
20
13.2124073
11
23.4335363
21
13.1168296
0
LINE
8
DEFAULT_255_1_234
10
24.0262786
20
12.7722681
11
24.0262786
21
13.0349059
0
LINE
8
DEFAULT_255_1_234
10
24.0262786
20
13.0349059
11
23.755609
21
13.0349059
0
LINE
8
DEFAULT_255_1_234
10
23.755609
20
13.0349059
11
23.755609
21
13.160201
0
LINE
8
DEFAULT_255_1_234
10
23.755609
20
13.160201
11
24.1796848
21
13.160201
0
ARC
8
DEFAULT_255_1_234
10
23.8965354
20
12.9306396
40
0.3462765
50
295.8437914
51
324.8549609
0
ARC
8
DEFAULT_255_1_234
10
23.8549321
20
13.0059567
40
0.4322211
50
291.5695085
51
296.4549398
0
ARC
8
DEFAULT_255_1_234
10
23.8038573
20
13.1424275
40
0.5779178
50
278.6622409
51
291.3045483
0
ARC
8
DEFAULT_255_1_234
10
23.7699064
20
13.3572408
40
0.7953952
50
270.020006
51
278.7494541
0
ARC
8
DEFAULT_255_1_234
10
23.7660988
20
13.4889036
40
0.927067
50
269.9969998
51
270.2524872
0
ARC
8
DEFAULT_255_1_234
10
23.7622702
20
13.0805589
40
0.5187361
50
253.5786322
51
270.4175299
0
ARC
8
DEFAULT_255_1_234
10
23.7449358
20
13.0134236
40
0.4494451
50
238.8203306
51
253.2788235
0
ARC
8
DEFAULT_255_1_234
10
23.7429731
20
13.0083231
40
0.4440665
50
206.7883783
51
238.6962764
0
ARC
8
DEFAULT_255_1_234
10
23.8203641
20
13.0547405
40
0.5341121
50
206.1129412
51
207.4916643
0
ARC
8
DEFAULT_255_1_234
10
23.8800556
20
13.0801488
40
0.5989041
50
188.6921119
51
205.7821245
0
ARC
8
DEFAULT_255_1_234
10
24.0656918
20
13.111723
40
0.7871862
50
180.3882829
51
188.9219216
0
ARC
8
DEFAULT_255_1_234
10
24.1884732
20
13.2140464
40
0.909967
50
170.2024264
51
180.3560651
0
ARC
8
DEFAULT_255_1_234
10
23.872125
20
13.2706237
40
0.5886083
50
154.2857445
51
170.3893044
0
ARC
8
DEFAULT_255_1_234
10
23.7439453
20
13.329295
40
0.4476743
50
139.8401567
51
153.9332699
0
ARC
8
DEFAULT_255_1_234
10
23.7080189
20
13.3580577
40
0.4016697
50
98.4190291
51
139.6707122
0
ARC
8
DEFAULT_255_1_234
10
23.7459706
20
13.1735328
40
0.5898566
50
89.7659205
51
99.4415478
0
ARC
8
DEFAULT_255_1_234
10
23.7524956
20
13.1800844
40
0.5833147
50
78.0551672
51
90.4042112
0
ARC
8
DEFAULT_255_1_234
10
23.7929466
20
13.3619644
40
0.3970055
50
54.6380464
51
78.3339173
0
ARC
8
DEFAULT_255_1_234
10
23.8119522
20
13.3939795
40
0.3599102
50
50.031736
51
54.1558201
0
ARC
8
DEFAULT_255_1_234
10
23.8012309
20
13.3843766
40
0.3741624
50
18.1092409
51
49.7180913
0
ARC
8
DEFAULT_255_1_234
10
23.6555509
20
13.3310089
40
0.5292424
50
7.9672797
51
18.6984571
0
ARC
8
DEFAULT_255_1_234
10
23.6705988
20
13.3433504
40
0.3600838
50
9.7557294
51
27.3215714
0
ARC
8
DEFAULT_255_1_234
10
23.7833459
20
13.3996912
40
0.2340608
50
27.7361077
51
84.5257964
0
ARC
8
DEFAULT_255_1_234
10
23.7505846
20
13.235364
40
0.4011215
50
82.106034
51
90.2001166
0
ARC
8
DEFAULT_255_1_234
10
23.7456063
20
13.2861215
40
0.3503799
50
89.4150119
51
105.5823402
0
ARC
8
DEFAULT_255_1_234
10
23.7199061
20
13.3796867
40
0.2533503
50
105.6678618
51
144.2648758
0
ARC
8
DEFAULT_255_1_234
10
23.8092317
20
13.3161289
40
0.3629787
50
144.3561283
51
162.8564086
0
ARC
8
DEFAULT_255_1_234
10
24.0176226
20
13.2492017
40
0.5818441
50
162.6076014
51
173.6780284
0
ARC
8
DEFAULT_255_1_234
10
24.3237369
20
13.211989
40
0.8902007
50
173.4670142
51
179.9730753
0
ARC
8
DEFAULT_255_1_234
10
24.1329041
20
13.112626
40
0.6993804
50
179.6556203
51
190.0080463
0
ARC
8
DEFAULT_255_1_234
10
23.901287
20
13.0701375
40
0.4639066
50
189.8116607
51
206.6796816
0
ARC
8
DEFAULT_255_1_234
10
23.8168022
20
13.0307503
40
0.3707421
50
207.1031645
51
217.7074368
0
ARC
8
DEFAULT_255_1_234
10
23.7533711
20
12.9755559
40
0.2868417
50
216.7345547
51
265.6812148
0
ARC
8
DEFAULT_255_1_234
10
23.7664502
20
13.0659855
40
0.3780509
50
264.7366618
51
270.0611241
0
ARC
8
DEFAULT_255_1_234
10
23.7687765
20
13.3500111
40
0.662079
50
269.8335834
51
276.0539546
0
ARC
8
DEFAULT_255_1_234
10
23.7894769
20
13.159856
40
0.4708016
50
275.9894168
51
284.4615085
0
ARC
8
DEFAULT_255_1_234
10
23.8092776
20
13.0765663
40
0.3852094
50
284.7034461
51
286.4953897
0
ARC
8
DEFAULT_255_1_234
10
23.849979
20
12.9454965
40
0.2479842
50
286.0770838
51
304.2625829
0
ARC
8
DEFAULT_255_1_234
10
23.8633204
20
12.9236594
40
0.2224291
50
304.5891602
51
317.1073298
0
LINE
8
DEFAULT_255_1_234
10
21.9609902
20
21.6848211
11
21.9609902
21
20.5154
0
LINE
8
DEFAULT_255_1_234
10
21.9609902
20
20.5154
11
21.8067808
21
20.5154
0
LINE
8
DEFAULT_255_1_234
10
21.8067808
20
20.5154
11
21.8067808
21
21.6848211
0
LINE
8
DEFAULT_255_1_234
10
21.8067808
20
21.6848211
11
21.9609902
21
21.6848211
0
LINE
8
DEFAULT_255_1_234
10
23.1424589
20
21.1362534
11
23.1424589
21
21.0623614
0
LINE
8
DEFAULT_255_1_234
10
22.2019423
20
21.0519201
11
22.2019423
21
21.1362534
0
LINE
8
DEFAULT_255_1_234
10
22.9890527
20
21.0511169
11
22.9890527
21
21.1378597
0
LINE
8
DEFAULT_255_1_234
10
22.3553485
20
21.148301
11
22.3553485
21
21.0623614
0
ARC
8
DEFAULT_255_1_234
10
22.2782615
20
21.0584015
40
0.8642064
50
350.487711
51
0.2625388
0
ARC
8
DEFAULT_255_1_234
10
22.5075857
20
21.0189578
40
0.631518
50
336.0277639
51
350.5787438
0
ARC
8
DEFAULT_255_1_234
10
22.642068
20
20.9581892
40
0.4839466
50
319.8877444
51
336.1328423
0
ARC
8
DEFAULT_255_1_234
10
22.7023321
20
20.909958
40
0.4067874
50
302.4806467
51
319.6143626
0
ARC
8
DEFAULT_255_1_234
10
22.6908331
20
20.9321202
40
0.4316636
50
275.8195682
51
302.1884709
0
ARC
8
DEFAULT_255_1_234
10
22.6741964
20
21.0463665
40
0.5470306
50
269.9171439
51
276.3397983
0
ARC
8
DEFAULT_255_1_234
10
22.6697174
20
20.9777681
40
0.4784458
50
252.5219675
51
270.4416499
0
ARC
8
DEFAULT_255_1_234
10
22.6553433
20
20.9238592
40
0.422716
50
237.5352116
51
252.1857531
0
ARC
8
DEFAULT_255_1_234
10
22.6642629
20
20.9352363
40
0.4371052
50
209.063312
51
237.3492538
0
ARC
8
DEFAULT_255_1_234
10
22.7512477
20
20.9898685
40
0.5397041
50
205.1183774
51
209.6470015
0
ARC
8
DEFAULT_255_1_234
10
22.8309514
20
21.023683
40
0.6262326
50
188.7215458
51
204.8240747
0
ARC
8
DEFAULT_255_1_234
10
23.0307042
20
21.0573067
40
0.8287794
50
180.3723947
51
188.9252049
0
ARC
8
DEFAULT_255_1_234
10
23.0279794
20
21.1402402
40
0.8260467
50
169.5253763
51
180.2765336
0
ARC
8
DEFAULT_255_1_234
10
22.8377243
20
21.1752309
40
0.6326007
50
155.8315255
51
169.5089989
0
ARC
8
DEFAULT_255_1_234
10
22.7096744
20
21.2346348
40
0.4914567
50
139.6258461
51
156.0379525
0
ARC
8
DEFAULT_255_1_234
10
22.6507077
20
21.2820799
40
0.4158054
50
122.6416387
51
139.3430715
0
ARC
8
DEFAULT_255_1_234
10
22.6607697
20
21.2637451
40
0.4366739
50
93.0223692
51
122.455762
0
ARC
8
DEFAULT_255_1_234
10
22.6715694
20
21.1672709
40
0.5336137
50
89.975342
51
93.6341897
0
ARC
8
DEFAULT_255_1_234
10
22.6754473
20
21.2071242
40
0.4937738
50
73.746375
51
90.4233405
0
ARC
8
DEFAULT_255_1_234
10
22.6930052
20
21.2751287
40
0.4235786
50
57.662753
51
73.4518111
0
ARC
8
DEFAULT_255_1_234
10
22.6922058
20
21.2772832
40
0.4221899
50
29.1440151
51
57.414694
0
ARC
8
DEFAULT_255_1_234
10
22.5987253
20
21.2189005
40
0.5322966
50
24.0982783
51
29.7323517
0
ARC
8
DEFAULT_255_1_234
10
22.4953528
20
21.1760399
40
0.6441673
50
8.6655297
51
23.8241346
0
ARC
8
DEFAULT_255_1_234
10
22.2719266
20
21.1395854
40
0.8705386
50
359.7806941
51
8.8218784
0
ARC
8
DEFAULT_255_1_234
10
22.1572264
20
21.1421345
40
0.8318373
50
359.7055579
51
8.036044
0
ARC
8
DEFAULT_255_1_234
10
22.457227
20
21.1858239
40
0.5286768
50
7.8928306
51
20.2962107
0
ARC
8
DEFAULT_255_1_234
10
22.6199841
20
21.2458395
40
0.3552073
50
20.3231126
51
36.4992797
0
ARC
8
DEFAULT_255_1_234
10
22.6885387
20
21.2986402
40
0.2686974
50
36.1437156
51
85.6627023
0
ARC
8
DEFAULT_255_1_234
10
22.6722933
20
21.1946221
40
0.373739
50
84.3852322
51
90.0757696
0
ARC
8
DEFAULT_255_1_234
10
22.6680605
20
21.2606839
40
0.3076997
50
89.3038458
51
109.9045693
0
ARC
8
DEFAULT_255_1_234
10
22.6587996
20
21.2989062
40
0.2686424
50
110.8228367
51
143.9179474
0
ARC
8
DEFAULT_255_1_234
10
22.7521656
20
21.2276236
40
0.3860887
50
143.5289163
51
163.2980757
0
ARC
8
DEFAULT_255_1_234
10
22.9429477
20
21.1676433
40
0.5860659
50
163.0418846
51
174.3140048
0
ARC
8
DEFAULT_255_1_234
10
23.1833589
20
21.1398854
40
0.8280531
50
174.0509143
51
179.4176892
0
ARC
8
DEFAULT_255_1_234
10
23.1329328
20
21.0581954
40
0.7775954
50
179.6930361
51
188.7906598
0
ARC
8
DEFAULT_255_1_234
10
22.8665807
20
21.0155935
40
0.5078633
50
188.6331305
51
202.5629587
0
ARC
8
DEFAULT_255_1_234
10
22.7411399
20
20.9651996
40
0.3726913
50
202.8081362
51
216.1193925
0
ARC
8
DEFAULT_255_1_234
10
22.6601969
20
20.9000676
40
0.2689577
50
215.0755913
51
264.6379694
0
ARC
8
DEFAULT_255_1_234
10
22.6728919
20
20.9831513
40
0.3528978
50
263.846392
51
270.0833719
0
ARC
8
DEFAULT_255_1_234
10
22.6770309
20
20.9573374
40
0.3271036
50
269.3649385
51
287.5152008
0
ARC
8
DEFAULT_255_1_234
10
22.6948467
20
20.8926238
40
0.2600406
50
288.0630309
51
323.8113348
0
ARC
8
DEFAULT_255_1_234
10
22.6077309
20
20.9576049
40
0.3687189
50
323.6547608
51
342.6590488
0
ARC
8
DEFAULT_255_1_234
10
22.4045924
20
21.0236952
40
0.5823286
50
342.4091907
51
353.6451149
0
ARC
8
DEFAULT_255_1_234
10
22.1214434
20
21.058919
40
0.8676442
50
353.4029884
51
359.4847795
0
LINE
8
DEFAULT_255_1_234
10
23.4107189
20
21.6848211
11
23.7432329
21
20.7202093
0
LINE
8
DEFAULT_255_1_234
10
23.7432329
20
20.7202093
11
24.0773532
21
21.6848211
0
LINE
8
DEFAULT_255_1_234
10
24.0773532
20
21.6848211
11
24.2460197
21
21.6848211
0
LINE
8
DEFAULT_255_1_234
10
24.2460197
20
21.6848211
11
23.8123059
21
20.5154
0
LINE
8
DEFAULT_255_1_234
10
23.8123059
20
20.5154
11
23.6757663
21
20.5154
0
LINE
8
DEFAULT_255_1_234
10
23.6757663
20
20.5154
11
23.2428556
21
21.6848211
0
LINE
8
DEFAULT_255_1_234
10
23.2428556
20
21.6848211
11
23.4107189
21
21.6848211
0
LINE
8
DEFAULT_255_1_234
10
21.9609902
20
29.6223211
11
21.9609902
21
28.4529
0
LINE
8
DEFAULT_255_1_234
10
21.9609902
20
28.4529
11
21.8067808
21
28.4529
0
LINE
8
DEFAULT_255_1_234
10
21.8067808
20
28.4529
11
21.8067808
21
29.6223211
0
LINE
8
DEFAULT_255_1_234
10
21.8067808
20
29.6223211
11
21.9609902
21
29.6223211
0
LINE
8
DEFAULT_255_1_234
10
23.1424589
20
29.0737534
11
23.1424589
21
28.9998614
0
LINE
8
DEFAULT_255_1_234
10
22.2019423
20
28.9894201
11
22.2019423
21
29.0737534
0
LINE
8
DEFAULT_255_1_234
10
22.9890527
20
28.9886169
11
22.9890527
21
29.0753597
0
LINE
8
DEFAULT_255_1_234
10
22.3553485
20
29.085801
11
22.3553485
21
28.9998614
0
ARC
8
DEFAULT_255_1_234
10
22.2782615
20
28.9959015
40
0.8642064
50
350.487711
51
0.2625388
0
ARC
8
DEFAULT_255_1_234
10
22.5075857
20
28.9564578
40
0.631518
50
336.0277639
51
350.5787438
0
ARC
8
DEFAULT_255_1_234
10
22.642068
20
28.8956892
40
0.4839466
50
319.8877444
51
336.1328423
0
ARC
8
DEFAULT_255_1_234
10
22.7023321
20
28.847458
40
0.4067874
50
302.4806467
51
319.6143626
0
ARC
8
DEFAULT_255_1_234
10
22.6908331
20
28.8696202
40
0.4316636
50
275.8195682
51
302.1884709
0
ARC
8
DEFAULT_255_1_234
10
22.6741964
20
28.9838665
40
0.5470306
50
269.9171439
51
276.3397983
0
ARC
8
DEFAULT_255_1_234
10
22.6697174
20
28.9152681
40
0.4784458
50
252.5219675
51
270.4416499
0
ARC
8
DEFAULT_255_1_234
10
22.6553433
20
28.8613592
40
0.422716
50
237.5352116
51
252.1857531
0
ARC
8
DEFAULT_255_1_234
10
22.6642629
20
28.8727363
40
0.4371052
50
209.063312
51
237.3492538
0
ARC
8
DEFAULT_255_1_234
10
22.7512477
20
28.9273685
40
0.5397041
50
205.1183774
51
209.6470015
0
ARC
8
DEFAULT_255_1_234
10
22.8309514
20
28.961183
40
0.6262326
50
188.7215458
51
204.8240747
0
ARC
8
DEFAULT_255_1_234
10
23.0307042
20
28.9948067
40
0.8287794
50
180.3723947
51
188.9252049
0
ARC
8
DEFAULT_255_1_234
10
23.0279794
20
29.0777402
40
0.8260467
50
169.5253763
51
180.2765336
0
ARC
8
DEFAULT_255_1_234
10
22.8377243
20
29.1127309
40
0.6326007
50
155.8315255
51
169.5089989
0
ARC
8
DEFAULT_255_1_234
10
22.7096744
20
29.1721348
40
0.4914567
50
139.6258461
51
156.0379525
0
ARC
8
DEFAULT_255_1_234
10
22.6507077
20
29.2195799
40
0.4158054
50
122.6416387
51
139.3430715
0
ARC
8
DEFAULT_255_1_234
10
22.6607697
20
29.2012451
40
0.4366739
50
93.0223692
51
122.455762
0
ARC
8
DEFAULT_255_1_234
10
22.6715694
20
29.1047709
40
0.5336137
50
89.975342
51
93.6341897
0
ARC
8
DEFAULT_255_1_234
10
22.6754473
20
29.1446242
40
0.4937738
50
73.746375
51
90.4233405
0
ARC
8
DEFAULT_255_1_234
10
22.6930052
20
29.2126287
40
0.4235786
50
57.662753
51
73.4518111
0
ARC
8
DEFAULT_255_1_234
10
22.6922058
20
29.2147832
40
0.4221899
50
29.1440151
51
57.414694
0
ARC
8
DEFAULT_255_1_234
10
22.5987253
20
29.1564005
40
0.5322966
50
24.0982783
51
29.7323517
0
ARC
8
DEFAULT_255_1_234
10
22.4953528
20
29.1135399
40
0.6441673
50
8.6655297
51
23.8241346
0
ARC
8
DEFAULT_255_1_234
10
22.2719266
20
29.0770854
40
0.8705386
50
359.7806941
51
8.8218784
0
ARC
8
DEFAULT_255_1_234
10
22.1572264
20
29.0796345
40
0.8318373
50
359.7055579
51
8.036044
0
ARC
8
DEFAULT_255_1_234
10
22.457227
20
29.1233239
40
0.5286768
50
7.8928306
51
20.2962107
0
ARC
8
DEFAULT_255_1_234
10
22.6199841
20
29.1833395
40
0.3552073
50
20.3231126
51
36.4992797
0
ARC
8
DEFAULT_255_1_234
10
22.6885387
20
29.2361402
40
0.2686974
50
36.1437156
51
85.6627023
0
ARC
8
DEFAULT_255_1_234
10
22.6722933
20
29.1321221
40
0.373739
50
84.3852322
51
90.0757696
0
ARC
8
DEFAULT_255_1_234
10
22.6680605
20
29.1981839
40
0.3076997
50
89.3038458
51
109.9045693
0
ARC
8
DEFAULT_255_1_234
10
22.6587996
20
29.2364062
40
0.2686424
50
110.8228367
51
143.9179474
0
ARC
8
DEFAULT_255_1_234
10
22.7521656
20
29.1651236
40
0.3860887
50
143.5289163
51
163.2980757
0
ARC
8
DEFAULT_255_1_234
10
22.9429477
20
29.1051433
40
0.5860659
50
163.0418846
51
174.3140048
0
ARC
8
DEFAULT_255_1_234
10
23.1833589
20
29.0773854
40
0.8280531
50
174.0509143
51
179.4176892
0
ARC
8
DEFAULT_255_1_234
10
23.1329328
20
28.9956954
40
0.7775954
50
179.6930361
51
188.7906598
0
ARC
8
DEFAULT_255_1_234
10
22.8665807
20
28.9530935
40
0.5078633
50
188.6331305
51
202.5629587
0
ARC
8
DEFAULT_255_1_234
10
22.7411399
20
28.9026996
40
0.3726913
50
202.8081362
51
216.1193925
0
ARC
8
DEFAULT_255_1_234
10
22.6601969
20
28.8375676
40
0.2689577
50
215.0755913
51
264.6379694
0
ARC
8
DEFAULT_255_1_234
10
22.6728919
20
28.9206513
40
0.3528978
50
263.846392
51
270.0833719
0
ARC
8
DEFAULT_255_1_234
10
22.6770309
20
28.8948374
40
0.3271036
50
269.3649385
51
287.5152008
0
ARC
8
DEFAULT_255_1_234
10
22.6948467
20
28.8301238
40
0.2600406
50
288.0630309
51
323.8113348
0
ARC
8
DEFAULT_255_1_234
10
22.6077309
20
28.8951049
40
0.3687189
50
323.6547608
51
342.6590488
0
ARC
8
DEFAULT_255_1_234
10
22.4045924
20
28.9611952
40
0.5823286
50
342.4091907
51
353.6451149
0
ARC
8
DEFAULT_255_1_234
10
22.1214434
20
28.996419
40
0.8676442
50
353.4029884
51
359.4847795
0
LINE
8
DEFAULT_255_1_234
10
23.4107189
20
29.6223211
11
23.7432329
21
28.6577093
0
LINE
8
DEFAULT_255_1_234
10
23.7432329
20
28.6577093
11
24.0773532
21
29.6223211
0
LINE
8
DEFAULT_255_1_234
10
24.0773532
20
29.6223211
11
24.2460197
21
29.6223211
0
LINE
8
DEFAULT_255_1_234
10
24.2460197
20
29.6223211
11
23.8123059
21
28.4529
0
LINE
8
DEFAULT_255_1_234
10
23.8123059
20
28.4529
11
23.6757663
21
28.4529
0
LINE
8
DEFAULT_255_1_234
10
23.6757663
20
28.4529
11
23.2428556
21
29.6223211
0
LINE
8
DEFAULT_255_1_234
10
23.2428556
20
29.6223211
11
23.4107189
21
29.6223211
0
LINE
8
DEFAULT_255_1_234
10
22.3243902
20
37.5598211
11
22.3243902
21
36.3904
0
LINE
8
DEFAULT_255_1_234
10
22.3243902
20
36.3904
11
22.1701808
21
36.3904
0
LINE
8
DEFAULT_255_1_234
10
22.1701808
20
36.3904
11
22.1701808
21
37.5598211
0
LINE
8
DEFAULT_255_1_234
10
22.1701808
20
37.5598211
11
22.3243902
21
37.5598211
0
LINE
8
DEFAULT_255_1_234
10
23.1950306
20
37.5598211
11
23.1950306
21
36.783152
0
LINE
8
DEFAULT_255_1_234
10
23.1950306
20
36.783152
11
23.3572717
21
36.783152
0
LINE
8
DEFAULT_255_1_234
10
23.3572717
20
36.783152
11
23.3572717
21
36.6618728
0
LINE
8
DEFAULT_255_1_234
10
23.3572717
20
36.6618728
11
23.1950306
21
36.6618728
0
LINE
8
DEFAULT_255_1_234
10
23.1950306
20
36.6618728
11
23.1950306
21
36.3904
0
LINE
8
DEFAULT_255_1_234
10
23.1950306
20
36.3904
11
23.0456403
21
36.3904
0
LINE
8
DEFAULT_255_1_234
10
23.0456403
20
36.3904
11
23.0456403
21
36.6618728
0
LINE
8
DEFAULT_255_1_234
10
23.0456403
20
36.6618728
11
22.513136
21
36.6618728
0
LINE
8
DEFAULT_255_1_234
10
22.513136
20
36.6618728
11
22.513136
21
36.7494187
0
LINE
8
DEFAULT_255_1_234
10
22.513136
20
36.7494187
11
23.0368054
21
37.5598211
0
LINE
8
DEFAULT_255_1_234
10
23.0368054
20
37.5598211
11
23.1950306
21
37.5598211
0
LINE
8
DEFAULT_255_1_234
10
23.0279705
20
37.3244912
11
22.6818025
21
36.783152
0
LINE
8
DEFAULT_255_1_234
10
22.6818025
20
36.783152
11
23.0456403
21
36.783152
0
LINE
8
DEFAULT_255_1_234
10
23.0456403
20
36.783152
11
23.0456403
21
37.3566181
0
LINE
8
DEFAULT_255_1_234
10
23.0456403
20
37.3566181
11
23.0279705
21
37.3244912
0
LINE
8
DEFAULT_255_1_234
10
23.9323442
20
37.3590276
11
23.9323442
21
37.0176788
0
LINE
8
DEFAULT_255_1_234
10
23.9323442
20
37.0176788
11
24.2584328
21
37.0176788
0
LINE
8
DEFAULT_255_1_234
10
24.2584328
20
37.0176788
11
24.2584328
21
36.8771233
0
LINE
8
DEFAULT_255_1_234
10
24.2584328
20
36.8771233
11
23.9323442
21
36.8771233
0
LINE
8
DEFAULT_255_1_234
10
23.9323442
20
36.8771233
11
23.9323442
21
36.5076634
0
LINE
8
DEFAULT_255_1_234
10
23.9323442
20
36.5076634
11
23.7829539
21
36.5076634
0
LINE
8
DEFAULT_255_1_234
10
23.7829539
20
36.5076634
11
23.7829539
21
36.8771233
0
LINE
8
DEFAULT_255_1_234
10
23.7829539
20
36.8771233
11
23.4568653
21
36.8771233
0
LINE
8
DEFAULT_255_1_234
10
23.4568653
20
36.8771233
11
23.4568653
21
37.0176788
0
LINE
8
DEFAULT_255_1_234
10
23.4568653
20
37.0176788
11
23.7829539
21
37.0176788
0
LINE
8
DEFAULT_255_1_234
10
23.7829539
20
37.0176788
11
23.7829539
21
37.3590276
0
LINE
8
DEFAULT_255_1_234
10
23.7829539
20
37.3590276
11
23.9323442
21
37.3590276
0
LINE
8
DEFAULT_255_1_234
10
22.3243902
20
45.4973211
11
22.3243902
21
44.3279
0
LINE
8
DEFAULT_255_1_234
10
22.3243902
20
44.3279
11
22.1701808
21
44.3279
0
LINE
8
DEFAULT_255_1_234
10
22.1701808
20
44.3279
11
22.1701808
21
45.4973211
0
LINE
8
DEFAULT_255_1_234
10
22.1701808
20
45.4973211
11
22.3243902
21
45.4973211
0
LINE
8
DEFAULT_255_1_234
10
22.7838056
20
44.8636169
11
22.7838056
21
44.9848962
0
LINE
8
DEFAULT_255_1_234
10
22.7838056
20
44.9848962
11
22.8954468
21
44.9848962
0
LINE
8
DEFAULT_255_1_234
10
22.7050946
20
45.1905087
11
22.5565074
21
45.1905087
0
LINE
8
DEFAULT_255_1_234
10
22.5460662
20
44.6363188
11
22.6954565
21
44.6363188
0
LINE
8
DEFAULT_255_1_234
10
22.8954468
20
44.8636169
11
22.7838056
21
44.8636169
0
ARC
8
DEFAULT_255_1_234
10
22.8925334
20
45.3241713
40
0.3392876
50
270.4919872
51
281.8951556
0
ARC
8
DEFAULT_255_1_234
10
22.9166596
20
45.2139702
40
0.2264817
50
281.6691735
51
301.2943132
0
ARC
8
DEFAULT_255_1_234
10
22.9336806
20
45.1828304
40
0.1910381
50
301.7833094
51
311.7545298
0
ARC
8
DEFAULT_255_1_234
10
22.9428382
20
45.1726748
40
0.1773635
50
311.7323931
51
354.2802411
0
ARC
8
DEFAULT_255_1_234
10
22.8702007
20
45.1851722
40
0.2509385
50
353.0937916
51
0.1181479
0
ARC
8
DEFAULT_255_1_234
10
22.8240792
20
45.1899386
40
0.2970898
50
359.1805295
51
15.0453146
0
ARC
8
DEFAULT_255_1_234
10
22.9586629
20
45.2291992
40
0.1569564
50
13.9577229
51
77.6713066
0
ARC
8
DEFAULT_255_1_234
10
22.9200158
20
45.0906949
40
0.3006298
50
76.1116566
51
90.7026153
0
ARC
8
DEFAULT_255_1_234
10
22.9140996
20
45.1180545
40
0.2732568
50
89.5324876
51
103.531937
0
ARC
8
DEFAULT_255_1_234
10
22.8940441
20
45.1979884
40
0.1908508
50
103.2931773
51
133.5619022
0
ARC
8
DEFAULT_255_1_234
10
22.8895929
20
45.2039375
40
0.1834746
50
133.8349307
51
173.5344437
0
ARC
8
DEFAULT_255_1_234
10
22.9618972
20
45.1911213
40
0.2568033
50
172.5096846
51
180.1366907
0
ARC
8
DEFAULT_255_1_234
10
22.8667866
20
45.1945622
40
0.3103056
50
155.3484492
51
180.7484736
0
ARC
8
DEFAULT_255_1_234
10
22.8618955
20
45.1916846
40
0.3070957
50
131.5744599
51
154.4798489
0
ARC
8
DEFAULT_255_1_234
10
22.8932102
20
45.160031
40
0.3515643
50
96.9875458
51
131.9690667
0
ARC
8
DEFAULT_255_1_234
10
22.9151582
20
45.0354636
40
0.4779224
50
89.8596053
51
97.7825159
0
ARC
8
DEFAULT_255_1_234
10
22.9199645
20
45.0092616
40
0.5041361
50
78.3655447
51
90.4131539
0
ARC
8
DEFAULT_255_1_234
10
22.9557563
20
45.1751887
40
0.3344039
50
56.6229102
51
78.638727
0
ARC
8
DEFAULT_255_1_234
10
22.9772507
20
45.2127805
40
0.2912001
50
47.0253525
51
56.0854072
0
ARC
8
DEFAULT_255_1_234
10
22.9792287
20
45.2167223
40
0.2869704
50
10.9208013
51
46.7778124
0
ARC
8
DEFAULT_255_1_234
10
22.8428354
20
45.1851857
40
0.426899
50
359.6364486
51
11.6087304
0
ARC
8
DEFAULT_255_1_234
10
23.0263198
20
45.1836752
40
0.243409
50
332.3549906
51
359.7179418
0
ARC
8
DEFAULT_255_1_234
10
22.9612799
20
45.2145142
40
0.3153459
50
325.2333722
51
332.8745602
0
ARC
8
DEFAULT_255_1_234
10
22.9765423
20
45.2038828
40
0.2967456
50
292.9802137
51
325.2392345
0
ARC
8
DEFAULT_255_1_234
10
22.9490797
20
45.2572863
40
0.3566604
50
292.5402179
51
293.6924929
0
ARC
8
DEFAULT_255_1_234
10
22.9883393
20
44.6118091
40
0.3307468
50
57.6435486
51
72.8625112
0
ARC
8
DEFAULT_255_1_234
10
23.0237892
20
44.6692549
40
0.2632492
50
36.7248896
51
57.4697979
0
ARC
8
DEFAULT_255_1_234
10
23.0226525
20
44.670522
40
0.2634081
50
8.0545065
51
36.356114
0
ARC
8
DEFAULT_255_1_234
10
22.936371
20
44.6550174
40
0.3510261
50
359.8320645
51
8.5869982
0
ARC
8
DEFAULT_255_1_234
10
22.8988486
20
44.6502101
40
0.3885653
50
343.9829931
51
0.5571613
0
ARC
8
DEFAULT_255_1_234
10
22.9874684
20
44.6259438
40
0.2966924
50
311.6359546
51
343.7651759
0
ARC
8
DEFAULT_255_1_234
10
22.9496253
20
44.6686102
40
0.3537231
50
279.7829875
51
311.6255694
0
ARC
8
DEFAULT_255_1_234
10
22.9195029
20
44.812328
40
0.5004971
50
269.7286406
51
280.3856417
0
ARC
8
DEFAULT_255_1_234
10
22.9133102
20
44.8081996
40
0.4963778
50
256.6828919
51
270.4412052
0
ARC
8
DEFAULT_255_1_234
10
22.8794397
20
44.6697394
40
0.3538406
50
229.4223008
51
256.8556159
0
ARC
8
DEFAULT_255_1_234
10
22.837979
20
44.6230736
40
0.2914296
50
181.818294
51
229.6455059
0
ARC
8
DEFAULT_255_1_234
10
22.9419746
20
44.6361496
40
0.3959084
50
179.9755256
51
183.2323064
0
ARC
8
DEFAULT_255_1_234
10
22.9247492
20
44.6341037
40
0.2293034
50
179.4465117
51
196.2869258
0
ARC
8
DEFAULT_255_1_234
10
22.87599
20
44.6207651
40
0.1787621
50
196.5661473
51
227.705904
0
ARC
8
DEFAULT_255_1_234
10
22.8923995
20
44.6391155
40
0.2033784
50
227.7652068
51
257.8762805
0
ARC
8
DEFAULT_255_1_234
10
22.9148965
20
44.7334156
40
0.3003081
50
257.4584385
51
270.426602
0
ARC
8
DEFAULT_255_1_234
10
22.9194531
20
44.7623996
40
0.329292
50
269.5962073
51
280.8789248
0
ARC
8
DEFAULT_255_1_234
10
22.942406
20
44.6477685
40
0.2123908
50
280.6346389
51
299.8595945
0
ARC
8
DEFAULT_255_1_234
10
22.9614967
20
44.6115212
40
0.171457
50
300.3576302
51
314.5517981
0
ARC
8
DEFAULT_255_1_234
10
22.9532027
20
44.6175919
40
0.1816095
50
315.0728369
51
345.0431014
0
ARC
8
DEFAULT_255_1_234
10
22.8608841
20
44.6444841
40
0.2777492
50
344.5986631
51
357.9269593
0
ARC
8
DEFAULT_255_1_234
10
22.7713168
20
44.6506276
40
0.3674917
50
357.4748886
51
0.0231117
0
ARC
8
DEFAULT_255_1_234
10
22.8736277
20
44.6530679
40
0.2651907
50
359.5047933
51
13.4239635
0
ARC
8
DEFAULT_255_1_234
10
22.9602921
20
44.6752478
40
0.1757509
50
12.9498199
51
48.7551375
0
ARC
8
DEFAULT_255_1_234
10
22.9420655
20
44.65034
40
0.2065134
50
49.5088623
51
72.1836453
0
ARC
8
DEFAULT_255_1_234
10
22.9062807
20
44.5441291
40
0.3185836
50
71.9010081
51
84.3554254
0
ARC
8
DEFAULT_255_1_234
10
22.8901439
20
44.4080326
40
0.4556151
50
84.0193428
51
89.333121
0
LINE
8
DEFAULT_255_1_234
10
23.9323442
20
45.2965276
11
23.9323442
21
44.9551788
0
LINE
8
DEFAULT_255_1_234
10
23.9323442
20
44.9551788
11
24.2584328
21
44.9551788
0
LINE
8
DEFAULT_255_1_234
10
24.2584328
20
44.9551788
11
24.2584328
21
44.8146233
0
LINE
8
DEFAULT_255_1_234
10
24.2584328
20
44.8146233
11
23.9323442
21
44.8146233
0
LINE
8
DEFAULT_255_1_234
10
23.9323442
20
44.8146233
11
23.9323442
21
44.4451634
0
LINE
8
DEFAULT_255_1_234
10
23.9323442
20
44.4451634
11
23.7829539
21
44.4451634
0
LINE
8
DEFAULT_255_1_234
10
23.7829539
20
44.4451634
11
23.7829539
21
44.8146233
0
LINE
8
DEFAULT_255_1_234
10
23.7829539
20
44.8146233
11
23.4568653
21
44.8146233
0
LINE
8
DEFAULT_255_1_234
10
23.4568653
20
44.8146233
11
23.4568653
21
44.9551788
0
LINE
8
DEFAULT_255_1_234
10
23.4568653
20
44.9551788
11
23.7829539
21
44.9551788
0
LINE
8
DEFAULT_255_1_234
10
23.7829539
20
44.9551788
11
23.7829539
21
45.2965276
0
LINE
8
DEFAULT_255_1_234
10
23.7829539
20
45.2965276
11
23.9323442
21
45.2965276
0
LINE
8
DEFAULT_255_1_234
10
21.9034902
20
53.4348211
11
21.9034902
21
52.2654
0
LINE
8
DEFAULT_255_1_234
10
21.9034902
20
52.2654
11
21.7492808
21
52.2654
0
LINE
8
DEFAULT_255_1_234
10
21.7492808
20
52.2654
11
21.7492808
21
53.4348211
0
LINE
8
DEFAULT_255_1_234
10
21.7492808
20
53.4348211
11
21.9034902
21
53.4348211
0
LINE
8
DEFAULT_255_1_234
10
23.0849589
20
52.8862534
11
23.0849589
21
52.8123614
0
LINE
8
DEFAULT_255_1_234
10
22.1444423
20
52.8019201
11
22.1444423
21
52.8862534
0
LINE
8
DEFAULT_255_1_234
10
22.9315527
20
52.8011169
11
22.9315527
21
52.8878597
0
LINE
8
DEFAULT_255_1_234
10
22.2978485
20
52.898301
11
22.2978485
21
52.8123614
0
ARC
8
DEFAULT_255_1_234
10
22.2207615
20
52.8084015
40
0.8642064
50
350.487711
51
0.2625388
0
ARC
8
DEFAULT_255_1_234
10
22.4500857
20
52.7689578
40
0.631518
50
336.0277639
51
350.5787438
0
ARC
8
DEFAULT_255_1_234
10
22.584568
20
52.7081892
40
0.4839466
50
319.8877444
51
336.1328423
0
ARC
8
DEFAULT_255_1_234
10
22.6448321
20
52.659958
40
0.4067874
50
302.4806467
51
319.6143626
0
ARC
8
DEFAULT_255_1_234
10
22.6333331
20
52.6821202
40
0.4316636
50
275.8195682
51
302.1884709
0
ARC
8
DEFAULT_255_1_234
10
22.6166964
20
52.7963665
40
0.5470306
50
269.9171439
51
276.3397983
0
ARC
8
DEFAULT_255_1_234
10
22.6122174
20
52.7277681
40
0.4784458
50
252.5219675
51
270.4416499
0
ARC
8
DEFAULT_255_1_234
10
22.5978433
20
52.6738592
40
0.422716
50
237.5352116
51
252.1857531
0
ARC
8
DEFAULT_255_1_234
10
22.6067629
20
52.6852363
40
0.4371052
50
209.063312
51
237.3492538
0
ARC
8
DEFAULT_255_1_234
10
22.6937477
20
52.7398685
40
0.5397041
50
205.1183774
51
209.6470015
0
ARC
8
DEFAULT_255_1_234
10
22.7734514
20
52.773683
40
0.6262326
50
188.7215458
51
204.8240747
0
ARC
8
DEFAULT_255_1_234
10
22.9732042
20
52.8073067
40
0.8287794
50
180.3723947
51
188.9252049
0
ARC
8
DEFAULT_255_1_234
10
22.9704794
20
52.8902402
40
0.8260467
50
169.5253763
51
180.2765336
0
ARC
8
DEFAULT_255_1_234
10
22.7802243
20
52.9252309
40
0.6326007
50
155.8315255
51
169.5089989
0
ARC
8
DEFAULT_255_1_234
10
22.6521744
20
52.9846348
40
0.4914567
50
139.6258461
51
156.0379525
0
ARC
8
DEFAULT_255_1_234
10
22.5932077
20
53.0320799
40
0.4158054
50
122.6416387
51
139.3430715
0
ARC
8
DEFAULT_255_1_234
10
22.6032697
20
53.0137451
40
0.4366739
50
93.0223692
51
122.455762
0
ARC
8
DEFAULT_255_1_234
10
22.6140694
20
52.9172709
40
0.5336137
50
89.975342
51
93.6341897
0
ARC
8
DEFAULT_255_1_234
10
22.6179473
20
52.9571242
40
0.4937738
50
73.746375
51
90.4233405
0
ARC
8
DEFAULT_255_1_234
10
22.6355052
20
53.0251287
40
0.4235786
50
57.662753
51
73.4518111
0
ARC
8
DEFAULT_255_1_234
10
22.6347058
20
53.0272832
40
0.4221899
50
29.1440151
51
57.414694
0
ARC
8
DEFAULT_255_1_234
10
22.5412253
20
52.9689005
40
0.5322966
50
24.0982783
51
29.7323517
0
ARC
8
DEFAULT_255_1_234
10
22.4378528
20
52.9260399
40
0.6441673
50
8.6655297
51
23.8241346
0
ARC
8
DEFAULT_255_1_234
10
22.2144266
20
52.8895854
40
0.8705386
50
359.7806941
51
8.8218784
0
ARC
8
DEFAULT_255_1_234
10
22.0997264
20
52.8921345
40
0.8318373
50
359.7055579
51
8.036044
0
ARC
8
DEFAULT_255_1_234
10
22.399727
20
52.9358239
40
0.5286768
50
7.8928306
51
20.2962107
0
ARC
8
DEFAULT_255_1_234
10
22.5624841
20
52.9958395
40
0.3552073
50
20.3231126
51
36.4992797
0
ARC
8
DEFAULT_255_1_234
10
22.6310387
20
53.0486402
40
0.2686974
50
36.1437156
51
85.6627023
0
ARC
8
DEFAULT_255_1_234
10
22.6147933
20
52.9446221
40
0.373739
50
84.3852322
51
90.0757696
0
ARC
8
DEFAULT_255_1_234
10
22.6105605
20
53.0106839
40
0.3076997
50
89.3038458
51
109.9045693
0
ARC
8
DEFAULT_255_1_234
10
22.6012996
20
53.0489062
40
0.2686424
50
110.8228367
51
143.9179474
0
ARC
8
DEFAULT_255_1_234
10
22.6946656
20
52.9776236
40
0.3860887
50
143.5289163
51
163.2980757
0
ARC
8
DEFAULT_255_1_234
10
22.8854477
20
52.9176433
40
0.5860659
50
163.0418846
51
174.3140048
0
ARC
8
DEFAULT_255_1_234
10
23.1258589
20
52.8898854
40
0.8280531
50
174.0509143
51
179.4176892
0
ARC
8
DEFAULT_255_1_234
10
23.0754328
20
52.8081954
40
0.7775954
50
179.6930361
51
188.7906598
0
ARC
8
DEFAULT_255_1_234
10
22.8090807
20
52.7655935
40
0.5078633
50
188.6331305
51
202.5629587
0
ARC
8
DEFAULT_255_1_234
10
22.6836399
20
52.7151996
40
0.3726913
50
202.8081362
51
216.1193925
0
ARC
8
DEFAULT_255_1_234
10
22.6026969
20
52.6500676
40
0.2689577
50
215.0755913
51
264.6379694
0
ARC
8
DEFAULT_255_1_234
10
22.6153919
20
52.7331513
40
0.3528978
50
263.846392
51
270.0833719
0
ARC
8
DEFAULT_255_1_234
10
22.6195309
20
52.7073374
40
0.3271036
50
269.3649385
51
287.5152008
0
ARC
8
DEFAULT_255_1_234
10
22.6373467
20
52.6426238
40
0.2600406
50
288.0630309
51
323.8113348
0
ARC
8
DEFAULT_255_1_234
10
22.5502309
20
52.7076049
40
0.3687189
50
323.6547608
51
342.6590488
0
ARC
8
DEFAULT_255_1_234
10
22.3470924
20
52.7736952
40
0.5823286
50
342.4091907
51
353.6451149
0
ARC
8
DEFAULT_255_1_234
10
22.0639434
20
52.808919
40
0.8676442
50
353.4029884
51
359.4847795
0
LINE
8
DEFAULT_255_1_234
10
24.1796848
20
52.847701
11
24.1796848
21
52.4188062
0
LINE
8
DEFAULT_255_1_234
10
23.2785238
20
52.7938884
11
23.2785238
21
52.8958915
0
LINE
8
DEFAULT_255_1_234
10
24.1796848
20
53.0918659
11
24.0254754
21
53.0918659
0
LINE
8
DEFAULT_255_1_234
10
23.4335363
20
52.8999073
11
23.4335363
21
52.8043296
0
LINE
8
DEFAULT_255_1_234
10
24.0262786
20
52.4597681
11
24.0262786
21
52.7224059
0
LINE
8
DEFAULT_255_1_234
10
24.0262786
20
52.7224059
11
23.755609
21
52.7224059
0
LINE
8
DEFAULT_255_1_234
10
23.755609
20
52.7224059
11
23.755609
21
52.847701
0
LINE
8
DEFAULT_255_1_234
10
23.755609
20
52.847701
11
24.1796848
21
52.847701
0
ARC
8
DEFAULT_255_1_234
10
23.8965354
20
52.6181396
40
0.3462765
50
295.8437914
51
324.8549609
0
ARC
8
DEFAULT_255_1_234
10
23.8549321
20
52.6934567
40
0.4322211
50
291.5695085
51
296.4549398
0
ARC
8
DEFAULT_255_1_234
10
23.8038573
20
52.8299275
40
0.5779178
50
278.6622409
51
291.3045483
0
ARC
8
DEFAULT_255_1_234
10
23.7699064
20
53.0447408
40
0.7953952
50
270.020006
51
278.7494541
0
ARC
8
DEFAULT_255_1_234
10
23.7660988
20
53.1764036
40
0.927067
50
269.9969998
51
270.2524872
0
ARC
8
DEFAULT_255_1_234
10
23.7622702
20
52.7680589
40
0.5187361
50
253.5786322
51
270.4175299
0
ARC
8
DEFAULT_255_1_234
10
23.7449358
20
52.7009236
40
0.4494451
50
238.8203306
51
253.2788235
0
ARC
8
DEFAULT_255_1_234
10
23.7429731
20
52.6958231
40
0.4440665
50
206.7883783
51
238.6962764
0
ARC
8
DEFAULT_255_1_234
10
23.8203641
20
52.7422405
40
0.5341121
50
206.1129412
51
207.4916643
0
ARC
8
DEFAULT_255_1_234
10
23.8800556
20
52.7676488
40
0.5989041
50
188.6921119
51
205.7821245
0
ARC
8
DEFAULT_255_1_234
10
24.0656918
20
52.799223
40
0.7871862
50
180.3882829
51
188.9219216
0
ARC
8
DEFAULT_255_1_234
10
24.1884732
20
52.9015464
40
0.909967
50
170.2024264
51
180.3560651
0
ARC
8
DEFAULT_255_1_234
10
23.872125
20
52.9581237
40
0.5886083
50
154.2857445
51
170.3893044
0
ARC
8
DEFAULT_255_1_234
10
23.7439453
20
53.016795
40
0.4476743
50
139.8401567
51
153.9332699
0
ARC
8
DEFAULT_255_1_234
10
23.7080189
20
53.0455577
40
0.4016697
50
98.4190291
51
139.6707122
0
ARC
8
DEFAULT_255_1_234
10
23.7459706
20
52.8610328
40
0.5898566
50
89.7659205
51
99.4415478
0
ARC
8
DEFAULT_255_1_234
10
23.7524956
20
52.8675844
40
0.5833147
50
78.0551672
51
90.4042112
0
ARC
8
DEFAULT_255_1_234
10
23.7929466
20
53.0494644
40
0.3970055
50
54.6380464
51
78.3339173
0
ARC
8
DEFAULT_255_1_234
10
23.8119522
20
53.0814795
40
0.3599102
50
50.031736
51
54.1558201
0
ARC
8
DEFAULT_255_1_234
10
23.8012309
20
53.0718766
40
0.3741624
50
18.1092409
51
49.7180913
0
ARC
8
DEFAULT_255_1_234
10
23.6555509
20
53.0185089
40
0.5292424
50
7.9672797
51
18.6984571
0
ARC
8
DEFAULT_255_1_234
10
23.6705988
20
53.0308504
40
0.3600838
50
9.7557294
51
27.3215714
0
ARC
8
DEFAULT_255_1_234
10
23.7833459
20
53.0871912
40
0.2340608
50
27.7361077
51
84.5257964
0
ARC
8
DEFAULT_255_1_234
10
23.7505846
20
52.922864
40
0.4011215
50
82.106034
51
90.2001166
0
ARC
8
DEFAULT_255_1_234
10
23.7456063
20
52.9736215
40
0.3503799
50
89.4150119
51
105.5823402
0
ARC
8
DEFAULT_255_1_234
10
23.7199061
20
53.0671867
40
0.2533503
50
105.6678618
51
144.2648758
0
ARC
8
DEFAULT_255_1_234
10
23.8092317
20
53.0036289
40
0.3629787
50
144.3561283
51
162.8564086
0
ARC
8
DEFAULT_255_1_234
10
24.0176226
20
52.9367017
40
0.5818441
50
162.6076014
51
173.6780284
0
ARC
8
DEFAULT_255_1_234
10
24.3237369
20
52.899489
40
0.8902007
50
173.4670142
51
179.9730753
0
ARC
8
DEFAULT_255_1_234
10
24.1329041
20
52.800126
40
0.6993804
50
179.6556203
51
190.0080463
0
ARC
8
DEFAULT_255_1_234
10
23.901287
20
52.7576375
40
0.4639066
50
189.8116607
51
206.6796816
0
ARC
8
DEFAULT_255_1_234
10
23.8168022
20
52.7182503
40
0.3707421
50
207.1031645
51
217.7074368
0
ARC
8
DEFAULT_255_1_234
10
23.7533711
20
52.6630559
40
0.2868417
50
216.7345547
51
265.6812148
0
ARC
8
DEFAULT_255_1_234
10
23.7664502
20
52.7534855
40
0.3780509
50
264.7366618
51
270.0611241
0
ARC
8
DEFAULT_255_1_234
10
23.7687765
20
53.0375111
40
0.662079
50
269.8335834
51
276.0539546
0
ARC
8
DEFAULT_255_1_234
10
23.7894769
20
52.847356
40
0.4708016
50
275.9894168
51
284.4615085
0
ARC
8
DEFAULT_255_1_234
10
23.8092776
20
52.7640663
40
0.3852094
50
284.7034461
51
286.4953897
0
ARC
8
DEFAULT_255_1_234
10
23.849979
20
52.6329965
40
0.2479842
50
286.0770838
51
304.2625829
0
ARC
8
DEFAULT_255_1_234
10
23.8633204
20
52.6111594
40
0.2224291
50
304.5891602
51
317.1073298
0
LINE
8
DEFAULT_255_1_234
10
21.9034902
20
61.3723211
11
21.9034902
21
60.2029
0
LINE
8
DEFAULT_255_1_234
10
21.9034902
20
60.2029
11
21.7492808
21
60.2029
0
LINE
8
DEFAULT_255_1_234
10
21.7492808
20
60.2029
11
21.7492808
21
61.3723211
0
LINE
8
DEFAULT_255_1_234
10
21.7492808
20
61.3723211
11
21.9034902
21
61.3723211
0
LINE
8
DEFAULT_255_1_234
10
23.0849589
20
60.8237534
11
23.0849589
21
60.7498614
0
LINE
8
DEFAULT_255_1_234
10
22.1444423
20
60.7394201
11
22.1444423
21
60.8237534
0
LINE
8
DEFAULT_255_1_234
10
22.9315527
20
60.7386169
11
22.9315527
21
60.8253597
0
LINE
8
DEFAULT_255_1_234
10
22.2978485
20
60.835801
11
22.2978485
21
60.7498614
0
ARC
8
DEFAULT_255_1_234
10
22.2207615
20
60.7459015
40
0.8642064
50
350.487711
51
0.2625388
0
ARC
8
DEFAULT_255_1_234
10
22.4500857
20
60.7064578
40
0.631518
50
336.0277639
51
350.5787438
0
ARC
8
DEFAULT_255_1_234
10
22.584568
20
60.6456892
40
0.4839466
50
319.8877444
51
336.1328423
0
ARC
8
DEFAULT_255_1_234
10
22.6448321
20
60.597458
40
0.4067874
50
302.4806467
51
319.6143626
0
ARC
8
DEFAULT_255_1_234
10
22.6333331
20
60.6196202
40
0.4316636
50
275.8195682
51
302.1884709
0
ARC
8
DEFAULT_255_1_234
10
22.6166964
20
60.7338665
40
0.5470306
50
269.9171439
51
276.3397983
0
ARC
8
DEFAULT_255_1_234
10
22.6122174
20
60.6652681
40
0.4784458
50
252.5219675
51
270.4416499
0
ARC
8
DEFAULT_255_1_234
10
22.5978433
20
60.6113592
40
0.422716
50
237.5352116
51
252.1857531
0
ARC
8
DEFAULT_255_1_234
10
22.6067629
20
60.6227363
40
0.4371052
50
209.063312
51
237.3492538
0
ARC
8
DEFAULT_255_1_234
10
22.6937477
20
60.6773685
40
0.5397041
50
205.1183774
51
209.6470015
0
ARC
8
DEFAULT_255_1_234
10
22.7734514
20
60.711183
40
0.6262326
50
188.7215458
51
204.8240747
0
ARC
8
DEFAULT_255_1_234
10
22.9732042
20
60.7448067
40
0.8287794
50
180.3723947
51
188.9252049
0
ARC
8
DEFAULT_255_1_234
10
22.9704794
20
60.8277402
40
0.8260467
50
169.5253763
51
180.2765336
0
ARC
8
DEFAULT_255_1_234
10
22.7802243
20
60.8627309
40
0.6326007
50
155.8315255
51
169.5089989
0
ARC
8
DEFAULT_255_1_234
10
22.6521744
20
60.9221348
40
0.4914567
50
139.6258461
51
156.0379525
0
ARC
8
DEFAULT_255_1_234
10
22.5932077
20
60.9695799
40
0.4158054
50
122.6416387
51
139.3430715
0
ARC
8
DEFAULT_255_1_234
10
22.6032697
20
60.9512451
40
0.4366739
50
93.0223692
51
122.455762
0
ARC
8
DEFAULT_255_1_234
10
22.6140694
20
60.8547709
40
0.5336137
50
89.975342
51
93.6341897
0
ARC
8
DEFAULT_255_1_234
10
22.6179473
20
60.8946242
40
0.4937738
50
73.746375
51
90.4233405
0
ARC
8
DEFAULT_255_1_234
10
22.6355052
20
60.9626287
40
0.4235786
50
57.662753
51
73.4518111
0
ARC
8
DEFAULT_255_1_234
10
22.6347058
20
60.9647832
40
0.4221899
50
29.1440151
51
57.414694
0
ARC
8
DEFAULT_255_1_234
10
22.5412253
20
60.9064005
40
0.5322966
50
24.0982783
51
29.7323517
0
ARC
8
DEFAULT_255_1_234
10
22.4378528
20
60.8635399
40
0.6441673
50
8.6655297
51
23.8241346
0
ARC
8
DEFAULT_255_1_234
10
22.2144266
20
60.8270854
40
0.8705386
50
359.7806941
51
8.8218784
0
ARC
8
DEFAULT_255_1_234
10
22.0997264
20
60.8296345
40
0.8318373
50
359.7055579
51
8.036044
0
ARC
8
DEFAULT_255_1_234
10
22.399727
20
60.8733239
40
0.5286768
50
7.8928306
51
20.2962107
0
ARC
8
DEFAULT_255_1_234
10
22.5624841
20
60.9333395
40
0.3552073
50
20.3231126
51
36.4992797
0
ARC
8
DEFAULT_255_1_234
10
22.6310387
20
60.9861402
40
0.2686974
50
36.1437156
51
85.6627023
0
ARC
8
DEFAULT_255_1_234
10
22.6147933
20
60.8821221
40
0.373739
50
84.3852322
51
90.0757696
0
ARC
8
DEFAULT_255_1_234
10
22.6105605
20
60.9481839
40
0.3076997
50
89.3038458
51
109.9045693
0
ARC
8
DEFAULT_255_1_234
10
22.6012996
20
60.9864062
40
0.2686424
50
110.8228367
51
143.9179474
0
ARC
8
DEFAULT_255_1_234
10
22.6946656
20
60.9151236
40
0.3860887
50
143.5289163
51
163.2980757
0
ARC
8
DEFAULT_255_1_234
10
22.8854477
20
60.8551433
40
0.5860659
50
163.0418846
51
174.3140048
0
ARC
8
DEFAULT_255_1_234
10
23.1258589
20
60.8273854
40
0.8280531
50
174.0509143
51
179.4176892
0
ARC
8
DEFAULT_255_1_234
10
23.0754328
20
60.7456954
40
0.7775954
50
179.6930361
51
188.7906598
0
ARC
8
DEFAULT_255_1_234
10
22.8090807
20
60.7030935
40
0.5078633
50
188.6331305
51
202.5629587
0
ARC
8
DEFAULT_255_1_234
10
22.6836399
20
60.6526996
40
0.3726913
50
202.8081362
51
216.1193925
0
ARC
8
DEFAULT_255_1_234
10
22.6026969
20
60.5875676
40
0.2689577
50
215.0755913
51
264.6379694
0
ARC
8
DEFAULT_255_1_234
10
22.6153919
20
60.6706513
40
0.3528978
50
263.846392
51
270.0833719
0
ARC
8
DEFAULT_255_1_234
10
22.6195309
20
60.6448374
40
0.3271036
50
269.3649385
51
287.5152008
0
ARC
8
DEFAULT_255_1_234
10
22.6373467
20
60.5801238
40
0.2600406
50
288.0630309
51
323.8113348
0
ARC
8
DEFAULT_255_1_234
10
22.5502309
20
60.6451049
40
0.3687189
50
323.6547608
51
342.6590488
0
ARC
8
DEFAULT_255_1_234
10
22.3470924
20
60.7111952
40
0.5823286
50
342.4091907
51
353.6451149
0
ARC
8
DEFAULT_255_1_234
10
22.0639434
20
60.746419
40
0.8676442
50
353.4029884
51
359.4847795
0
LINE
8
DEFAULT_255_1_234
10
24.1796848
20
60.785201
11
24.1796848
21
60.3563062
0
LINE
8
DEFAULT_255_1_234
10
23.2785238
20
60.7313884
11
23.2785238
21
60.8333915
0
LINE
8
DEFAULT_255_1_234
10
24.1796848
20
61.0293659
11
24.0254754
21
61.0293659
0
LINE
8
DEFAULT_255_1_234
10
23.4335363
20
60.8374073
11
23.4335363
21
60.7418296
0
LINE
8
DEFAULT_255_1_234
10
24.0262786
20
60.3972681
11
24.0262786
21
60.6599059
0
LINE
8
DEFAULT_255_1_234
10
24.0262786
20
60.6599059
11
23.755609
21
60.6599059
0
LINE
8
DEFAULT_255_1_234
10
23.755609
20
60.6599059
11
23.755609
21
60.785201
0
LINE
8
DEFAULT_255_1_234
10
23.755609
20
60.785201
11
24.1796848
21
60.785201
0
ARC
8
DEFAULT_255_1_234
10
23.8965354
20
60.5556396
40
0.3462765
50
295.8437914
51
324.8549609
0
ARC
8
DEFAULT_255_1_234
10
23.8549321
20
60.6309567
40
0.4322211
50
291.5695085
51
296.4549398
0
ARC
8
DEFAULT_255_1_234
10
23.8038573
20
60.7674275
40
0.5779178
50
278.6622409
51
291.3045483
0
ARC
8
DEFAULT_255_1_234
10
23.7699064
20
60.9822408
40
0.7953952
50
270.020006
51
278.7494541
0
ARC
8
DEFAULT_255_1_234
10
23.7660988
20
61.1139036
40
0.927067
50
269.9969998
51
270.2524872
0
ARC
8
DEFAULT_255_1_234
10
23.7622702
20
60.7055589
40
0.5187361
50
253.5786322
51
270.4175299
0
ARC
8
DEFAULT_255_1_234
10
23.7449358
20
60.6384236
40
0.4494451
50
238.8203306
51
253.2788235
0
ARC
8
DEFAULT_255_1_234
10
23.7429731
20
60.6333231
40
0.4440665
50
206.7883783
51
238.6962764
0
ARC
8
DEFAULT_255_1_234
10
23.8203641
20
60.6797405
40
0.5341121
50
206.1129412
51
207.4916643
0
ARC
8
DEFAULT_255_1_234
10
23.8800556
20
60.7051488
40
0.5989041
50
188.6921119
51
205.7821245
0
ARC
8
DEFAULT_255_1_234
10
24.0656918
20
60.736723
40
0.7871862
50
180.3882829
51
188.9219216
0
ARC
8
DEFAULT_255_1_234
10
24.1884732
20
60.8390464
40
0.909967
50
170.2024264
51
180.3560651
0
ARC
8
DEFAULT_255_1_234
10
23.872125
20
60.8956237
40
0.5886083
50
154.2857445
51
170.3893044
0
ARC
8
DEFAULT_255_1_234
10
23.7439453
20
60.954295
40
0.4476743
50
139.8401567
51
153.9332699
0
ARC
8
DEFAULT_255_1_234
10
23.7080189
20
60.9830577
40
0.4016697
50
98.4190291
51
139.6707122
0
ARC
8
DEFAULT_255_1_234
10
23.7459706
20
60.7985328
40
0.5898566
50
89.7659205
51
99.4415478
0
ARC
8
DEFAULT_255_1_234
10
23.7524956
20
60.8050844
40
0.5833147
50
78.0551672
51
90.4042112
0
ARC
8
DEFAULT_255_1_234
10
23.7929466
20
60.9869644
40
0.3970055
50
54.6380464
51
78.3339173
0
ARC
8
DEFAULT_255_1_234
10
23.8119522
20
61.0189795
40
0.3599102
50
50.031736
51
54.1558201
0
ARC
8
DEFAULT_255_1_234
10
23.8012309
20
61.0093766
40
0.3741624
50
18.1092409
51
49.7180913
0
ARC
8
DEFAULT_255_1_234
10
23.6555509
20
60.9560089
40
0.5292424
50
7.9672797
51
18.6984571
0
ARC
8
DEFAULT_255_1_234
10
23.6705988
20
60.9683504
40
0.3600838
50
9.7557294
51
27.3215714
0
ARC
8
DEFAULT_255_1_234
10
23.7833459
20
61.0246912
40
0.2340608
50
27.7361077
51
84.5257964
0
ARC
8
DEFAULT_255_1_234
10
23.7505846
20
60.860364
40
0.4011215
50
82.106034
51
90.2001166
0
ARC
8
DEFAULT_255_1_234
10
23.7456063
20
60.9111215
40
0.3503799
50
89.4150119
51
105.5823402
0
ARC
8
DEFAULT_255_1_234
10
23.7199061
20
61.0046867
40
0.2533503
50
105.6678618
51
144.2648758
0
ARC
8
DEFAULT_255_1_234
10
23.8092317
20
60.9411289
40
0.3629787
50
144.3561283
51
162.8564086
0
ARC
8
DEFAULT_255_1_234
10
24.0176226
20
60.8742017
40
0.5818441
50
162.6076014
51
173.6780284
0
ARC
8
DEFAULT_255_1_234
10
24.3237369
20
60.836989
40
0.8902007
50
173.4670142
51
179.9730753
0
ARC
8
DEFAULT_255_1_234
10
24.1329041
20
60.737626
40
0.6993804
50
179.6556203
51
190.0080463
0
ARC
8
DEFAULT_255_1_234
10
23.901287
20
60.6951375
40
0.4639066
50
189.8116607
51
206.6796816
0
ARC
8
DEFAULT_255_1_234
10
23.8168022
20
60.6557503
40
0.3707421
50
207.1031645
51
217.7074368
0
ARC
8
DEFAULT_255_1_234
10
23.7533711
20
60.6005559
40
0.2868417
50
216.7345547
51
265.6812148
0
ARC
8
DEFAULT_255_1_234
10
23.7664502
20
60.6909855
40
0.3780509
50
264.7366618
51
270.0611241
0
ARC
8
DEFAULT_255_1_234
10
23.7687765
20
60.9750111
40
0.662079
50
269.8335834
51
276.0539546
0
ARC
8
DEFAULT_255_1_234
10
23.7894769
20
60.784856
40
0.4708016
50
275.9894168
51
284.4615085
0
ARC
8
DEFAULT_255_1_234
10
23.8092776
20
60.7015663
40
0.3852094
50
284.7034461
51
286.4953897
0
ARC
8
DEFAULT_255_1_234
10
23.849979
20
60.5704965
40
0.2479842
50
286.0770838
51
304.2625829
0
ARC
8
DEFAULT_255_1_234
10
23.8633204
20
60.5486594
40
0.2224291
50
304.5891602
51
317.1073298
0
LINE
8
DEFAULT_255_1_234
10
21.9609902
20
69.3098211
11
21.9609902
21
68.1404
0
LINE
8
DEFAULT_255_1_234
10
21.9609902
20
68.1404
11
21.8067808
21
68.1404
0
LINE
8
DEFAULT_255_1_234
10
21.8067808
20
68.1404
11
21.8067808
21
69.3098211
0
LINE
8
DEFAULT_255_1_234
10
21.8067808
20
69.3098211
11
21.9609902
21
69.3098211
0
LINE
8
DEFAULT_255_1_234
10
23.1424589
20
68.7612534
11
23.1424589
21
68.6873614
0
LINE
8
DEFAULT_255_1_234
10
22.2019423
20
68.6769201
11
22.2019423
21
68.7612534
0
LINE
8
DEFAULT_255_1_234
10
22.9890527
20
68.6761169
11
22.9890527
21
68.7628597
0
LINE
8
DEFAULT_255_1_234
10
22.3553485
20
68.773301
11
22.3553485
21
68.6873614
0
ARC
8
DEFAULT_255_1_234
10
22.2782615
20
68.6834015
40
0.8642064
50
350.487711
51
0.2625388
0
ARC
8
DEFAULT_255_1_234
10
22.5075857
20
68.6439578
40
0.631518
50
336.0277639
51
350.5787438
0
ARC
8
DEFAULT_255_1_234
10
22.642068
20
68.5831892
40
0.4839466
50
319.8877444
51
336.1328423
0
ARC
8
DEFAULT_255_1_234
10
22.7023321
20
68.534958
40
0.4067874
50
302.4806467
51
319.6143626
0
ARC
8
DEFAULT_255_1_234
10
22.6908331
20
68.5571202
40
0.4316636
50
275.8195682
51
302.1884709
0
ARC
8
DEFAULT_255_1_234
10
22.6741964
20
68.6713665
40
0.5470306
50
269.9171439
51
276.3397983
0
ARC
8
DEFAULT_255_1_234
10
22.6697174
20
68.6027681
40
0.4784458
50
252.5219675
51
270.4416499
0
ARC
8
DEFAULT_255_1_234
10
22.6553433
20
68.5488592
40
0.422716
50
237.5352116
51
252.1857531
0
ARC
8
DEFAULT_255_1_234
10
22.6642629
20
68.5602363
40
0.4371052
50
209.063312
51
237.3492538
0
ARC
8
DEFAULT_255_1_234
10
22.7512477
20
68.6148685
40
0.5397041
50
205.1183774
51
209.6470015
0
ARC
8
DEFAULT_255_1_234
10
22.8309514
20
68.648683
40
0.6262326
50
188.7215458
51
204.8240747
0
ARC
8
DEFAULT_255_1_234
10
23.0307042
20
68.6823067
40
0.8287794
50
180.3723947
51
188.9252049
0
ARC
8
DEFAULT_255_1_234
10
23.0279794
20
68.7652402
40
0.8260467
50
169.5253763
51
180.2765336
0
ARC
8
DEFAULT_255_1_234
10
22.8377243
20
68.8002309
40
0.6326007
50
155.8315255
51
169.5089989
0
ARC
8
DEFAULT_255_1_234
10
22.7096744
20
68.8596348
40
0.4914567
50
139.6258461
51
156.0379525
0
ARC
8
DEFAULT_255_1_234
10
22.6507077
20
68.9070799
40
0.4158054
50
122.6416387
51
139.3430715
0
ARC
8
DEFAULT_255_1_234
10
22.6607697
20
68.8887451
40
0.4366739
50
93.0223692
51
122.455762
0
ARC
8
DEFAULT_255_1_234
10
22.6715694
20
68.7922709
40
0.5336137
50
89.975342
51
93.6341897
0
ARC
8
DEFAULT_255_1_234
10
22.6754473
20
68.8321242
40
0.4937738
50
73.746375
51
90.4233405
0
ARC
8
DEFAULT_255_1_234
10
22.6930052
20
68.9001287
40
0.4235786
50
57.662753
51
73.4518111
0
ARC
8
DEFAULT_255_1_234
10
22.6922058
20
68.9022832
40
0.4221899
50
29.1440151
51
57.414694
0
ARC
8
DEFAULT_255_1_234
10
22.5987253
20
68.8439005
40
0.5322966
50
24.0982783
51
29.7323517
0
ARC
8
DEFAULT_255_1_234
10
22.4953528
20
68.8010399
40
0.6441673
50
8.6655297
51
23.8241346
0
ARC
8
DEFAULT_255_1_234
10
22.2719266
20
68.7645854
40
0.8705386
50
359.7806941
51
8.8218784
0
ARC
8
DEFAULT_255_1_234
10
22.1572264
20
68.7671345
40
0.8318373
50
359.7055579
51
8.036044
0
ARC
8
DEFAULT_255_1_234
10
22.457227
20
68.8108239
40
0.5286768
50
7.8928306
51
20.2962107
0
ARC
8
DEFAULT_255_1_234
10
22.6199841
20
68.8708395
40
0.3552073
50
20.3231126
51
36.4992797
0
ARC
8
DEFAULT_255_1_234
10
22.6885387
20
68.9236402
40
0.2686974
50
36.1437156
51
85.6627023
0
ARC
8
DEFAULT_255_1_234
10
22.6722933
20
68.8196221
40
0.373739
50
84.3852322
51
90.0757696
0
ARC
8
DEFAULT_255_1_234
10
22.6680605
20
68.8856839
40
0.3076997
50
89.3038458
51
109.9045693
0
ARC
8
DEFAULT_255_1_234
10
22.6587996
20
68.9239062
40
0.2686424
50
110.8228367
51
143.9179474
0
ARC
8
DEFAULT_255_1_234
10
22.7521656
20
68.8526236
40
0.3860887
50
143.5289163
51
163.2980757
0
ARC
8
DEFAULT_255_1_234
10
22.9429477
20
68.7926433
40
0.5860659
50
163.0418846
51
174.3140048
0
ARC
8
DEFAULT_255_1_234
10
23.1833589
20
68.7648854
40
0.8280531
50
174.0509143
51
179.4176892
0
ARC
8
DEFAULT_255_1_234
10
23.1329328
20
68.6831954
40
0.7775954
50
179.6930361
51
188.7906598
0
ARC
8
DEFAULT_255_1_234
10
22.8665807
20
68.6405935
40
0.5078633
50
188.6331305
51
202.5629587
0
ARC
8
DEFAULT_255_1_234
10
22.7411399
20
68.5901996
40
0.3726913
50
202.8081362
51
216.1193925
0
ARC
8
DEFAULT_255_1_234
10
22.6601969
20
68.5250676
40
0.2689577
50
215.0755913
51
264.6379694
0
ARC
8
DEFAULT_255_1_234
10
22.6728919
20
68.6081513
40
0.3528978
50
263.846392
51
270.0833719
0
ARC
8
DEFAULT_255_1_234
10
22.6770309
20
68.5823374
40
0.3271036
50
269.3649385
51
287.5152008
0
ARC
8
DEFAULT_255_1_234
10
22.6948467
20
68.5176238
40
0.2600406
50
288.0630309
51
323.8113348
0
ARC
8
DEFAULT_255_1_234
10
22.6077309
20
68.5826049
40
0.3687189
50
323.6547608
51
342.6590488
0
ARC
8
DEFAULT_255_1_234
10
22.4045924
20
68.6486952
40
0.5823286
50
342.4091907
51
353.6451149
0
ARC
8
DEFAULT_255_1_234
10
22.1214434
20
68.683919
40
0.8676442
50
353.4029884
51
359.4847795
0
LINE
8
DEFAULT_255_1_234
10
23.4107189
20
69.3098211
11
23.7432329
21
68.3452093
0
LINE
8
DEFAULT_255_1_234
10
23.7432329
20
68.3452093
11
24.0773532
21
69.3098211
0
LINE
8
DEFAULT_255_1_234
10
24.0773532
20
69.3098211
11
24.2460197
21
69.3098211
0
LINE
8
DEFAULT_255_1_234
10
24.2460197
20
69.3098211
11
23.8123059
21
68.1404
0
LINE
8
DEFAULT_255_1_234
10
23.8123059
20
68.1404
11
23.6757663
21
68.1404
0
LINE
8
DEFAULT_255_1_234
10
23.6757663
20
68.1404
11
23.2428556
21
69.3098211
0
LINE
8
DEFAULT_255_1_234
10
23.2428556
20
69.3098211
11
23.4107189
21
69.3098211
0
LINE
8
DEFAULT_255_1_234
10
21.9609902
20
77.2473211
11
21.9609902
21
76.0779
0
LINE
8
DEFAULT_255_1_234
10
21.9609902
20
76.0779
11
21.8067808
21
76.0779
0
LINE
8
DEFAULT_255_1_234
10
21.8067808
20
76.0779
11
21.8067808
21
77.2473211
0
LINE
8
DEFAULT_255_1_234
10
21.8067808
20
77.2473211
11
21.9609902
21
77.2473211
0
LINE
8
DEFAULT_255_1_234
10
23.1424589
20
76.6987534
11
23.1424589
21
76.6248614
0
LINE
8
DEFAULT_255_1_234
10
22.2019423
20
76.6144201
11
22.2019423
21
76.6987534
0
LINE
8
DEFAULT_255_1_234
10
22.9890527
20
76.6136169
11
22.9890527
21
76.7003597
0
LINE
8
DEFAULT_255_1_234
10
22.3553485
20
76.710801
11
22.3553485
21
76.6248614
0
ARC
8
DEFAULT_255_1_234
10
22.2782615
20
76.6209015
40
0.8642064
50
350.487711
51
0.2625388
0
ARC
8
DEFAULT_255_1_234
10
22.5075857
20
76.5814578
40
0.631518
50
336.0277639
51
350.5787438
0
ARC
8
DEFAULT_255_1_234
10
22.642068
20
76.5206892
40
0.4839466
50
319.8877444
51
336.1328423
0
ARC
8
DEFAULT_255_1_234
10
22.7023321
20
76.472458
40
0.4067874
50
302.4806467
51
319.6143626
0
ARC
8
DEFAULT_255_1_234
10
22.6908331
20
76.4946202
40
0.4316636
50
275.8195682
51
302.1884709
0
ARC
8
DEFAULT_255_1_234
10
22.6741964
20
76.6088665
40
0.5470306
50
269.9171439
51
276.3397983
0
ARC
8
DEFAULT_255_1_234
10
22.6697174
20
76.5402681
40
0.4784458
50
252.5219675
51
270.4416499
0
ARC
8
DEFAULT_255_1_234
10
22.6553433
20
76.4863592
40
0.422716
50
237.5352116
51
252.1857531
0
ARC
8
DEFAULT_255_1_234
10
22.6642629
20
76.4977363
40
0.4371052
50
209.063312
51
237.3492538
0
ARC
8
DEFAULT_255_1_234
10
22.7512477
20
76.5523685
40
0.5397041
50
205.1183774
51
209.6470015
0
ARC
8
DEFAULT_255_1_234
10
22.8309514
20
76.586183
40
0.6262326
50
188.7215458
51
204.8240747
0
ARC
8
DEFAULT_255_1_234
10
23.0307042
20
76.6198067
40
0.8287794
50
180.3723947
51
188.9252049
0
ARC
8
DEFAULT_255_1_234
10
23.0279794
20
76.7027402
40
0.8260467
50
169.5253763
51
180.2765336
0
ARC
8
DEFAULT_255_1_234
10
22.8377243
20
76.7377309
40
0.6326007
50
155.8315255
51
169.5089989
0
ARC
8
DEFAULT_255_1_234
10
22.7096744
20
76.7971348
40
0.4914567
50
139.6258461
51
156.0379525
0
ARC
8
DEFAULT_255_1_234
10
22.6507077
20
76.8445799
40
0.4158054
50
122.6416387
51
139.3430715
0
ARC
8
DEFAULT_255_1_234
10
22.6607697
20
76.8262451
40
0.4366739
50
93.0223692
51
122.455762
0
ARC
8
DEFAULT_255_1_234
10
22.6715694
20
76.7297709
40
0.5336137
50
89.975342
51
93.6341897
0
ARC
8
DEFAULT_255_1_234
10
22.6754473
20
76.7696242
40
0.4937738
50
73.746375
51
90.4233405
0
ARC
8
DEFAULT_255_1_234
10
22.6930052
20
76.8376287
40
0.4235786
50
57.662753
51
73.4518111
0
ARC
8
DEFAULT_255_1_234
10
22.6922058
20
76.8397832
40
0.4221899
50
29.1440151
51
57.414694
0
ARC
8
DEFAULT_255_1_234
10
22.5987253
20
76.7814005
40
0.5322966
50
24.0982783
51
29.7323517
0
ARC
8
DEFAULT_255_1_234
10
22.4953528
20
76.7385399
40
0.6441673
50
8.6655297
51
23.8241346
0
ARC
8
DEFAULT_255_1_234
10
22.2719266
20
76.7020854
40
0.8705386
50
359.7806941
51
8.8218784
0
ARC
8
DEFAULT_255_1_234
10
22.1572264
20
76.7046345
40
0.8318373
50
359.7055579
51
8.036044
0
ARC
8
DEFAULT_255_1_234
10
22.457227
20
76.7483239
40
0.5286768
50
7.8928306
51
20.2962107
0
ARC
8
DEFAULT_255_1_234
10
22.6199841
20
76.8083395
40
0.3552073
50
20.3231126
51
36.4992797
0
ARC
8
DEFAULT_255_1_234
10
22.6885387
20
76.8611402
40
0.2686974
50
36.1437156
51
85.6627023
0
ARC
8
DEFAULT_255_1_234
10
22.6722933
20
76.7571221
40
0.373739
50
84.3852322
51
90.0757696
0
ARC
8
DEFAULT_255_1_234
10
22.6680605
20
76.8231839
40
0.3076997
50
89.3038458
51
109.9045693
0
ARC
8
DEFAULT_255_1_234
10
22.6587996
20
76.8614062
40
0.2686424
50
110.8228367
51
143.9179474
0
ARC
8
DEFAULT_255_1_234
10
22.7521656
20
76.7901236
40
0.3860887
50
143.5289163
51
163.2980757
0
ARC
8
DEFAULT_255_1_234
10
22.9429477
20
76.7301433
40
0.5860659
50
163.0418846
51
174.3140048
0
ARC
8
DEFAULT_255_1_234
10
23.1833589
20
76.7023854
40
0.8280531
50
174.0509143
51
179.4176892
0
ARC
8
DEFAULT_255_1_234
10
23.1329328
20
76.6206954
40
0.7775954
50
179.6930361
51
188.7906598
0
ARC
8
DEFAULT_255_1_234
10
22.8665807
20
76.5780935
40
0.5078633
50
188.6331305
51
202.5629587
0
ARC
8
DEFAULT_255_1_234
10
22.7411399
20
76.5276996
40
0.3726913
50
202.8081362
51
216.1193925
0
ARC
8
DEFAULT_255_1_234
10
22.6601969
20
76.4625676
40
0.2689577
50
215.0755913
51
264.6379694
0
ARC
8
DEFAULT_255_1_234
10
22.6728919
20
76.5456513
40
0.3528978
50
263.846392
51
270.0833719
0
ARC
8
DEFAULT_255_1_234
10
22.6770309
20
76.5198374
40
0.3271036
50
269.3649385
51
287.5152008
0
ARC
8
DEFAULT_255_1_234
10
22.6948467
20
76.4551238
40
0.2600406
50
288.0630309
51
323.8113348
0
ARC
8
DEFAULT_255_1_234
10
22.6077309
20
76.5201049
40
0.3687189
50
323.6547608
51
342.6590488
0
ARC
8
DEFAULT_255_1_234
10
22.4045924
20
76.5861952
40
0.5823286
50
342.4091907
51
353.6451149
0
ARC
8
DEFAULT_255_1_234
10
22.1214434
20
76.621419
40
0.8676442
50
353.4029884
51
359.4847795
0
LINE
8
DEFAULT_255_1_234
10
23.4107189
20
77.2473211
11
23.7432329
21
76.2827093
0
LINE
8
DEFAULT_255_1_234
10
23.7432329
20
76.2827093
11
24.0773532
21
77.2473211
0
LINE
8
DEFAULT_255_1_234
10
24.0773532
20
77.2473211
11
24.2460197
21
77.2473211
0
LINE
8
DEFAULT_255_1_234
10
24.2460197
20
77.2473211
11
23.8123059
21
76.0779
0
LINE
8
DEFAULT_255_1_234
10
23.8123059
20
76.0779
11
23.6757663
21
76.0779
0
LINE
8
DEFAULT_255_1_234
10
23.6757663
20
76.0779
11
23.2428556
21
77.2473211
0
LINE
8
DEFAULT_255_1_234
10
23.2428556
20
77.2473211
11
23.4107189
21
77.2473211
0
LINE
8
DEFAULT_255_1_234
10
22.3243902
20
85.1848211
11
22.3243902
21
84.0154
0
LINE
8
DEFAULT_255_1_234
10
22.3243902
20
84.0154
11
22.1701808
21
84.0154
0
LINE
8
DEFAULT_255_1_234
10
22.1701808
20
84.0154
11
22.1701808
21
85.1848211
0
LINE
8
DEFAULT_255_1_234
10
22.1701808
20
85.1848211
11
22.3243902
21
85.1848211
0
LINE
8
DEFAULT_255_1_234
10
23.3339797
20
84.1366792
11
23.3339797
21
84.0154
0
LINE
8
DEFAULT_255_1_234
10
23.3339797
20
84.0154
11
22.5677519
21
84.0154
0
LINE
8
DEFAULT_255_1_234
10
22.5677519
20
84.0154
11
22.5677519
21
84.1222221
0
LINE
8
DEFAULT_255_1_234
10
22.5677519
20
84.1222221
11
22.9725515
21
84.5719995
0
LINE
8
DEFAULT_255_1_234
10
22.6938501
20
84.8402595
11
22.545263
21
84.8402595
0
LINE
8
DEFAULT_255_1_234
10
23.0600974
20
84.4764218
11
22.7468596
21
84.1366792
0
LINE
8
DEFAULT_255_1_234
10
22.7468596
20
84.1366792
11
23.3339797
21
84.1366792
0
ARC
8
DEFAULT_255_1_234
10
21.6235348
20
85.7649527
40
1.8008286
50
318.5132453
51
320.7828378
0
ARC
8
DEFAULT_255_1_234
10
22.1522322
20
85.3346426
40
1.1191493
50
320.7372736
51
323.9737074
0
ARC
8
DEFAULT_255_1_234
10
22.5442179
20
85.0506361
40
0.6350923
50
323.8961724
51
328.6421089
0
ARC
8
DEFAULT_255_1_234
10
22.7488774
20
84.9244031
40
0.3946393
50
328.8299013
51
331.789948
0
ARC
8
DEFAULT_255_1_234
10
22.8485953
20
84.8729509
40
0.2824501
50
331.4255242
51
352.9364833
0
ARC
8
DEFAULT_255_1_234
10
22.8622453
20
84.8698976
40
0.2685315
50
353.2248685
51
0.0169286
0
ARC
8
DEFAULT_255_1_234
10
22.883233
20
84.872195
40
0.2475536
50
359.4866256
51
15.9339782
0
ARC
8
DEFAULT_255_1_234
10
22.9339316
20
84.8858286
40
0.1950618
50
16.1714718
51
43.5284424
0
ARC
8
DEFAULT_255_1_234
10
22.9416624
20
84.8935573
40
0.184134
50
43.4415429
51
83.1661404
0
ARC
8
DEFAULT_255_1_234
10
22.9282542
20
84.8198771
40
0.258926
50
82.160215
51
90.1505798
0
ARC
8
DEFAULT_255_1_234
10
22.925097
20
84.7661865
40
0.3126255
50
89.5460705
51
102.5418777
0
ARC
8
DEFAULT_255_1_234
10
22.9008056
20
84.8692665
40
0.2067346
50
102.1739365
51
129.2061916
0
ARC
8
DEFAULT_255_1_234
10
22.8929127
20
84.8817094
40
0.1921118
50
129.7279328
51
135.7542026
0
ARC
8
DEFAULT_255_1_234
10
22.9050655
20
84.8720045
40
0.2075944
50
136.175737
51
166.3674722
0
ARC
8
DEFAULT_255_1_234
10
23.0057574
20
84.8450182
40
0.3118201
50
165.9092917
51
178.8683903
0
ARC
8
DEFAULT_255_1_234
10
23.0922436
20
84.8403179
40
0.3983935
50
178.438168
51
180.0083905
0
ARC
8
DEFAULT_255_1_234
10
22.9521038
20
84.8442231
40
0.4068601
50
163.2878735
51
180.5581814
0
ARC
8
DEFAULT_255_1_234
10
22.8719299
20
84.866284
40
0.3237344
50
133.454115
51
162.9470031
0
ARC
8
DEFAULT_255_1_234
10
22.8897841
20
84.8473
40
0.349795
50
100.7869394
51
133.4384016
0
ARC
8
DEFAULT_255_1_234
10
22.9245612
20
84.6924319
40
0.5084616
50
89.6605301
51
101.3704185
0
ARC
8
DEFAULT_255_1_234
10
22.9311951
20
84.6985496
40
0.502348
50
78.2171172
51
90.4130393
0
ARC
8
DEFAULT_255_1_234
10
22.9667029
20
84.8609637
40
0.3361092
50
55.9268222
51
78.4888551
0
ARC
8
DEFAULT_255_1_234
10
22.9863469
20
84.8948324
40
0.2970617
50
47.9292255
51
55.4054003
0
ARC
8
DEFAULT_255_1_234
10
22.996503
20
84.9051502
40
0.2825983
50
4.3347696
51
48.0560701
0
ARC
8
DEFAULT_255_1_234
10
22.8869424
20
84.8881601
40
0.393225
50
359.925209
51
5.5967654
0
ARC
8
DEFAULT_255_1_234
10
22.9298315
20
84.8937816
40
0.3503892
50
337.8914096
51
358.9967724
0
ARC
8
DEFAULT_255_1_234
10
22.6584727
20
84.9984706
40
0.6412172
50
326.9135351
51
338.3505194
0
ARC
8
DEFAULT_255_1_234
10
22.2599031
20
85.2539284
40
1.1146189
50
319.6472867
51
327.095818
0
ARC
8
DEFAULT_255_1_234
10
21.8766034
20
85.5701
40
1.6114559
50
317.2586784
51
319.9046139
0
LINE
8
DEFAULT_255_1_234
10
23.9323442
20
84.9840276
11
23.9323442
21
84.6426788
0
LINE
8
DEFAULT_255_1_234
10
23.9323442
20
84.6426788
11
24.2584328
21
84.6426788
0
LINE
8
DEFAULT_255_1_234
10
24.2584328
20
84.6426788
11
24.2584328
21
84.5021233
0
LINE
8
DEFAULT_255_1_234
10
24.2584328
20
84.5021233
11
23.9323442
21
84.5021233
0
LINE
8
DEFAULT_255_1_234
10
23.9323442
20
84.5021233
11
23.9323442
21
84.1326634
0
LINE
8
DEFAULT_255_1_234
10
23.9323442
20
84.1326634
11
23.7829539
21
84.1326634
0
LINE
8
DEFAULT_255_1_234
10
23.7829539
20
84.1326634
11
23.7829539
21
84.5021233
0
LINE
8
DEFAULT_255_1_234
10
23.7829539
20
84.5021233
11
23.4568653
21
84.5021233
0
LINE
8
DEFAULT_255_1_234
10
23.4568653
20
84.5021233
11
23.4568653
21
84.6426788
0
LINE
8
DEFAULT_255_1_234
10
23.4568653
20
84.6426788
11
23.7829539
21
84.6426788
0
LINE
8
DEFAULT_255_1_234
10
23.7829539
20
84.6426788
11
23.7829539
21
84.9840276
0
LINE
8
DEFAULT_255_1_234
10
23.7829539
20
84.9840276
11
23.9323442
21
84.9840276
0
LINE
8
DEFAULT_255_1_234
10
22.3243902
20
93.1223211
11
22.3243902
21
91.9529
0
LINE
8
DEFAULT_255_1_234
10
22.3243902
20
91.9529
11
22.1701808
21
91.9529
0
LINE
8
DEFAULT_255_1_234
10
22.1701808
20
91.9529
11
22.1701808
21
93.1223211
0
LINE
8
DEFAULT_255_1_234
10
22.1701808
20
93.1223211
11
22.3243902
21
93.1223211
0
LINE
8
DEFAULT_255_1_234
10
23.0560815
20
93.1279433
11
23.0560815
21
91.9529
0
LINE
8
DEFAULT_255_1_234
10
23.0560815
20
91.9529
11
22.9066912
21
91.9529
0
LINE
8
DEFAULT_255_1_234
10
22.9066912
20
91.9529
11
22.9066912
21
92.9432133
0
LINE
8
DEFAULT_255_1_234
10
22.9066912
20
92.9432133
11
22.6071074
21
92.8331785
0
LINE
8
DEFAULT_255_1_234
10
22.6071074
20
92.8331785
11
22.6071074
21
92.9681117
0
LINE
8
DEFAULT_255_1_234
10
22.6071074
20
92.9681117
11
23.0327895
21
93.1279433
0
LINE
8
DEFAULT_255_1_234
10
23.0327895
20
93.1279433
11
23.0560815
21
93.1279433
0
LINE
8
DEFAULT_255_1_234
10
23.9323442
20
92.9215276
11
23.9323442
21
92.5801788
0
LINE
8
DEFAULT_255_1_234
10
23.9323442
20
92.5801788
11
24.2584328
21
92.5801788
0
LINE
8
DEFAULT_255_1_234
10
24.2584328
20
92.5801788
11
24.2584328
21
92.4396233
0
LINE
8
DEFAULT_255_1_234
10
24.2584328
20
92.4396233
11
23.9323442
21
92.4396233
0
LINE
8
DEFAULT_255_1_234
10
23.9323442
20
92.4396233
11
23.9323442
21
92.0701634
0
LINE
8
DEFAULT_255_1_234
10
23.9323442
20
92.0701634
11
23.7829539
21
92.0701634
0
LINE
8
DEFAULT_255_1_234
10
23.7829539
20
92.0701634
11
23.7829539
21
92.4396233
0
LINE
8
DEFAULT_255_1_234
10
23.7829539
20
92.4396233
11
23.4568653
21
92.4396233
0
LINE
8
DEFAULT_255_1_234
10
23.4568653
20
92.4396233
11
23.4568653
21
92.5801788
0
LINE
8
DEFAULT_255_1_234
10
23.4568653
20
92.5801788
11
23.7829539
21
92.5801788
0
LINE
8
DEFAULT_255_1_234
10
23.7829539
20
92.5801788
11
23.7829539
21
92.9215276
0
LINE
8
DEFAULT_255_1_234
10
23.7829539
20
92.9215276
11
23.9323442
21
92.9215276
0
ENDSEC
0
EOF