0
SECTION
2
HEADER
9
$MEASUREMENT
70
1
0
ENDSEC
0
SECTION
2
TABLES
0
TABLE
2
LTYPE
0
LTYPE
72
65
70
64
2
CONTINUOUS
3
______
73
0
40
0
0
ENDTAB
0
TABLE
2
LAYER
0
LAYER
2
DEFAULT_255_2_778
70
0
62
255
6
CONTINUOUS
0
LAYER
2
DEFAULT_255_1_388
70
0
62
255
6
CONTINUOUS
0
LAYER
2
DEFAULT_255_2_778_1
70
0
62
255
6
CONTINUOUS
0
ENDTAB
0
ENDSEC
0
SECTION
2
ENTITIES
0
ARC
8
DEFAULT_255_2_778
10
3.5700693
20
75.805203
40
0.7914215
50
129.1312896
51
180.1450914
0
ARC
8
DEFAULT_255_2_778
10
3.5703345
20
75.8056901
40
0.7912112
50
89.854026
51
129.1684493
0
ARC
8
DEFAULT_255_2_778
10
25.7993937
20
75.8053767
40
0.7915249
50
39.4792447
51
90.147911
0
ARC
8
DEFAULT_255_2_778
10
25.7999935
20
75.8052233
40
0.7911595
50
359.8533901
51
39.5154338
0
ARC
8
DEFAULT_255_2_778
10
25.7996693
20
-1.9863492
40
0.7914836
50
309.4761667
51
0.1482649
0
ARC
8
DEFAULT_255_2_778
10
25.799398
20
-1.9867803
40
0.7913235
50
269.8517415
51
309.511178
0
ARC
8
DEFAULT_255_2_778
10
3.570342
20
-1.9867221
40
0.7913815
50
219.1282118
51
270.1454017
0
ARC
8
DEFAULT_255_2_778
10
3.5700247
20
-1.9863397
40
0.7913769
50
179.8524075
51
219.1641908
0
LINE
8
DEFAULT_255_2_778
10
3.5723503
20
76.5968989
11
25.7973503
21
76.5968989
0
LINE
8
DEFAULT_255_2_778
10
26.5911503
20
75.8031989
11
26.5911503
21
-1.9843011
0
LINE
8
DEFAULT_255_2_778
10
25.7973503
20
-2.7781011
11
3.5723503
21
-2.7781011
0
LINE
8
DEFAULT_255_2_778
10
2.7786503
20
-1.9843011
11
2.7786503
21
75.8031989
0
LINE
8
DEFAULT_255_1_388
10
10.401691
20
0.6757898
11
10.401691
21
-0.6398
0
LINE
8
DEFAULT_255_1_388
10
10.401691
20
-0.6398
11
10.2273031
21
-0.6398
0
LINE
8
DEFAULT_255_1_388
10
10.2273031
20
-0.6398
11
9.5649903
21
0.3739993
0
LINE
8
DEFAULT_255_1_388
10
9.5649903
20
0.3739993
11
9.5649903
21
-0.6398
0
LINE
8
DEFAULT_255_1_388
10
9.5649903
20
-0.6398
11
9.3906024
21
-0.6398
0
LINE
8
DEFAULT_255_1_388
10
9.3906024
20
-0.6398
11
9.3906024
21
0.6757898
0
LINE
8
DEFAULT_255_1_388
10
9.3906024
20
0.6757898
11
9.5649903
21
0.6757898
0
LINE
8
DEFAULT_255_1_388
10
9.5649903
20
0.6757898
11
10.2291102
21
-0.3425273
0
LINE
8
DEFAULT_255_1_388
10
10.2291102
20
-0.3425273
11
10.2291102
21
0.6757898
0
LINE
8
DEFAULT_255_1_388
10
10.2291102
20
0.6757898
11
10.401691
21
0.6757898
0
LINE
8
DEFAULT_255_1_388
10
10.8372091
20
0.6757898
11
11.1543602
21
0.1716009
0
LINE
8
DEFAULT_255_1_388
10
11.1543602
20
0.1716009
11
11.4697042
21
0.6757898
0
LINE
8
DEFAULT_255_1_388
10
11.4697042
20
0.6757898
11
11.6739098
21
0.6757898
0
LINE
8
DEFAULT_255_1_388
10
11.6739098
20
0.6757898
11
11.2582701
21
0.0234163
0
LINE
8
DEFAULT_255_1_388
10
11.2582701
20
0.0234163
11
11.683849
21
-0.6398
0
LINE
8
DEFAULT_255_1_388
10
11.683849
20
-0.6398
11
11.4778363
21
-0.6398
0
LINE
8
DEFAULT_255_1_388
10
11.4778363
20
-0.6398
11
11.1543602
21
-0.1265754
0
LINE
8
DEFAULT_255_1_388
10
11.1543602
20
-0.1265754
11
10.829077
21
-0.6398
0
LINE
8
DEFAULT_255_1_388
10
10.829077
20
-0.6398
11
10.6239679
21
-0.6398
0
LINE
8
DEFAULT_255_1_388
10
10.6239679
20
-0.6398
11
11.0504503
21
0.0234163
0
LINE
8
DEFAULT_255_1_388
10
11.0504503
20
0.0234163
11
10.6339071
21
0.6757898
0
LINE
8
DEFAULT_255_1_388
10
10.6339071
20
0.6757898
11
10.8372091
21
0.6757898
0
LINE
8
DEFAULT_255_1_388
10
12.1654488
20
-0.0127263
11
12.1654488
21
-0.1491645
0
LINE
8
DEFAULT_255_1_388
10
12.1654488
20
-0.1491645
11
11.7245094
21
-0.1491645
0
LINE
8
DEFAULT_255_1_388
10
11.7245094
20
-0.1491645
11
11.7245094
21
-0.0127263
0
LINE
8
DEFAULT_255_1_388
10
11.7245094
20
-0.0127263
11
12.1654488
21
-0.0127263
0
LINE
8
DEFAULT_255_1_388
10
13.3653824
20
0.6757898
11
13.3653824
21
-0.6398
0
LINE
8
DEFAULT_255_1_388
10
13.3653824
20
-0.6398
11
13.1909945
21
-0.6398
0
LINE
8
DEFAULT_255_1_388
10
13.1909945
20
-0.6398
11
13.1909945
21
-0.0317011
0
LINE
8
DEFAULT_255_1_388
10
13.1909945
20
-0.0317011
11
12.5277782
21
-0.0317011
0
LINE
8
DEFAULT_255_1_388
10
12.5277782
20
-0.0317011
11
12.5277782
21
-0.6398
0
LINE
8
DEFAULT_255_1_388
10
12.5277782
20
-0.6398
11
12.3542938
21
-0.6398
0
LINE
8
DEFAULT_255_1_388
10
12.3542938
20
-0.6398
11
12.3542938
21
0.6757898
0
LINE
8
DEFAULT_255_1_388
10
12.3542938
20
0.6757898
11
12.5277782
21
0.6757898
0
LINE
8
DEFAULT_255_1_388
10
12.5277782
20
0.6757898
11
12.5277782
21
0.1101585
0
LINE
8
DEFAULT_255_1_388
10
12.5277782
20
0.1101585
11
13.1909945
21
0.1101585
0
LINE
8
DEFAULT_255_1_388
10
13.1909945
20
0.1101585
11
13.1909945
21
0.6757898
0
LINE
8
DEFAULT_255_1_388
10
13.1909945
20
0.6757898
11
13.3653824
21
0.6757898
0
LINE
8
DEFAULT_255_1_388
10
14.5418233
20
-0.6398
11
14.4162279
21
-0.2964455
0
LINE
8
DEFAULT_255_1_388
10
14.4162279
20
-0.2964455
11
13.8650536
21
-0.2964455
0
LINE
8
DEFAULT_255_1_388
10
13.8650536
20
-0.2964455
11
13.7412652
21
-0.6398
0
LINE
8
DEFAULT_255_1_388
10
13.7412652
20
-0.6398
11
13.5623595
21
-0.6398
0
LINE
8
DEFAULT_255_1_388
10
13.5623595
20
-0.6398
11
14.0647413
21
0.6757898
0
LINE
8
DEFAULT_255_1_388
10
14.0647413
20
0.6757898
11
14.2165401
21
0.6757898
0
LINE
8
DEFAULT_255_1_388
10
14.2165401
20
0.6757898
11
14.7198255
21
-0.6398
0
LINE
8
DEFAULT_255_1_388
10
14.7198255
20
-0.6398
11
14.5418233
21
-0.6398
0
LINE
8
DEFAULT_255_1_388
10
14.1406407
20
0.4616451
11
13.9174603
21
-0.1536823
0
LINE
8
DEFAULT_255_1_388
10
13.9174603
20
-0.1536823
11
14.3647247
21
-0.1536823
0
LINE
8
DEFAULT_255_1_388
10
14.3647247
20
-0.1536823
11
14.1406407
21
0.4616451
0
LINE
8
DEFAULT_255_1_388
10
15.2610606
20
-0.6398
11
14.8969242
21
-0.6398
0
LINE
8
DEFAULT_255_1_388
10
14.8969242
20
-0.6398
11
14.8969242
21
0.6757898
0
LINE
8
DEFAULT_255_1_388
10
14.8969242
20
0.6757898
11
15.2682892
21
0.6757898
0
LINE
8
DEFAULT_255_1_388
10
15.8483775
20
0.0622696
11
15.8483775
21
-0.0217619
0
LINE
8
DEFAULT_255_1_388
10
15.272807
20
0.5330267
11
15.0704085
21
0.5330267
0
LINE
8
DEFAULT_255_1_388
10
15.0704085
20
0.5330267
11
15.0704085
21
-0.4979404
0
LINE
8
DEFAULT_255_1_388
10
15.0704085
20
-0.4979404
11
15.2529286
21
-0.4979404
0
LINE
8
DEFAULT_255_1_388
10
15.6767003
20
-0.0181477
11
15.6767003
21
0.0586553
0
ARC
8
DEFAULT_255_1_388
10
15.2726686
20
0.0159436
40
0.6598608
50
75.4100343
51
90.3802731
0
ARC
8
DEFAULT_255_1_388
10
15.2984932
20
0.1235691
40
0.5492049
50
60.1455157
51
75.1889627
0
ARC
8
DEFAULT_255_1_388
10
15.3163523
20
0.1546914
40
0.5133226
50
26.525419
51
60.1451222
0
ARC
8
DEFAULT_255_1_388
10
15.190331
20
0.0878642
40
0.6559324
50
7.4029944
51
26.832209
0
ARC
8
DEFAULT_255_1_388
10
15.0109707
20
0.0599229
40
0.8374103
50
0.1605597
51
7.7176135
0
ARC
8
DEFAULT_255_1_388
10
15.0294107
20
-0.0260679
40
0.8189782
50
348.7289744
51
0.30125
0
ARC
8
DEFAULT_255_1_388
10
15.2157571
20
-0.0630844
40
0.628991
50
333.0706936
51
348.7181455
0
ARC
8
DEFAULT_255_1_388
10
15.3245199
20
-0.1221551
40
0.5052808
50
299.2531435
51
333.4571133
0
ARC
8
DEFAULT_255_1_388
10
15.283923
20
-0.0450371
40
0.5924066
50
278.1072193
51
299.0340218
0
ARC
8
DEFAULT_255_1_388
10
15.2551279
20
0.1245979
40
0.7644209
50
270.4446841
51
278.4508355
0
ARC
8
DEFAULT_255_1_388
10
15.2574762
20
0.02003
40
0.5179903
50
269.4969684
51
284.0204874
0
ARC
8
DEFAULT_255_1_388
10
15.2974481
20
-0.1335585
40
0.3592968
50
283.7699076
51
318.1557121
0
ARC
8
DEFAULT_255_1_388
10
15.2595026
20
-0.1051601
40
0.4065308
50
318.7417595
51
343.687252
0
ARC
8
DEFAULT_255_1_388
10
15.0565605
20
-0.0417725
40
0.6191194
50
343.3324891
51
355.8548594
0
ARC
8
DEFAULT_255_1_388
10
14.8204642
20
-0.0193281
40
0.856237
50
355.4988754
51
0.0789913
0
ARC
8
DEFAULT_255_1_388
10
14.9085441
20
0.063408
40
0.7681709
50
359.6455047
51
9.8607559
0
ARC
8
DEFAULT_255_1_388
10
15.1741165
20
0.1113664
40
0.498312
50
9.6573037
51
26.1931522
0
ARC
8
DEFAULT_255_1_388
10
15.278524
20
0.1598587
40
0.3832303
50
26.5777895
51
40.1533752
0
ARC
8
DEFAULT_255_1_388
10
15.3072905
20
0.182302
40
0.3467742
50
40.3839958
51
80.1430923
0
ARC
8
DEFAULT_255_1_388
10
15.270516
20
0.0192486
40
0.5137832
50
79.2153636
51
89.7445174
0
LINE
8
DEFAULT_255_1_388
10
16.772724
20
0.6757898
11
16.772724
21
-0.197957
0
LINE
8
DEFAULT_255_1_388
10
16.772724
20
-0.197957
11
16.955244
21
-0.197957
0
LINE
8
DEFAULT_255_1_388
10
16.955244
20
-0.197957
11
16.955244
21
-0.3343952
0
LINE
8
DEFAULT_255_1_388
10
16.955244
20
-0.3343952
11
16.772724
21
-0.3343952
0
LINE
8
DEFAULT_255_1_388
10
16.772724
20
-0.3343952
11
16.772724
21
-0.6398
0
LINE
8
DEFAULT_255_1_388
10
16.772724
20
-0.6398
11
16.604661
21
-0.6398
0
LINE
8
DEFAULT_255_1_388
10
16.604661
20
-0.6398
11
16.604661
21
-0.3343952
0
LINE
8
DEFAULT_255_1_388
10
16.604661
20
-0.3343952
11
16.0055978
21
-0.3343952
0
LINE
8
DEFAULT_255_1_388
10
16.0055978
20
-0.3343952
11
16.0055978
21
-0.2359067
0
LINE
8
DEFAULT_255_1_388
10
16.0055978
20
-0.2359067
11
16.5947218
21
0.6757898
0
LINE
8
DEFAULT_255_1_388
10
16.5947218
20
0.6757898
11
16.772724
21
0.6757898
0
LINE
8
DEFAULT_255_1_388
10
16.5847826
20
0.4110455
11
16.1953463
21
-0.197957
0
LINE
8
DEFAULT_255_1_388
10
16.1953463
20
-0.197957
11
16.604661
21
-0.197957
0
LINE
8
DEFAULT_255_1_388
10
16.604661
20
-0.197957
11
16.604661
21
0.447188
0
LINE
8
DEFAULT_255_1_388
10
16.604661
20
0.447188
11
16.5847826
21
0.4110455
0
LINE
8
DEFAULT_255_1_388
10
17.9310936
20
0.138169
11
17.9310936
21
-0.0786865
0
LINE
8
DEFAULT_255_1_388
10
17.1007179
20
-0.1012756
11
17.1007179
21
0.1219048
0
LINE
8
DEFAULT_255_1_388
10
17.7639342
20
-0.1238647
11
17.7639342
21
0.1499153
0
LINE
8
DEFAULT_255_1_388
10
17.2678773
20
0.1625652
11
17.2678773
21
-0.1048898
0
ARC
8
DEFAULT_255_1_388
10
16.553327
20
-0.0841882
40
1.3777776
50
353.8440855
51
0.2287917
0
ARC
8
DEFAULT_255_1_388
10
17.0752287
20
-0.1424586
40
0.852639
50
344.4934746
51
353.9763743
0
ARC
8
DEFAULT_255_1_388
10
17.4119095
20
-0.2381809
40
0.5026273
50
329.2803599
51
344.7473406
0
ARC
8
DEFAULT_255_1_388
10
17.523459
20
-0.2993962
40
0.3754848
50
324.9361395
51
328.6153007
0
ARC
8
DEFAULT_255_1_388
10
17.566024
20
-0.3291414
40
0.3235566
50
280.5801797
51
324.9173226
0
ARC
8
DEFAULT_255_1_388
10
17.5208869
20
-0.1411764
40
0.5167077
50
269.5979457
51
281.6732777
0
ARC
8
DEFAULT_255_1_388
10
17.5127772
20
-0.1546887
40
0.5032026
50
256.6228565
51
270.5105488
0
ARC
8
DEFAULT_255_1_388
10
17.4675515
20
-0.3288655
40
0.3233092
50
215.8618351
51
257.2787793
0
ARC
8
DEFAULT_255_1_388
10
17.5824222
20
-0.2517894
40
0.4615831
50
197.9695203
51
215.2622745
0
ARC
8
DEFAULT_255_1_388
10
17.8619898
20
-0.1574359
40
0.7566307
50
187.8816486
51
198.2346584
0
ARC
8
DEFAULT_255_1_388
10
18.3073136
20
-0.0931547
40
1.2065653
50
180.8977266
51
188.0054894
0
ARC
8
DEFAULT_255_1_388
10
18.612335
20
-0.08166
40
1.5117443
50
180.7434591
51
181.152202
0
ARC
8
DEFAULT_255_1_388
10
18.4448346
20
0.1273371
40
1.3441277
50
173.7674302
51
180.2315596
0
ARC
8
DEFAULT_255_1_388
10
17.9366214
20
0.1847779
40
0.8326847
50
164.3058537
51
173.9000553
0
ARC
8
DEFAULT_255_1_388
10
17.6090214
20
0.2791652
40
0.4917711
50
148.7922028
51
164.5682288
0
ARC
8
DEFAULT_255_1_388
10
17.5020952
20
0.3388457
40
0.3694204
50
144.5883979
51
148.1161588
0
ARC
8
DEFAULT_255_1_388
10
17.4633697
20
0.3658667
40
0.322202
50
101.6440149
51
144.5142619
0
ARC
8
DEFAULT_255_1_388
10
17.5111889
20
0.1758337
40
0.5180451
50
89.528284
51
102.5820197
0
ARC
8
DEFAULT_255_1_388
10
17.5200881
20
0.1714376
40
0.5224441
50
77.0437914
51
90.508231
0
ARC
8
DEFAULT_255_1_388
10
17.5653135
20
0.3562272
40
0.3322297
50
48.2777708
51
77.4996087
0
ARC
8
DEFAULT_255_1_388
10
17.5734875
20
0.3707557
40
0.315966
50
36.3141586
51
47.6307332
0
ARC
8
DEFAULT_255_1_388
10
17.4757597
20
0.3049159
40
0.4337313
50
18.2931065
51
35.6770203
0
ARC
8
DEFAULT_255_1_388
10
17.1896438
20
0.2067107
40
0.7362203
50
8.0246996
51
18.5605636
0
ARC
8
DEFAULT_255_1_388
10
16.7212793
20
0.1375432
40
1.2096583
50
1.127539
51
8.1718423
0
ARC
8
DEFAULT_255_1_388
10
16.3563927
20
0.1232374
40
1.5747719
50
0.5432713
51
1.38669
0
ARC
8
DEFAULT_255_1_388
10
16.5621306
20
0.1539163
40
1.2018103
50
359.8092569
51
4.9408001
0
ARC
8
DEFAULT_255_1_388
10
17.0357887
20
0.19619
40
0.7262727
50
4.8364937
51
12.2906017
0
ARC
8
DEFAULT_255_1_388
10
17.3457352
20
0.2652485
40
0.4087324
50
12.0806994
51
23.8171225
0
ARC
8
DEFAULT_255_1_388
10
17.4777748
20
0.3211508
40
0.2653719
50
24.2874621
51
31.3934353
0
ARC
8
DEFAULT_255_1_388
10
17.5368184
20
0.3597822
40
0.1948607
50
30.7407708
51
82.4658033
0
ARC
8
DEFAULT_255_1_388
10
17.5165844
20
0.2604017
40
0.2961198
50
81.1057101
51
90.2187368
0
ARC
8
DEFAULT_255_1_388
10
17.5125656
20
0.2894421
40
0.2670929
50
89.380395
51
105.6763916
0
ARC
8
DEFAULT_255_1_388
10
17.4919378
20
0.364432
40
0.1893189
50
105.7980655
51
149.7387869
0
ARC
8
DEFAULT_255_1_388
10
17.6116518
20
0.2924719
40
0.3289892
50
149.4208441
51
163.628295
0
ARC
8
DEFAULT_255_1_388
10
17.8468748
20
0.2207345
40
0.5749004
50
163.3764549
51
172.141138
0
ARC
8
DEFAULT_255_1_388
10
18.2181469
20
0.1675582
40
0.9499585
50
172.0258462
51
178.0705453
0
ARC
8
DEFAULT_255_1_388
10
18.5603022
20
0.1513682
40
1.2924734
50
177.8639301
51
179.5036263
0
ARC
8
DEFAULT_255_1_388
10
18.4384041
20
-0.1089849
40
1.170534
50
179.7995545
51
185.246089
0
ARC
8
DEFAULT_255_1_388
10
17.9835634
20
-0.1520596
40
0.7136613
50
185.1411911
51
193.0082205
0
ARC
8
DEFAULT_255_1_388
10
17.6861895
20
-0.2223559
40
0.4080987
50
192.7897338
51
205.2507384
0
ARC
8
DEFAULT_255_1_388
10
17.5684105
20
-0.2749462
40
0.2791522
50
205.8001921
51
211.2545876
0
ARC
8
DEFAULT_255_1_388
10
17.5095644
20
-0.3143868
40
0.2084074
50
210.3789935
51
238.4007996
0
ARC
8
DEFAULT_255_1_388
10
17.507373
20
-0.3091214
40
0.2117943
50
239.6521916
51
265.9793852
0
ARC
8
DEFAULT_255_1_388
10
17.5169579
20
-0.2334642
40
0.2879689
50
265.1324455
51
270.0603288
0
ARC
8
DEFAULT_255_1_388
10
17.5201956
20
-0.2699582
40
0.2514919
50
269.3314378
51
287.2180039
0
ARC
8
DEFAULT_255_1_388
10
17.5357038
20
-0.3265709
40
0.1928357
50
287.7957942
51
329.0808983
0
ARC
8
DEFAULT_255_1_388
10
17.4279795
20
-0.2593349
40
0.319808
50
328.6635261
51
343.3325043
0
ARC
8
DEFAULT_255_1_388
10
17.1835254
20
-0.1831805
40
0.5758408
50
343.0498092
51
351.9392499
0
ARC
8
DEFAULT_255_1_388
10
16.7934575
20
-0.1256795
40
0.9701202
50
351.8071632
51
357.7957897
0
ARC
8
DEFAULT_255_1_388
10
16.4300052
20
-0.1068276
40
1.3340376
50
357.5870923
51
359.2682493
0
LINE
8
DEFAULT_255_1_388
10
19.0072389
20
-0.5033618
11
19.0072389
21
-0.6398
0
LINE
8
DEFAULT_255_1_388
10
19.0072389
20
-0.6398
11
18.1452384
21
-0.6398
0
LINE
8
DEFAULT_255_1_388
10
18.1452384
20
-0.6398
11
18.1452384
21
-0.5196259
0
LINE
8
DEFAULT_255_1_388
10
18.1452384
20
-0.5196259
11
18.6006349
21
-0.0136298
0
LINE
8
DEFAULT_255_1_388
10
18.287098
20
0.2881607
11
18.1199386
21
0.2881607
0
LINE
8
DEFAULT_255_1_388
10
18.6991234
20
-0.121154
11
18.3467333
21
-0.5033618
0
LINE
8
DEFAULT_255_1_388
10
18.3467333
20
-0.5033618
11
19.0072389
21
-0.5033618
0
ARC
8
DEFAULT_255_1_388
10
17.0830408
20
1.3283983
40
2.0258655
50
318.5132526
51
320.7829045
0
ARC
8
DEFAULT_255_1_388
10
17.6778365
20
0.8442929
40
1.2589638
50
320.7372878
51
323.9739031
0
ARC
8
DEFAULT_255_1_388
10
18.1187297
20
0.5248554
40
0.7145141
50
323.8962701
51
328.64194
0
ARC
8
DEFAULT_255_1_388
10
18.3489554
20
0.3828545
40
0.4440242
50
328.8294576
51
331.7891185
0
ARC
8
DEFAULT_255_1_388
10
18.4611874
20
0.3249374
40
0.3177517
50
331.4254512
51
352.9365785
0
ARC
8
DEFAULT_255_1_388
10
18.4764874
20
0.321505
40
0.3021496
50
353.2257659
51
0.0166158
0
ARC
8
DEFAULT_255_1_388
10
18.5001635
20
0.3240894
40
0.2784847
50
359.486299
51
15.9343185
0
ARC
8
DEFAULT_255_1_388
10
18.5571902
20
0.3394269
40
0.2194403
50
16.1712913
51
43.5286088
0
ARC
8
DEFAULT_255_1_388
10
18.5658846
20
0.3481191
40
0.2071504
50
43.4417391
51
83.1661095
0
ARC
8
DEFAULT_255_1_388
10
18.5508007
20
0.2652316
40
0.2912888
50
82.160179
51
90.1505708
0
ARC
8
DEFAULT_255_1_388
10
18.5472489
20
0.2048279
40
0.3517025
50
89.5460741
51
102.5418361
0
ARC
8
DEFAULT_255_1_388
10
18.5199209
20
0.3207933
40
0.2325748
50
102.1738499
51
129.206123
0
ARC
8
DEFAULT_255_1_388
10
18.5110662
20
0.3347664
40
0.2161591
50
129.72865
51
135.753947
0
ARC
8
DEFAULT_255_1_388
10
18.5247145
20
0.3238728
40
0.2335433
50
136.1757367
51
166.3673339
0
ARC
8
DEFAULT_255_1_388
10
18.6379833
20
0.2935148
40
0.3507873
50
165.9090694
51
178.8684636
0
ARC
8
DEFAULT_255_1_388
10
18.7355605
20
0.2882263
40
0.4484624
50
178.4391136
51
180.0083808
0
ARC
8
DEFAULT_255_1_388
10
18.5776306
20
0.2926197
40
0.4577138
50
163.2878482
51
180.5581842
0
ARC
8
DEFAULT_255_1_388
10
18.4874347
20
0.3174393
40
0.3641968
50
133.4540601
51
162.947111
0
ARC
8
DEFAULT_255_1_388
10
18.5075229
20
0.2960789
40
0.3935189
50
100.7869829
51
133.4382499
0
ARC
8
DEFAULT_255_1_388
10
18.5466474
20
0.1218399
40
0.5720313
50
89.660664
51
101.3702276
0
ARC
8
DEFAULT_255_1_388
10
18.5541083
20
0.1287263
40
0.5651495
50
78.2172678
51
90.412935
0
ARC
8
DEFAULT_255_1_388
10
18.5940549
20
0.3114511
40
0.378122
50
55.9269121
51
78.4888449
0
ARC
8
DEFAULT_255_1_388
10
18.6161264
20
0.3495187
40
0.3342379
50
47.929771
51
55.4049217
0
ARC
8
DEFAULT_255_1_388
10
18.6275794
20
0.3611618
40
0.3179217
50
4.334829
51
48.0560205
0
ARC
8
DEFAULT_255_1_388
10
18.5043596
20
0.3420487
40
0.442341
50
359.9251713
51
5.5971671
0
ARC
8
DEFAULT_255_1_388
10
18.552575
20
0.3483728
40
0.3941854
50
337.8914027
51
358.9967534
0
ARC
8
DEFAULT_255_1_388
10
18.2473321
20
0.4661295
40
0.7213271
50
326.9132501
51
338.3508308
0
ARC
8
DEFAULT_255_1_388
10
17.7989432
20
0.7535105
40
1.2538973
50
319.6471833
51
327.0959558
0
ARC
8
DEFAULT_255_1_388
10
17.3676091
20
1.109305
40
1.8129975
50
317.2588228
51
319.9045804
0
ARC
8
DEFAULT_255_2_778
10
15.0733635
20
74.3607757
40
0.3782991
50
0.3791625
51
91.2888722
0
ARC
8
DEFAULT_255_2_778
10
15.0712556
20
74.3578625
40
0.3804373
50
269.035893
51
0.8157951
0
ARC
8
DEFAULT_255_2_778
10
15.2298414
20
74.3451903
40
0.764498
50
290.7706876
51
357.5425648
0
ARC
8
DEFAULT_255_2_778
10
15.1444777
20
74.363208
40
0.8506767
50
356.5766106
51
0.0047928
0
LINE
8
DEFAULT_255_2_778
10
15.9951543
20
74.3632791
11
15.9951544
21
74.3636491
0
ARC
8
DEFAULT_255_2_778
10
15.1450863
20
74.3644642
40
0.8500685
50
359.9450654
51
50.5390341
0
ARC
8
DEFAULT_255_2_778
10
15.1444941
20
74.3669565
40
0.8485231
50
50.4011998
51
90.0499498
0
ARC
8
DEFAULT_255_2_778
10
19.9749167
20
74.3543388
40
0.3846416
50
1.3318655
51
90.1433517
0
ARC
8
DEFAULT_255_2_778
10
20.032532
20
74.3476399
40
0.8701301
50
359.7589483
51
41.4305054
0
ARC
8
DEFAULT_255_2_778
10
20.0366159
20
74.3494682
40
0.8658593
50
41.5186192
51
87.8931913
0
ARC
8
DEFAULT_255_2_778
10
20.0318882
20
74.3081194
40
0.9073597
50
87.6908463
51
90.0021405
0
ARC
8
DEFAULT_255_2_778
10
12.7283013
20
74.3611978
40
0.3778587
50
0.315598
51
91.1596115
0
ARC
8
DEFAULT_255_2_778
10
12.780832
20
74.3476399
40
0.8701301
50
359.7589483
51
41.4305054
0
ARC
8
DEFAULT_255_2_778
10
12.7849159
20
74.3494682
40
0.8658593
50
41.5186192
51
87.8931913
0
ARC
8
DEFAULT_255_2_778
10
12.7801882
20
74.3081194
40
0.9073597
50
87.6908463
51
90.0021405
0
ARC
8
DEFAULT_255_2_778
10
17.3607953
20
73.9526363
40
1.2832573
50
232.9444752
51
270.0294264
0
ARC
8
DEFAULT_255_2_778
10
17.3747185
20
73.9752392
40
1.309688
50
187.7220619
51
233.0542317
0
ARC
8
DEFAULT_255_2_778
10
17.394046
20
73.9771092
40
1.3290916
50
179.9840519
51
187.6899902
0
ARC
8
DEFAULT_255_2_778
10
17.3607435
20
73.9742375
40
1.2957932
50
146.5712859
51
179.856664
0
ARC
8
DEFAULT_255_2_778
10
17.3664497
20
73.9726083
40
1.3014542
50
96.2202672
51
146.6498182
0
ARC
8
DEFAULT_255_2_778
10
17.366579
20
73.957672
40
1.3163172
50
90.2230618
51
96.1554199
0
ARC
8
DEFAULT_255_2_778
10
17.3635865
20
73.9704986
40
1.3034823
50
58.1053732
51
90.0937227
0
ARC
8
DEFAULT_255_2_778
10
17.3697488
20
73.9737602
40
1.297462
50
3.9625434
51
58.2603135
0
ARC
8
DEFAULT_255_2_778
10
17.3698045
20
73.977556
40
1.2971498
50
359.9966051
51
3.7954532
0
ARC
8
DEFAULT_255_2_778
10
17.3615109
20
73.9748085
40
1.3054462
50
328.1074285
51
0.1172153
0
ARC
8
DEFAULT_255_2_778
10
17.3626009
20
73.9728496
40
1.3034863
50
276.1451864
51
328.1552184
0
ARC
8
DEFAULT_255_2_778
10
17.361704
20
73.9924075
40
1.3230283
50
269.9891883
51
276.0931369
0
ARC
8
DEFAULT_255_2_778
10
17.365616
20
73.97204
40
0.7573723
50
269.6851627
51
316.0204287
0
ARC
8
DEFAULT_255_2_778
10
17.3607868
20
73.9730889
40
0.7615801
50
316.2159375
51
0.3302942
0
ARC
8
DEFAULT_255_2_778
10
17.3696724
20
73.9767627
40
0.7526823
50
0.0545399
51
85.3801077
0
ARC
8
DEFAULT_255_2_778
10
17.3615889
20
73.9363031
40
0.793676
50
85.0337063
51
90.0097107
0
ARC
8
DEFAULT_255_2_778
10
17.3608055
20
73.9776224
40
0.7523571
50
89.950584
51
177.7945888
0
ARC
8
DEFAULT_255_2_778
10
17.3749575
20
73.9775059
40
0.7665032
50
177.8265967
51
180.0019985
0
ARC
8
DEFAULT_255_2_778
10
17.3738539
20
73.9735227
40
0.7654098
50
179.7038321
51
222.1989357
0
ARC
8
DEFAULT_255_2_778
10
17.3596298
20
73.9614205
40
0.7467434
50
222.2441262
51
270.1399959
0
ARC
8
DEFAULT_255_2_778
10
9.3661953
20
73.9526363
40
1.2832573
50
232.9444752
51
270.0294264
0
ARC
8
DEFAULT_255_2_778
10
9.3801185
20
73.9752392
40
1.309688
50
187.7220619
51
233.0542317
0
ARC
8
DEFAULT_255_2_778
10
9.399446
20
73.9771092
40
1.3290916
50
179.9840519
51
187.6899902
0
ARC
8
DEFAULT_255_2_778
10
9.3661435
20
73.9742375
40
1.2957932
50
146.5712859
51
179.856664
0
ARC
8
DEFAULT_255_2_778
10
9.3718497
20
73.9726083
40
1.3014542
50
96.2202672
51
146.6498182
0
ARC
8
DEFAULT_255_2_778
10
9.371979
20
73.957672
40
1.3163172
50
90.2230618
51
96.1554199
0
ARC
8
DEFAULT_255_2_778
10
9.3689712
20
73.9706994
40
1.3032814
50
58.1028503
51
90.093062
0
ARC
8
DEFAULT_255_2_778
10
9.3750118
20
73.973756
40
1.2974994
50
3.9626176
51
58.2579977
0
ARC
8
DEFAULT_255_2_778
10
9.3751045
20
73.977556
40
1.2971498
50
359.9966051
51
3.7954532
0
ARC
8
DEFAULT_255_2_778
10
9.3665167
20
73.9747699
40
1.3057405
50
328.1174595
51
0.118882
0
ARC
8
DEFAULT_255_2_778
10
9.3681374
20
73.9725655
40
1.3032005
50
276.6132577
51
328.1621178
0
ARC
8
DEFAULT_255_2_778
10
9.3671443
20
73.991988
40
1.3226088
50
269.9874371
51
276.559089
0
ARC
8
DEFAULT_255_2_778
10
9.3709855
20
73.9720111
40
0.7573432
50
269.6874622
51
316.2799796
0
ARC
8
DEFAULT_255_2_778
10
9.3661266
20
73.973141
40
0.7616402
50
316.4711746
51
0.3263467
0
ARC
8
DEFAULT_255_2_778
10
9.3747216
20
73.9764636
40
0.7530334
50
0.0772648
51
85.7305483
0
ARC
8
DEFAULT_255_2_778
10
9.3669682
20
73.9369743
40
0.7930048
50
85.3843136
51
90.0082261
0
ARC
8
DEFAULT_255_2_778
10
9.365942
20
73.9778957
40
0.752084
50
89.9304929
51
177.8146271
0
ARC
8
DEFAULT_255_2_778
10
9.3814728
20
73.9775058
40
0.7676183
50
177.8297522
51
180.0019923
0
ARC
8
DEFAULT_255_2_778
10
9.3792877
20
73.9734968
40
0.7654437
50
179.7019109
51
222.1940298
0
ARC
8
DEFAULT_255_2_778
10
9.3649802
20
73.9613879
40
0.746711
50
222.2430072
51
270.143803
0
LINE
8
DEFAULT_255_2_778
10
13.8784543
20
75.1948791
11
13.8784543
21
72.7289791
0
LINE
8
DEFAULT_255_2_778
10
13.8784543
20
72.7289791
11
14.4219543
21
72.7289791
0
LINE
8
DEFAULT_255_2_778
10
14.4219543
20
72.7289791
11
14.4219543
21
74.7389791
0
LINE
8
DEFAULT_255_2_778
10
14.4219543
20
74.7389791
11
15.0648543
21
74.7389791
0
LINE
8
DEFAULT_255_2_778
10
15.0648543
20
73.9774791
11
14.6002543
21
73.9774791
0
LINE
8
DEFAULT_255_2_778
10
14.6002543
20
73.9774791
11
15.4413543
21
72.7289791
0
LINE
8
DEFAULT_255_2_778
10
15.4413543
20
72.7289791
11
16.1142543
21
72.7289791
0
LINE
8
DEFAULT_255_2_778
10
16.1142543
20
72.7289791
11
15.5009543
21
73.6303791
0
LINE
8
DEFAULT_255_2_778
10
15.1437543
20
75.2154791
11
14.4216543
21
75.2154791
0
LINE
8
DEFAULT_255_2_778
10
14.4216543
20
75.2154791
11
13.8782543
21
75.1948791
0
LINE
8
DEFAULT_255_2_778
10
13.8782543
20
75.1948791
11
13.8784543
21
75.1948791
0
LINE
8
DEFAULT_255_2_778
10
18.8158543
20
75.1948791
11
18.8158543
21
72.7289791
0
LINE
8
DEFAULT_255_2_778
10
18.8158543
20
72.7289791
11
19.3593543
21
72.7289791
0
LINE
8
DEFAULT_255_2_778
10
19.3593543
20
72.7289791
11
19.3593543
21
74.7389791
0
LINE
8
DEFAULT_255_2_778
10
19.3593543
20
74.7389791
11
19.9739543
21
74.7389791
0
LINE
8
DEFAULT_255_2_778
10
20.3594543
20
74.3632791
11
20.3594543
21
72.7289791
0
LINE
8
DEFAULT_255_2_778
10
20.3594543
20
72.7289791
11
20.9026543
21
72.7289791
0
LINE
8
DEFAULT_255_2_778
10
20.9026543
20
72.7289791
11
20.9026543
21
74.3439791
0
LINE
8
DEFAULT_255_2_778
10
20.0318543
20
75.2154791
11
19.3590543
21
75.2154791
0
LINE
8
DEFAULT_255_2_778
10
19.3590543
20
75.2154791
11
18.8156543
21
75.1948791
0
LINE
8
DEFAULT_255_2_778
10
18.8156543
20
75.1948791
11
18.8158543
21
75.1948791
0
LINE
8
DEFAULT_255_2_778
10
10.8212543
20
75.1948791
11
10.8212543
21
72.7289791
0
LINE
8
DEFAULT_255_2_778
10
10.8212543
20
72.7289791
11
11.3646543
21
72.7289791
0
LINE
8
DEFAULT_255_2_778
10
11.3646543
20
72.7289791
11
11.3646543
21
74.7389791
0
LINE
8
DEFAULT_255_2_778
10
11.3646543
20
74.7389791
11
11.9689543
21
74.7389791
0
LINE
8
DEFAULT_255_2_778
10
11.9689543
20
74.7389791
11
11.9689543
21
72.7289791
0
LINE
8
DEFAULT_255_2_778
10
11.9689543
20
72.7289791
11
12.5124543
21
72.7289791
0
LINE
8
DEFAULT_255_2_778
10
12.5124543
20
72.7289791
11
12.5124543
21
74.7389791
0
LINE
8
DEFAULT_255_2_778
10
12.5124543
20
74.7389791
11
12.7206543
21
74.7389791
0
LINE
8
DEFAULT_255_2_778
10
13.1061543
20
74.3632791
11
13.1061543
21
72.7289791
0
LINE
8
DEFAULT_255_2_778
10
13.1061543
20
72.7289791
11
13.6509543
21
72.7289791
0
LINE
8
DEFAULT_255_2_778
10
13.6509543
20
72.7289791
11
13.6509543
21
74.3439791
0
LINE
8
DEFAULT_255_2_778
10
12.7801543
20
75.2154791
11
11.3749543
21
75.2154791
0
LINE
8
DEFAULT_255_2_778
10
11.3749543
20
75.2154791
11
10.8212543
21
75.1948791
0
LINE
8
DEFAULT_255_2_778
10
10.8212543
20
75.1948791
11
10.8212543
21
75.1948791
0
LINE
8
DEFAULT_255_2_778
10
17.3614543
20
72.6693791
11
17.3614543
21
72.6693791
0
LINE
8
DEFAULT_255_2_778
10
9.3668543
20
72.6693791
11
9.3668543
21
72.6693791
0
LINE
8
DEFAULT_255_1_388
10
11.293891
20
71.4518898
11
11.293891
21
70.1363
0
LINE
8
DEFAULT_255_1_388
10
11.293891
20
70.1363
11
11.1195031
21
70.1363
0
LINE
8
DEFAULT_255_1_388
10
11.1195031
20
70.1363
11
10.4571903
21
71.1500993
0
LINE
8
DEFAULT_255_1_388
10
10.4571903
20
71.1500993
11
10.4571903
21
70.1363
0
LINE
8
DEFAULT_255_1_388
10
10.4571903
20
70.1363
11
10.2828024
21
70.1363
0
LINE
8
DEFAULT_255_1_388
10
10.2828024
20
70.1363
11
10.2828024
21
71.4518898
0
LINE
8
DEFAULT_255_1_388
10
10.2828024
20
71.4518898
11
10.4571903
21
71.4518898
0
LINE
8
DEFAULT_255_1_388
10
10.4571903
20
71.4518898
11
11.1213102
21
70.4335727
0
LINE
8
DEFAULT_255_1_388
10
11.1213102
20
70.4335727
11
11.1213102
21
71.4518898
0
LINE
8
DEFAULT_255_1_388
10
11.1213102
20
71.4518898
11
11.293891
21
71.4518898
0
LINE
8
DEFAULT_255_1_388
10
11.7294091
20
71.4518898
11
12.0465602
21
70.9477009
0
LINE
8
DEFAULT_255_1_388
10
12.0465602
20
70.9477009
11
12.3619042
21
71.4518898
0
LINE
8
DEFAULT_255_1_388
10
12.3619042
20
71.4518898
11
12.5661098
21
71.4518898
0
LINE
8
DEFAULT_255_1_388
10
12.5661098
20
71.4518898
11
12.1504701
21
70.7995163
0
LINE
8
DEFAULT_255_1_388
10
12.1504701
20
70.7995163
11
12.576049
21
70.1363
0
LINE
8
DEFAULT_255_1_388
10
12.576049
20
70.1363
11
12.3700363
21
70.1363
0
LINE
8
DEFAULT_255_1_388
10
12.3700363
20
70.1363
11
12.0465602
21
70.6495246
0
LINE
8
DEFAULT_255_1_388
10
12.0465602
20
70.6495246
11
11.721277
21
70.1363
0
LINE
8
DEFAULT_255_1_388
10
11.721277
20
70.1363
11
11.5161679
21
70.1363
0
LINE
8
DEFAULT_255_1_388
10
11.5161679
20
70.1363
11
11.9426503
21
70.7995163
0
LINE
8
DEFAULT_255_1_388
10
11.9426503
20
70.7995163
11
11.5261071
21
71.4518898
0
LINE
8
DEFAULT_255_1_388
10
11.5261071
20
71.4518898
11
11.7294091
21
71.4518898
0
LINE
8
DEFAULT_255_1_388
10
13.0576488
20
70.7633737
11
13.0576488
21
70.6269355
0
LINE
8
DEFAULT_255_1_388
10
13.0576488
20
70.6269355
11
12.6167094
21
70.6269355
0
LINE
8
DEFAULT_255_1_388
10
12.6167094
20
70.6269355
11
12.6167094
21
70.7633737
0
LINE
8
DEFAULT_255_1_388
10
12.6167094
20
70.7633737
11
13.0576488
21
70.7633737
0
LINE
8
DEFAULT_255_1_388
10
14.1193371
20
71.0714892
11
13.9449491
21
71.0714892
0
LINE
8
DEFAULT_255_1_388
10
13.1660766
20
70.5176042
11
13.3404645
21
70.5176042
0
ARC
8
DEFAULT_255_1_388
10
14.0190218
20
72.0778821
40
1.4087688
50
248.9196578
51
254.1442424
0
ARC
8
DEFAULT_255_1_388
10
13.8300098
20
71.5912805
40
0.8867498
50
241.6337352
51
249.0064643
0
ARC
8
DEFAULT_255_1_388
10
13.6580412
20
71.2761764
40
0.5277799
50
230.4982261
51
241.8087583
0
ARC
8
DEFAULT_255_1_388
10
13.5698183
20
71.1637686
40
0.3849419
50
227.4062979
51
229.9877433
0
ARC
8
DEFAULT_255_1_388
10
13.5149529
20
71.1102155
40
0.3084129
50
200.6782127
51
228.1765252
0
ARC
8
DEFAULT_255_1_388
10
13.5230898
20
71.1085277
40
0.315461
50
179.506278
51
199.8695278
0
ARC
8
DEFAULT_255_1_388
10
13.5220487
20
71.1168671
40
0.3144584
50
132.4834401
51
181.0242352
0
ARC
8
DEFAULT_255_1_388
10
13.5889691
20
71.0536788
40
0.4063094
50
129.2526113
51
133.4249077
0
ARC
8
DEFAULT_255_1_388
10
13.6055284
20
71.0288619
40
0.436014
50
101.9878945
51
128.8741833
0
ARC
8
DEFAULT_255_1_388
10
13.6503699
20
70.835236
40
0.6347415
50
89.5906376
51
102.3170567
0
ARC
8
DEFAULT_255_1_388
10
13.6583011
20
70.8710586
40
0.5989122
50
77.2359491
51
90.3248968
0
ARC
8
DEFAULT_255_1_388
10
13.6815942
20
70.9798554
40
0.4876594
50
63.8379856
51
77.0808925
0
ARC
8
DEFAULT_255_1_388
10
13.7128475
20
71.0380882
40
0.4216191
50
45.9863127
51
64.1608798
0
ARC
8
DEFAULT_255_1_388
10
13.7421869
20
71.071599
40
0.3771394
50
32.2747934
51
45.6544796
0
ARC
8
DEFAULT_255_1_388
10
13.7496675
20
71.0737426
40
0.3696765
50
359.6507495
51
32.6129943
0
ARC
8
DEFAULT_255_1_388
10
13.6435858
20
71.0742788
40
0.3013762
50
359.469654
51
14.983205
0
ARC
8
DEFAULT_255_1_388
10
13.722911
20
71.0955288
40
0.2192542
50
14.9781954
51
48.2004799
0
ARC
8
DEFAULT_255_1_388
10
13.7044221
20
71.0722937
40
0.2489048
50
48.5926661
51
74.1242559
0
ARC
8
DEFAULT_255_1_388
10
13.6669024
20
70.9484607
40
0.3782845
50
73.7889321
51
86.6653996
0
ARC
8
DEFAULT_255_1_388
10
13.6553838
20
70.8126955
40
0.5145025
50
86.2642725
51
90.0533288
0
ARC
8
DEFAULT_255_1_388
10
13.6521931
20
70.8571376
40
0.4700681
50
89.669455
51
99.2313411
0
ARC
8
DEFAULT_255_1_388
10
13.6249091
20
71.0196401
40
0.3052945
50
99.0695987
51
113.7659242
0
ARC
8
DEFAULT_255_1_388
10
13.5941085
20
71.0922772
40
0.226407
50
114.0402885
51
127.9848946
0
ARC
8
DEFAULT_255_1_388
10
13.5670561
20
71.1255884
40
0.1835045
50
127.7287217
51
176.7106493
0
ARC
8
DEFAULT_255_1_388
10
13.6434226
20
71.114221
40
0.2604907
50
175.1780759
51
180.0581213
0
ARC
8
DEFAULT_255_1_388
10
13.548557
20
71.1128411
40
0.1656287
50
179.6140658
51
228.124674
0
ARC
8
DEFAULT_255_1_388
10
13.5982927
20
71.158894
40
0.2332038
50
226.5785315
51
230.8792476
0
ARC
8
DEFAULT_255_1_388
10
13.6512414
20
71.2291908
40
0.3211664
50
231.4636401
51
241.9261664
0
ARC
8
DEFAULT_255_1_388
10
13.7859197
20
71.4770349
40
0.6032345
50
241.7177136
51
248.3259138
0
ARC
8
DEFAULT_255_1_388
10
13.9417792
20
71.8631771
40
1.0196417
50
248.2007377
51
252.4527713
0
ARC
8
DEFAULT_255_1_388
10
14.0771319
20
72.2816092
40
1.4594143
50
252.3388938
51
254.347037
0
ARC
8
DEFAULT_255_1_388
10
13.2286619
20
69.2468095
40
1.6917621
50
71.0197462
51
74.4085467
0
ARC
8
DEFAULT_255_1_388
10
13.4193707
20
69.7973144
40
1.1091618
50
66.1845203
51
71.086519
0
ARC
8
DEFAULT_255_1_388
10
13.5944256
20
70.1914439
40
0.6779073
50
59.3537334
51
66.269255
0
ARC
8
DEFAULT_255_1_388
10
13.6943982
20
70.3605777
40
0.4814366
50
49.1021732
51
59.3294421
0
ARC
8
DEFAULT_255_1_388
10
13.786497
20
70.4655575
40
0.3417875
50
32.7924183
51
49.2503526
0
ARC
8
DEFAULT_255_1_388
10
13.8214584
20
70.4905311
40
0.2988789
50
31.121225
51
32.3977355
0
ARC
8
DEFAULT_255_1_388
10
13.8126762
20
70.4872728
40
0.3080861
50
8.1116803
51
30.7958224
0
ARC
8
DEFAULT_255_1_388
10
13.7215108
20
70.4717437
40
0.4005385
50
359.8390945
51
8.4707348
0
ARC
8
DEFAULT_255_1_388
10
13.7919156
20
70.4662751
40
0.3301608
50
337.4732479
51
0.7538283
0
ARC
8
DEFAULT_255_1_388
10
13.8120181
20
70.4640554
40
0.3107929
50
307.5917028
51
336.4313755
0
ARC
8
DEFAULT_255_1_388
10
13.7609239
20
70.5208509
40
0.3870096
50
307.6560665
51
308.4561779
0
ARC
8
DEFAULT_255_1_388
10
13.7343455
20
70.5616832
40
0.435591
50
284.3733666
51
307.1426212
0
ARC
8
DEFAULT_255_1_388
10
13.6786349
20
70.7666391
40
0.6479685
50
272.4384566
51
284.6464689
0
ARC
8
DEFAULT_255_1_388
10
13.6643734
20
70.9690434
40
0.8508149
50
269.9708517
51
272.8180721
0
ARC
8
DEFAULT_255_1_388
10
13.6595417
20
70.7398283
40
0.6216151
50
248.2707343
51
270.4054609
0
ARC
8
DEFAULT_255_1_388
10
13.6534288
20
70.7183673
40
0.5994203
50
246.1380358
51
248.054058
0
ARC
8
DEFAULT_255_1_388
10
13.6063431
20
70.6194705
40
0.4899388
50
233.1671897
51
246.4951656
0
ARC
8
DEFAULT_255_1_388
10
13.5440066
20
70.5353137
40
0.3852115
50
215.3403381
51
233.084328
0
ARC
8
DEFAULT_255_1_388
10
13.513343
20
70.5130093
40
0.3472969
50
179.2419235
51
215.2648426
0
ARC
8
DEFAULT_255_1_388
10
13.5996981
20
70.5145979
40
0.259251
50
179.3355796
51
199.1045873
0
ARC
8
DEFAULT_255_1_388
10
13.5623123
20
70.5048223
40
0.2207454
50
199.8830064
51
232.7061328
0
ARC
8
DEFAULT_255_1_388
10
13.6154397
20
70.5716456
40
0.306101
50
232.3736206
51
255.5136621
0
ARC
8
DEFAULT_255_1_388
10
13.6537903
20
70.7116177
40
0.4512213
50
255.2447928
51
267.5318292
0
ARC
8
DEFAULT_255_1_388
10
13.663637
20
70.8502709
40
0.5901825
50
267.1564563
51
270.0294721
0
ARC
8
DEFAULT_255_1_388
10
13.6667695
20
70.8003623
40
0.5402814
50
269.6999944
51
278.1662446
0
ARC
8
DEFAULT_255_1_388
10
13.6955723
20
70.6056974
40
0.3435003
50
278.0229022
51
290.6255326
0
ARC
8
DEFAULT_255_1_388
10
13.7346889
20
70.5013547
40
0.2320666
50
290.6616368
51
307.0374127
0
ARC
8
DEFAULT_255_1_388
10
13.7684789
20
70.459904
40
0.1786372
50
306.3942078
51
355.303191
0
ARC
8
DEFAULT_255_1_388
10
13.7109082
20
70.4685186
40
0.2367516
50
354.3662092
51
0.0709489
0
ARC
8
DEFAULT_255_1_388
10
13.7268951
20
70.4710561
40
0.2207761
50
359.4175379
51
16.1975911
0
ARC
8
DEFAULT_255_1_388
10
13.7781069
20
70.4850954
40
0.1676828
50
16.4721294
51
52.6261798
0
ARC
8
DEFAULT_255_1_388
10
13.6857576
20
70.3631606
40
0.3206412
50
52.7381828
51
62.4979144
0
ARC
8
DEFAULT_255_1_388
10
13.5299329
20
70.0699236
40
0.6527035
50
62.2517425
51
68.1219454
0
ARC
8
DEFAULT_255_1_388
10
13.3364817
20
69.5944951
40
1.1659797
50
68.006043
51
71.8055127
0
ARC
8
DEFAULT_255_1_388
10
13.1344725
20
68.9886723
40
1.8045908
50
71.718361
51
73.9260743
0
LINE
8
DEFAULT_255_1_388
10
14.2756537
20
70.5980214
11
14.2756537
21
70.6287426
0
LINE
8
DEFAULT_255_1_388
10
15.1051259
20
70.6468139
11
15.1051259
21
70.5772395
0
LINE
8
DEFAULT_255_1_388
10
15.1051259
20
70.5772395
11
14.4428131
21
70.5772395
0
LINE
8
DEFAULT_255_1_388
10
14.9903732
20
70.3865874
11
15.092476
21
70.3070737
0
LINE
8
DEFAULT_255_1_388
10
14.4482345
20
70.7145813
11
14.9379665
21
70.7145813
0
LINE
8
DEFAULT_255_1_388
10
14.9379665
20
70.7145813
11
14.9379665
21
70.7272312
0
ARC
8
DEFAULT_255_1_388
10
14.7188298
20
70.610521
40
0.4923176
50
252.326534
51
270.5809615
0
ARC
8
DEFAULT_255_1_388
10
14.6957763
20
70.527194
40
0.4059384
50
223.3000488
51
251.8562489
0
ARC
8
DEFAULT_255_1_388
10
14.7195543
20
70.5502898
40
0.4390832
50
190.9374369
51
223.3654369
0
ARC
8
DEFAULT_255_1_388
10
14.913622
20
70.5941598
40
0.63798
50
179.6531919
51
191.4988561
0
ARC
8
DEFAULT_255_1_388
10
14.9273247
20
70.6323571
40
0.6516811
50
167.4005523
51
180.3177836
0
ARC
8
DEFAULT_255_1_388
10
14.8089919
20
70.6573853
40
0.5307402
50
154.1835149
51
167.2508278
0
ARC
8
DEFAULT_255_1_388
10
14.737951
20
70.6947925
40
0.4505076
50
134.3150225
51
154.5315008
0
ARC
8
DEFAULT_255_1_388
10
14.7134845
20
70.716255
40
0.4180662
50
122.8617482
51
133.9707159
0
ARC
8
DEFAULT_255_1_388
10
14.7018452
20
70.7412882
40
0.3907416
50
89.8248474
51
123.4199325
0
ARC
8
DEFAULT_255_1_388
10
14.707475
20
70.6685352
40
0.4635141
50
74.7874349
51
90.5482648
0
ARC
8
DEFAULT_255_1_388
10
14.7405214
20
70.7905987
40
0.3370565
50
39.8178888
51
74.7634383
0
ARC
8
DEFAULT_255_1_388
10
14.6828456
20
70.7456356
40
0.4101553
50
16.8990848
51
39.4830125
0
ARC
8
DEFAULT_255_1_388
10
14.469707
20
70.6773711
40
0.6339427
50
4.9634768
51
17.2027767
0
ARC
8
DEFAULT_255_1_388
10
14.1976475
20
70.64866
40
0.9074803
50
359.8834402
51
5.2832409
0
ARC
8
DEFAULT_255_1_388
10
14.8768833
20
70.5846981
40
0.4341343
50
180.9844233
51
194.9402766
0
ARC
8
DEFAULT_255_1_388
10
14.7587999
20
70.552417
40
0.3117211
50
194.8030557
51
222.0412897
0
ARC
8
DEFAULT_255_1_388
10
14.7245871
20
70.5184715
40
0.2635903
50
221.541578
51
268.8616004
0
ARC
8
DEFAULT_255_1_388
10
14.7327991
20
70.594528
40
0.3398611
50
267.7321071
51
270.009808
0
ARC
8
DEFAULT_255_1_388
10
14.7348055
20
70.6172178
40
0.3625561
50
269.6921218
51
280.4122297
0
ARC
8
DEFAULT_255_1_388
10
14.7546466
20
70.5138767
40
0.2573323
50
280.2257165
51
298.633539
0
ARC
8
DEFAULT_255_1_388
10
14.767188
20
70.4874578
40
0.2281403
50
299.0485543
51
300.4624141
0
ARC
8
DEFAULT_255_1_388
10
14.691286
20
70.6139796
40
0.3756797
50
300.6578578
51
322.037749
0
ARC
8
DEFAULT_255_1_388
10
14.6542382
20
70.6463266
40
0.4247956
50
321.671786
51
322.3059078
0
ARC
8
DEFAULT_255_1_388
10
14.7565945
20
70.5169267
40
0.3960488
50
276.9729088
51
328.0035579
0
ARC
8
DEFAULT_255_1_388
10
14.7254415
20
70.6834609
40
0.5652345
50
269.8358003
51
278.0581296
0
ARC
8
DEFAULT_255_1_388
10
14.6998714
20
70.767282
40
0.2274263
50
89.2017936
51
117.2852353
0
ARC
8
DEFAULT_255_1_388
10
14.7058465
20
70.7625637
40
0.2343798
50
118.0546404
51
137.4544511
0
ARC
8
DEFAULT_255_1_388
10
14.7480109
20
70.7242556
40
0.2913471
50
137.5109688
51
158.8516701
0
ARC
8
DEFAULT_255_1_388
10
14.8760209
20
70.6725902
40
0.4293804
50
158.5845496
51
170.1719753
0
ARC
8
DEFAULT_255_1_388
10
15.0076545
20
70.6464519
40
0.5635533
50
169.8378964
51
173.0563877
0
ARC
8
DEFAULT_255_1_388
10
14.4791829
20
70.7039187
40
0.4593755
50
2.9089079
51
12.88469
0
ARC
8
DEFAULT_255_1_388
10
14.6333748
20
70.7402082
40
0.3009753
50
12.6957404
51
28.6405841
0
ARC
8
DEFAULT_255_1_388
10
14.6943245
20
70.7717577
40
0.232366
50
29.016559
51
41.1492981
0
ARC
8
DEFAULT_255_1_388
10
14.7171224
20
70.791608
40
0.2021373
50
41.1646967
51
85.001362
0
ARC
8
DEFAULT_255_1_388
10
14.7035228
20
70.7089775
40
0.2857091
50
83.728216
51
90.0968824
0
LINE
8
DEFAULT_255_1_388
10
15.7710529
20
71.1193781
11
15.7710529
21
70.963965
0
LINE
8
DEFAULT_255_1_388
10
15.4656481
20
70.8302375
11
15.4656481
21
70.1363
0
LINE
8
DEFAULT_255_1_388
10
15.4656481
20
70.1363
11
15.2984887
21
70.1363
0
LINE
8
DEFAULT_255_1_388
10
15.2984887
20
70.1363
11
15.2984887
21
71.1139567
0
LINE
8
DEFAULT_255_1_388
10
15.2984887
20
71.1139567
11
15.4611303
21
71.1139567
0
LINE
8
DEFAULT_255_1_388
10
15.4611303
20
71.1139567
11
15.463841
21
71.0010112
0
ARC
8
DEFAULT_255_1_388
10
15.6960689
20
70.5073068
40
0.4627735
50
80.6751522
51
86.893806
0
ARC
8
DEFAULT_255_1_388
10
15.6892518
20
70.3981103
40
0.5721798
50
86.8046851
51
90.0423898
0
ARC
8
DEFAULT_255_1_388
10
15.6850938
20
70.6748197
40
0.2954939
50
89.2758283
51
106.6212906
0
ARC
8
DEFAULT_255_1_388
10
15.6620963
20
70.7584009
40
0.2088351
50
107.1347109
51
157.6456887
0
ARC
8
DEFAULT_255_1_388
10
15.7389025
20
70.7156908
40
0.296292
50
155.6557383
51
157.256838
0
ARC
8
DEFAULT_255_1_388
10
15.7168639
20
70.8467472
40
0.296341
50
127.8167201
51
148.6300223
0
ARC
8
DEFAULT_255_1_388
10
15.6883386
20
70.8760066
40
0.2557782
50
91.3329934
51
126.7875218
0
ARC
8
DEFAULT_255_1_388
10
15.6968774
20
70.7956718
40
0.3363561
50
89.9858247
51
92.4688453
0
ARC
8
DEFAULT_255_1_388
10
15.6978267
20
70.8265114
40
0.3055179
50
85.3587643
51
90.1624243
0
ARC
8
DEFAULT_255_1_388
10
15.7073332
20
70.9394458
40
0.1921848
50
78.4019195
51
85.4592653
0
ARC
8
DEFAULT_255_1_388
10
15.7236393
20
71.0172142
40
0.1127267
50
67.7849217
51
78.573798
0
ARC
8
DEFAULT_255_1_388
10
15.7358027
20
71.0487374
40
0.0789473
50
63.4805074
51
67.3074739
0
LINE
8
DEFAULT_255_1_388
10
16.1062753
20
71.1139567
11
16.1062753
21
70.1363
0
LINE
8
DEFAULT_255_1_388
10
16.1062753
20
70.1363
11
15.9391159
21
70.1363
0
LINE
8
DEFAULT_255_1_388
10
15.9391159
20
70.1363
11
15.9391159
21
71.1139567
0
LINE
8
DEFAULT_255_1_388
10
15.9391159
20
71.1139567
11
16.1062753
21
71.1139567
0
ARC
8
DEFAULT_255_1_388
10
16.0356521
20
71.3743428
40
0.1100948
50
161.4148232
51
180.5532607
0
ARC
8
DEFAULT_255_1_388
10
16.0216831
20
71.3781875
40
0.0956324
50
138.1830164
51
160.9307633
0
ARC
8
DEFAULT_255_1_388
10
16.0093018
20
71.3889313
40
0.0792417
50
104.6371663
51
138.0036136
0
ARC
8
DEFAULT_255_1_388
10
16.0213557
20
71.3476963
40
0.1221906
50
92.0601206
51
105.2198859
0
ARC
8
DEFAULT_255_1_388
10
16.0239921
20
71.3088583
40
0.161103
50
89.9790681
51
92.5006086
0
ARC
8
DEFAULT_255_1_388
10
16.0251097
20
71.3344998
40
0.1354654
50
78.0234649
51
90.4478111
0
ARC
8
DEFAULT_255_1_388
10
16.0354681
20
71.3810203
40
0.0878096
50
55.0521508
51
78.336297
0
ARC
8
DEFAULT_255_1_388
10
16.0411216
20
71.3905168
40
0.0767913
50
42.0506198
51
54.4508489
0
ARC
8
DEFAULT_255_1_388
10
16.0259248
20
71.3765821
40
0.0974091
50
1.7493657
51
42.1498724
0
ARC
8
DEFAULT_255_1_388
10
15.9973154
20
71.3733166
40
0.1261276
50
359.9832635
51
2.8353994
0
ARC
8
DEFAULT_255_1_388
10
16.0159564
20
71.3722412
40
0.1074916
50
342.1062453
51
0.5535864
0
ARC
8
DEFAULT_255_1_388
10
16.0319988
20
71.3678197
40
0.0908695
50
316.7110111
51
341.6513114
0
ARC
8
DEFAULT_255_1_388
10
16.039542
20
71.3610607
40
0.0807447
50
285.4398289
51
316.5320129
0
ARC
8
DEFAULT_255_1_388
10
16.0271591
20
71.4022023
40
0.1237022
50
272.3543902
51
285.8951677
0
ARC
8
DEFAULT_255_1_388
10
16.0241301
20
71.4437742
40
0.1653687
50
269.9725761
51
272.8112722
0
ARC
8
DEFAULT_255_1_388
10
16.0230353
20
71.4186727
40
0.1402709
50
258.8433431
51
270.4148607
0
ARC
8
DEFAULT_255_1_388
10
16.0129133
20
71.3696739
40
0.0902407
50
238.54281
51
259.1289544
0
ARC
8
DEFAULT_255_1_388
10
16.0052454
20
71.3557694
40
0.0743817
50
222.5056676
51
237.9918132
0
ARC
8
DEFAULT_255_1_388
10
16.0196048
20
71.3688295
40
0.0937918
50
184.1070774
51
222.4604165
0
ARC
8
DEFAULT_255_1_388
10
16.0498461
20
71.3731538
40
0.1242838
50
179.9419581
51
185.0970785
0
LINE
8
DEFAULT_255_1_388
10
16.3312628
20
70.5980214
11
16.3312628
21
70.6287426
0
LINE
8
DEFAULT_255_1_388
10
17.160735
20
70.6468139
11
17.160735
21
70.5772395
0
LINE
8
DEFAULT_255_1_388
10
17.160735
20
70.5772395
11
16.4984223
21
70.5772395
0
LINE
8
DEFAULT_255_1_388
10
17.0459823
20
70.3865874
11
17.1480851
21
70.3070737
0
LINE
8
DEFAULT_255_1_388
10
16.5038437
20
70.7145813
11
16.9935756
21
70.7145813
0
LINE
8
DEFAULT_255_1_388
10
16.9935756
20
70.7145813
11
16.9935756
21
70.7272312
0
ARC
8
DEFAULT_255_1_388
10
16.7744389
20
70.610521
40
0.4923176
50
252.326534
51
270.5809615
0
ARC
8
DEFAULT_255_1_388
10
16.7513854
20
70.527194
40
0.4059384
50
223.3000488
51
251.8562489
0
ARC
8
DEFAULT_255_1_388
10
16.7751634
20
70.5502898
40
0.4390832
50
190.9374369
51
223.3654369
0
ARC
8
DEFAULT_255_1_388
10
16.9692312
20
70.5941598
40
0.63798
50
179.6531919
51
191.4988561
0
ARC
8
DEFAULT_255_1_388
10
16.9829339
20
70.6323571
40
0.6516811
50
167.4005523
51
180.3177836
0
ARC
8
DEFAULT_255_1_388
10
16.864601
20
70.6573853
40
0.5307402
50
154.1835149
51
167.2508278
0
ARC
8
DEFAULT_255_1_388
10
16.7935601
20
70.6947925
40
0.4505076
50
134.3150225
51
154.5315008
0
ARC
8
DEFAULT_255_1_388
10
16.7690936
20
70.716255
40
0.4180662
50
122.8617482
51
133.9707159
0
ARC
8
DEFAULT_255_1_388
10
16.7574543
20
70.7412882
40
0.3907416
50
89.8248474
51
123.4199325
0
ARC
8
DEFAULT_255_1_388
10
16.7630841
20
70.6685352
40
0.4635141
50
74.7874349
51
90.5482648
0
ARC
8
DEFAULT_255_1_388
10
16.7961305
20
70.7905987
40
0.3370565
50
39.8178888
51
74.7634383
0
ARC
8
DEFAULT_255_1_388
10
16.7384547
20
70.7456356
40
0.4101553
50
16.8990848
51
39.4830125
0
ARC
8
DEFAULT_255_1_388
10
16.5253162
20
70.6773711
40
0.6339427
50
4.9634768
51
17.2027767
0
ARC
8
DEFAULT_255_1_388
10
16.2532567
20
70.64866
40
0.9074803
50
359.8834402
51
5.2832409
0
ARC
8
DEFAULT_255_1_388
10
16.9324924
20
70.5846981
40
0.4341343
50
180.9844233
51
194.9402766
0
ARC
8
DEFAULT_255_1_388
10
16.814409
20
70.552417
40
0.3117211
50
194.8030557
51
222.0412897
0
ARC
8
DEFAULT_255_1_388
10
16.7801962
20
70.5184715
40
0.2635903
50
221.541578
51
268.8616004
0
ARC
8
DEFAULT_255_1_388
10
16.7884083
20
70.594528
40
0.3398611
50
267.7321071
51
270.009808
0
ARC
8
DEFAULT_255_1_388
10
16.7904146
20
70.6172178
40
0.3625561
50
269.6921218
51
280.4122297
0
ARC
8
DEFAULT_255_1_388
10
16.8102558
20
70.5138767
40
0.2573323
50
280.2257165
51
298.633539
0
ARC
8
DEFAULT_255_1_388
10
16.8227972
20
70.4874578
40
0.2281403
50
299.0485543
51
300.4624141
0
ARC
8
DEFAULT_255_1_388
10
16.7468952
20
70.6139796
40
0.3756797
50
300.6578578
51
322.037749
0
ARC
8
DEFAULT_255_1_388
10
16.7098473
20
70.6463266
40
0.4247956
50
321.671786
51
322.3059078
0
ARC
8
DEFAULT_255_1_388
10
16.8122036
20
70.5169267
40
0.3960488
50
276.9729088
51
328.0035579
0
ARC
8
DEFAULT_255_1_388
10
16.7810507
20
70.6834609
40
0.5652345
50
269.8358003
51
278.0581296
0
ARC
8
DEFAULT_255_1_388
10
16.7554806
20
70.767282
40
0.2274263
50
89.2017936
51
117.2852353
0
ARC
8
DEFAULT_255_1_388
10
16.7614556
20
70.7625637
40
0.2343798
50
118.0546404
51
137.4544511
0
ARC
8
DEFAULT_255_1_388
10
16.80362
20
70.7242556
40
0.2913471
50
137.5109688
51
158.8516701
0
ARC
8
DEFAULT_255_1_388
10
16.9316301
20
70.6725902
40
0.4293804
50
158.5845496
51
170.1719753
0
ARC
8
DEFAULT_255_1_388
10
17.0632636
20
70.6464519
40
0.5635533
50
169.8378964
51
173.0563877
0
ARC
8
DEFAULT_255_1_388
10
16.534792
20
70.7039187
40
0.4593755
50
2.9089079
51
12.88469
0
ARC
8
DEFAULT_255_1_388
10
16.6889839
20
70.7402082
40
0.3009753
50
12.6957404
51
28.6405841
0
ARC
8
DEFAULT_255_1_388
10
16.7499336
20
70.7717577
40
0.232366
50
29.016559
51
41.1492981
0
ARC
8
DEFAULT_255_1_388
10
16.7727315
20
70.791608
40
0.2021373
50
41.1646967
51
85.001362
0
ARC
8
DEFAULT_255_1_388
10
16.7591319
20
70.7089775
40
0.2857091
50
83.728216
51
90.0968824
0
LINE
8
DEFAULT_255_1_388
10
18.0814672
20
70.8266232
11
17.9134042
21
70.8266232
0
LINE
8
DEFAULT_255_1_388
10
17.3134374
20
70.437187
11
17.4805968
21
70.437187
0
ARC
8
DEFAULT_255_1_388
10
17.7797333
20
70.3972935
40
0.1436198
50
359.3335374
51
18.5869869
0
ARC
8
DEFAULT_255_1_388
10
17.8032072
20
70.4035015
40
0.1194022
50
19.3538149
51
54.6486387
0
ARC
8
DEFAULT_255_1_388
10
17.746506
20
70.3253077
40
0.2159877
50
54.3821575
51
65.0627557
0
ARC
8
DEFAULT_255_1_388
10
17.6600407
20
70.1434032
40
0.4173927
50
64.8282172
51
71.4204388
0
ARC
8
DEFAULT_255_1_388
10
17.5585302
20
69.8455782
40
0.7320403
50
71.3166092
51
75.8005927
0
ARC
8
DEFAULT_255_1_388
10
17.4639188
20
69.4810881
40
1.108605
50
75.6810806
51
78.0063886
0
ARC
8
DEFAULT_255_1_388
10
17.9643777
20
71.841253
40
1.3040363
50
254.69024
51
258.0465557
0
ARC
8
DEFAULT_255_1_388
10
17.8475646
20
71.4182742
40
0.8652254
50
249.9010634
51
254.7555005
0
ARC
8
DEFAULT_255_1_388
10
17.7346698
20
71.111668
40
0.5384962
50
243.3097375
51
249.970939
0
ARC
8
DEFAULT_255_1_388
10
17.6639112
20
70.9705721
40
0.380652
50
234.4047808
51
243.2861752
0
ARC
8
DEFAULT_255_1_388
10
17.5938748
20
70.8738645
40
0.2612502
50
220.8665526
51
234.5497192
0
ARC
8
DEFAULT_255_1_388
10
17.5553746
20
70.8388203
40
0.2092097
50
214.3063391
51
220.5075055
0
ARC
8
DEFAULT_255_1_388
10
17.552486
20
70.8353577
40
0.2048755
50
186.9131438
51
213.9617385
0
ARC
8
DEFAULT_255_1_388
10
17.612325
20
70.8450431
40
0.2654563
50
179.8802037
51
187.4338578
0
ARC
8
DEFAULT_255_1_388
10
17.5949215
20
70.8473049
40
0.2480581
50
132.0053393
51
180.3942351
0
ARC
8
DEFAULT_255_1_388
10
17.6688128
20
70.7790997
40
0.3483116
50
129.2317021
51
133.5294826
0
ARC
8
DEFAULT_255_1_388
10
17.6748097
20
70.7685383
40
0.360291
50
100.440976
51
128.9081567
0
ARC
8
DEFAULT_255_1_388
10
17.7056214
20
70.6239357
40
0.5080996
50
89.6985063
51
100.9029043
0
ARC
8
DEFAULT_255_1_388
10
17.7120369
20
70.6058739
40
0.5261675
50
77.6967144
51
90.4074623
0
ARC
8
DEFAULT_255_1_388
10
17.7492721
20
70.7664503
40
0.3613511
50
50.7278431
51
78.0397473
0
ARC
8
DEFAULT_255_1_388
10
17.7992764
20
70.8247173
40
0.2845966
50
25.754382
51
51.0957456
0
ARC
8
DEFAULT_255_1_388
10
17.7994131
20
70.8303311
40
0.2820785
50
359.2468358
51
24.7393861
0
ARC
8
DEFAULT_255_1_388
10
17.7674019
20
70.8271204
40
0.1460032
50
359.8048924
51
45.1543866
0
ARC
8
DEFAULT_255_1_388
10
17.7215752
20
70.7879291
40
0.2061641
50
43.8053172
51
49.625485
0
ARC
8
DEFAULT_255_1_388
10
17.7225195
20
70.7880849
40
0.2054344
50
49.7979696
51
82.121802
0
ARC
8
DEFAULT_255_1_388
10
17.7091278
20
70.7153473
40
0.2793404
50
81.4458692
51
90.1707936
0
ARC
8
DEFAULT_255_1_388
10
17.7063854
20
70.6561478
40
0.3385438
50
89.6768097
51
99.1267111
0
ARC
8
DEFAULT_255_1_388
10
17.6870836
20
70.7724405
40
0.2206627
50
98.9679878
51
113.4573418
0
ARC
8
DEFAULT_255_1_388
10
17.6650517
20
70.8251193
40
0.1635691
50
113.7230234
51
127.4758155
0
ARC
8
DEFAULT_255_1_388
10
17.6461099
20
70.8476433
40
0.1341757
50
126.9086647
51
150.3160891
0
ARC
8
DEFAULT_255_1_388
10
17.640743
20
70.853368
40
0.1266992
50
151.363328
51
180.0701537
0
ARC
8
DEFAULT_255_1_388
10
17.6717651
20
70.851023
40
0.1577364
50
179.2045432
51
180.0012892
0
ARC
8
DEFAULT_255_1_388
10
17.6348762
20
70.8495515
40
0.1208564
50
179.3040542
51
198.4225767
0
ARC
8
DEFAULT_255_1_388
10
17.6132904
20
70.8439337
40
0.0986126
50
199.2893055
51
238.6036855
0
ARC
8
DEFAULT_255_1_388
10
17.6810997
20
70.9503752
40
0.2248082
50
237.9844191
51
246.8751643
0
ARC
8
DEFAULT_255_1_388
10
17.7775857
20
71.1710861
40
0.4656832
50
246.6226408
51
251.8174794
0
ARC
8
DEFAULT_255_1_388
10
17.8936324
20
71.5195909
40
0.8329993
50
251.7140983
51
255.0775146
0
ARC
8
DEFAULT_255_1_388
10
18.0285848
20
72.0222708
40
1.3534786
50
255.0370864
51
257.4701577
0
ARC
8
DEFAULT_255_1_388
10
17.4538393
20
69.4328535
40
1.298957
50
73.6835762
51
77.5015749
0
ARC
8
DEFAULT_255_1_388
10
17.5763307
20
69.8490699
40
0.8650912
50
68.7042835
51
73.7249997
0
ARC
8
DEFAULT_255_1_388
10
17.6778871
20
70.1107853
40
0.584363
50
63.5907059
51
68.6622978
0
ARC
8
DEFAULT_255_1_388
10
17.7646613
20
70.2838157
40
0.3907955
50
54.7106507
51
63.7018033
0
ARC
8
DEFAULT_255_1_388
10
17.8349
20
70.3819287
40
0.2701345
50
41.0624597
51
54.8488532
0
ARC
8
DEFAULT_255_1_388
10
17.8732779
20
70.4171439
40
0.2180695
50
34.4952722
51
40.7097584
0
ARC
8
DEFAULT_255_1_388
10
17.8785744
20
70.4226204
40
0.2106083
50
9.3761233
51
34.0834046
0
ARC
8
DEFAULT_255_1_388
10
17.8050872
20
70.4085174
40
0.2854177
50
359.7695264
51
9.7660556
0
ARC
8
DEFAULT_255_1_388
10
17.8273166
20
70.4036841
40
0.2632121
50
335.8653103
51
0.8022272
0
ARC
8
DEFAULT_255_1_388
10
17.8357571
20
70.4051951
40
0.2561728
50
307.7357819
51
334.7849324
0
ARC
8
DEFAULT_255_1_388
10
17.7912212
20
70.4551553
40
0.3229737
50
307.0217048
51
308.5596894
0
ARC
8
DEFAULT_255_1_388
10
17.7616796
20
70.4993063
40
0.3760237
50
282.9361285
51
306.5649033
0
ARC
8
DEFAULT_255_1_388
10
17.7209858
20
70.6643871
40
0.5460314
50
271.1026197
51
283.2199962
0
ARC
8
DEFAULT_255_1_388
10
17.7138047
20
70.8044744
40
0.6862456
50
269.9926344
51
271.4770056
0
ARC
8
DEFAULT_255_1_388
10
17.7108617
20
70.6827633
40
0.5645418
50
259.0723633
51
270.2897324
0
ARC
8
DEFAULT_255_1_388
10
17.6869841
20
70.5570887
40
0.4366198
50
245.4965026
51
259.0225745
0
ARC
8
DEFAULT_255_1_388
10
17.6557058
20
70.4916491
40
0.3641037
50
228.9686619
51
245.7042678
0
ARC
8
DEFAULT_255_1_388
10
17.6258333
20
70.4548573
40
0.3167435
50
214.4015391
51
228.6759028
0
ARC
8
DEFAULT_255_1_388
10
17.593283
20
70.4370429
40
0.2798456
50
179.9704983
51
215.1574389
0
ARC
8
DEFAULT_255_1_388
10
17.6721042
20
70.4453148
40
0.1916798
50
182.430239
51
203.0329751
0
ARC
8
DEFAULT_255_1_388
10
17.6513638
20
70.4389675
40
0.1701248
50
203.7987464
51
232.5483345
0
ARC
8
DEFAULT_255_1_388
10
17.6824723
20
70.4785049
40
0.2204299
50
232.3784541
51
256.3934343
0
ARC
8
DEFAULT_255_1_388
10
17.708387
20
70.5786359
40
0.3238512
50
256.1048329
51
268.4627478
0
ARC
8
DEFAULT_255_1_388
10
17.7136289
20
70.6690297
40
0.4143627
50
268.0734924
51
270.0121004
0
ARC
8
DEFAULT_255_1_388
10
17.7157008
20
70.6376191
40
0.3829573
50
269.7031202
51
278.8338867
0
ARC
8
DEFAULT_255_1_388
10
17.7361872
20
70.5104553
40
0.2541568
50
278.6727378
51
292.82331
0
ARC
8
DEFAULT_255_1_388
10
17.7587418
20
70.4540546
40
0.1934264
50
293.1457581
51
303.6656964
0
ARC
8
DEFAULT_255_1_388
10
17.7885492
20
70.4117159
40
0.1416713
50
303.1245849
51
321.7434683
0
ARC
8
DEFAULT_255_1_388
10
17.8094573
20
70.393378
40
0.1139081
50
322.4747616
51
1.1293039
0
LINE
8
DEFAULT_255_2_778
10
9.3932417
20
60.721908
11
10.7161417
21
60.721908
0
LINE
8
DEFAULT_255_2_778
10
10.7161417
20
60.721908
11
10.7161417
21
35.586508
0
LINE
8
DEFAULT_255_2_778
10
9.3932834
20
35.5864333
11
12.0390834
21
35.5864333
0
LINE
8
DEFAULT_255_2_778
10
12.0390834
20
35.5864333
11
12.0390834
21
30.2947333
0
LINE
8
DEFAULT_255_2_778
10
12.0390834
20
30.2947333
11
9.3932834
21
30.2947333
0
LINE
8
DEFAULT_255_2_778
10
9.3932834
20
30.2947333
11
9.3932834
21
35.5864333
0
ARC
8
DEFAULT_255_2_778_1
10
13.1928591
20
30.397177
40
4.816461
50
120.9442904
51
122.351755
0
ARC
8
DEFAULT_255_2_778_1
10
12.7462523
20
31.1008039
40
3.9830657
50
122.3407904
51
124.1946752
0
ARC
8
DEFAULT_255_2_778_1
10
12.3063464
20
31.7473306
40
3.2010724
50
124.1855758
51
126.4338849
0
ARC
8
DEFAULT_255_2_778_1
10
11.9204129
20
32.2700611
40
2.5513094
50
126.4326926
51
128.8877368
0
ARC
8
DEFAULT_255_2_778_1
10
11.5855968
20
32.6844658
40
2.0185498
50
128.8749205
51
131.8726567
0
ARC
8
DEFAULT_255_2_778_1
10
11.2884677
20
33.0154854
40
1.5737356
50
131.8616166
51
135.4168838
0
ARC
8
DEFAULT_255_2_778_1
10
11.025668
20
33.2736765
40
1.2053256
50
135.3893975
51
139.9687014
0
ARC
8
DEFAULT_255_2_778_1
10
10.7927889
20
33.4685102
40
0.9016937
50
139.9301659
51
145.9260426
0
ARC
8
DEFAULT_255_2_778_1
10
10.596654
20
33.6005104
40
0.6652776
50
145.8787362
51
153.8146208
0
ARC
8
DEFAULT_255_2_778_1
10
10.4445553
20
33.6748797
40
0.4959714
50
153.770634
51
164.3484794
0
ARC
8
DEFAULT_255_2_778_1
10
10.3432387
20
33.7030786
40
0.3908039
50
164.3220276
51
179.8083066
0
ARC
8
DEFAULT_255_2_778_1
10
10.3642789
20
33.711215
40
0.4118985
50
180.9499449
51
213.8111542
0
ARC
8
DEFAULT_255_2_778_1
10
10.6401828
20
33.8807896
40
0.73561
50
212.8271214
51
224.258472
0
ARC
8
DEFAULT_255_2_778_1
10
11.0230335
20
34.2501236
40
1.267567
50
224.1376218
51
231.4508261
0
ARC
8
DEFAULT_255_2_778_1
10
11.6657195
20
35.0531168
40
2.2960809
50
231.3955893
51
236.1256478
0
ARC
8
DEFAULT_255_2_778_1
10
13.4980223
20
37.7996293
40
5.5976905
50
236.2233172
51
239.1314682
0
ARC
8
DEFAULT_255_2_778_1
10
25.447927
20
57.5273568
40
28.6623793
50
238.8606853
51
239.0711101
0
ARC
8
DEFAULT_255_2_778_1
10
6.2757281
20
25.4302653
40
8.7248518
50
57.2420924
51
59.4062964
0
ARC
8
DEFAULT_255_2_778_1
10
9.5034241
20
30.4612102
40
2.747542
50
52.8289294
51
57.079028
0
ARC
8
DEFAULT_255_2_778_1
10
10.2780783
20
31.4815488
40
1.466457
50
46.3041868
51
52.8596521
0
ARC
8
DEFAULT_255_2_778_1
10
10.7103073
20
31.9316842
40
0.8424061
50
36.2174211
51
46.4090895
0
ARC
8
DEFAULT_255_2_778_1
10
10.9948088
20
32.1365128
40
0.4918609
50
17.400375
51
36.5489745
0
ARC
8
DEFAULT_255_2_778_1
10
11.1088994
20
32.1763754
40
0.3710912
50
0.0676858
51
16.7951297
0
ARC
8
DEFAULT_255_2_778_1
10
11.0878613
20
32.1782428
40
0.3921317
50
343.8035191
51
359.7912046
0
ARC
8
DEFAULT_255_2_778_1
10
10.9815912
20
32.2087167
40
0.5026844
50
333.2506233
51
343.8465691
0
ARC
8
DEFAULT_255_2_778_1
10
10.8277757
20
32.2854313
40
0.6745679
50
325.6600948
51
333.3122657
0
ARC
8
DEFAULT_255_2_778_1
10
10.6323344
20
32.4182296
40
0.9108568
50
319.7560915
51
325.6976089
0
ARC
8
DEFAULT_255_2_778_1
10
10.404199
20
32.6100002
40
1.2088854
50
315.4577584
51
319.8037947
0
ARC
8
DEFAULT_255_2_778_1
10
10.1408127
20
32.8688507
40
1.5781764
50
311.7298824
51
315.4670864
0
ARC
8
DEFAULT_255_2_778_1
10
9.8317879
20
33.2144074
40
2.0417554
50
308.723055
51
311.7470879
0
ARC
8
DEFAULT_255_2_778_1
10
9.477589
20
33.6556492
40
2.6075745
50
306.1165163
51
308.7300151
0
ARC
8
DEFAULT_255_2_778_1
10
9.0746091
20
34.2069523
40
3.2904564
50
303.9559446
51
306.1266333
0
ARC
8
DEFAULT_255_2_778_1
10
8.6630432
20
34.816215
40
4.0257023
50
302.3733397
51
303.9712246
0
ARC
8
DEFAULT_255_2_778_1
10
8.2434347
20
35.4777058
40
4.8090549
50
300.9434827
51
302.3758078
0
LINE
8
DEFAULT_255_2_778
10
10.7161417
20
30.294808
11
10.7161417
21
5.159408
0
LINE
8
DEFAULT_255_2_778
10
10.7161417
20
5.159408
11
9.3932417
21
5.159408
0
LINE
8
DEFAULT_255_1_388
10
4.8809318
20
68.2883382
11
4.8809318
21
68.1519
0
LINE
8
DEFAULT_255_1_388
10
4.8809318
20
68.1519
11
4.0189313
21
68.1519
0
LINE
8
DEFAULT_255_1_388
10
4.0189313
20
68.1519
11
4.0189313
21
68.2720741
0
LINE
8
DEFAULT_255_1_388
10
4.0189313
20
68.2720741
11
4.4743278
21
68.7780702
0
LINE
8
DEFAULT_255_1_388
10
4.1607909
20
69.0798607
11
3.9936315
21
69.0798607
0
LINE
8
DEFAULT_255_1_388
10
4.5728163
20
68.670546
11
4.2204262
21
68.2883382
0
LINE
8
DEFAULT_255_1_388
10
4.2204262
20
68.2883382
11
4.8809318
21
68.2883382
0
ARC
8
DEFAULT_255_1_388
10
2.9567337
20
70.1200983
40
2.0258655
50
318.5132526
51
320.7829045
0
ARC
8
DEFAULT_255_1_388
10
3.5515294
20
69.6359929
40
1.2589638
50
320.7372878
51
323.9739031
0
ARC
8
DEFAULT_255_1_388
10
3.9924226
20
69.3165554
40
0.7145141
50
323.8962701
51
328.64194
0
ARC
8
DEFAULT_255_1_388
10
4.2226484
20
69.1745545
40
0.4440242
50
328.8294576
51
331.7891185
0
ARC
8
DEFAULT_255_1_388
10
4.3348804
20
69.1166374
40
0.3177517
50
331.4254512
51
352.9365785
0
ARC
8
DEFAULT_255_1_388
10
4.3501804
20
69.113205
40
0.3021496
50
353.2257659
51
0.0166158
0
ARC
8
DEFAULT_255_1_388
10
4.3738564
20
69.1157894
40
0.2784847
50
359.486299
51
15.9343185
0
ARC
8
DEFAULT_255_1_388
10
4.4308831
20
69.1311269
40
0.2194403
50
16.1712913
51
43.5286088
0
ARC
8
DEFAULT_255_1_388
10
4.4395776
20
69.1398191
40
0.2071504
50
43.4417391
51
83.1661095
0
ARC
8
DEFAULT_255_1_388
10
4.4244937
20
69.0569316
40
0.2912888
50
82.160179
51
90.1505708
0
ARC
8
DEFAULT_255_1_388
10
4.4209418
20
68.9965279
40
0.3517025
50
89.5460741
51
102.5418361
0
ARC
8
DEFAULT_255_1_388
10
4.3936138
20
69.1124933
40
0.2325748
50
102.1738499
51
129.206123
0
ARC
8
DEFAULT_255_1_388
10
4.3847592
20
69.1264664
40
0.2161591
50
129.72865
51
135.753947
0
ARC
8
DEFAULT_255_1_388
10
4.3984074
20
69.1155728
40
0.2335433
50
136.1757367
51
166.3673339
0
ARC
8
DEFAULT_255_1_388
10
4.5116762
20
69.0852148
40
0.3507873
50
165.9090694
51
178.8684636
0
ARC
8
DEFAULT_255_1_388
10
4.6092534
20
69.0799263
40
0.4484624
50
178.4391136
51
180.0083808
0
ARC
8
DEFAULT_255_1_388
10
4.4513235
20
69.0843197
40
0.4577138
50
163.2878482
51
180.5581842
0
ARC
8
DEFAULT_255_1_388
10
4.3611276
20
69.1091393
40
0.3641968
50
133.4540601
51
162.947111
0
ARC
8
DEFAULT_255_1_388
10
4.3812158
20
69.0877789
40
0.3935189
50
100.7869829
51
133.4382499
0
ARC
8
DEFAULT_255_1_388
10
4.4203403
20
68.9135399
40
0.5720313
50
89.660664
51
101.3702276
0
ARC
8
DEFAULT_255_1_388
10
4.4278012
20
68.9204263
40
0.5651495
50
78.2172678
51
90.412935
0
ARC
8
DEFAULT_255_1_388
10
4.4677478
20
69.1031511
40
0.378122
50
55.9269121
51
78.4888449
0
ARC
8
DEFAULT_255_1_388
10
4.4898193
20
69.1412187
40
0.3342379
50
47.929771
51
55.4049217
0
ARC
8
DEFAULT_255_1_388
10
4.5012723
20
69.1528618
40
0.3179217
50
4.334829
51
48.0560205
0
ARC
8
DEFAULT_255_1_388
10
4.3780525
20
69.1337487
40
0.442341
50
359.9251713
51
5.5971671
0
ARC
8
DEFAULT_255_1_388
10
4.426268
20
69.1400728
40
0.3941854
50
337.8914027
51
358.9967534
0
ARC
8
DEFAULT_255_1_388
10
4.121025
20
69.2578295
40
0.7213271
50
326.9132501
51
338.3508308
0
ARC
8
DEFAULT_255_1_388
10
3.6726362
20
69.5452105
40
1.2538973
50
319.6471833
51
327.0959558
0
ARC
8
DEFAULT_255_1_388
10
3.241302
20
69.901005
40
1.8129975
50
317.2588228
51
319.9045804
0
LINE
8
DEFAULT_255_1_388
10
5.7637143
20
69.4674898
11
5.7637143
21
68.593743
0
LINE
8
DEFAULT_255_1_388
10
5.7637143
20
68.593743
11
5.9462343
21
68.593743
0
LINE
8
DEFAULT_255_1_388
10
5.9462343
20
68.593743
11
5.9462343
21
68.4573048
0
LINE
8
DEFAULT_255_1_388
10
5.9462343
20
68.4573048
11
5.7637143
21
68.4573048
0
LINE
8
DEFAULT_255_1_388
10
5.7637143
20
68.4573048
11
5.7637143
21
68.1519
0
LINE
8
DEFAULT_255_1_388
10
5.7637143
20
68.1519
11
5.5956513
21
68.1519
0
LINE
8
DEFAULT_255_1_388
10
5.5956513
20
68.1519
11
5.5956513
21
68.4573048
0
LINE
8
DEFAULT_255_1_388
10
5.5956513
20
68.4573048
11
4.996588
21
68.4573048
0
LINE
8
DEFAULT_255_1_388
10
4.996588
20
68.4573048
11
4.996588
21
68.5557933
0
LINE
8
DEFAULT_255_1_388
10
4.996588
20
68.5557933
11
5.5857121
21
69.4674898
0
LINE
8
DEFAULT_255_1_388
10
5.5857121
20
69.4674898
11
5.7637143
21
69.4674898
0
LINE
8
DEFAULT_255_1_388
10
5.5757729
20
69.2027455
11
5.1863366
21
68.593743
0
LINE
8
DEFAULT_255_1_388
10
5.1863366
20
68.593743
11
5.5956513
21
68.593743
0
LINE
8
DEFAULT_255_1_388
10
5.5956513
20
68.593743
11
5.5956513
21
69.238888
0
LINE
8
DEFAULT_255_1_388
10
5.5956513
20
69.238888
11
5.5757729
21
69.2027455
0
LINE
8
DEFAULT_255_1_388
10
6.201943
20
69.4674898
11
6.5760187
21
68.3823089
0
LINE
8
DEFAULT_255_1_388
10
6.5760187
20
68.3823089
11
6.9519015
21
69.4674898
0
LINE
8
DEFAULT_255_1_388
10
6.9519015
20
69.4674898
11
7.14165
21
69.4674898
0
LINE
8
DEFAULT_255_1_388
10
7.14165
20
69.4674898
11
6.6537252
21
68.1519
0
LINE
8
DEFAULT_255_1_388
10
6.6537252
20
68.1519
11
6.5001193
21
68.1519
0
LINE
8
DEFAULT_255_1_388
10
6.5001193
20
68.1519
11
6.013098
21
69.4674898
0
LINE
8
DEFAULT_255_1_388
10
6.013098
20
69.4674898
11
6.201943
21
69.4674898
0
LINE
8
DEFAULT_255_1_388
10
4.3168367
20
5.9674898
11
4.3168367
21
4.6519
0
LINE
8
DEFAULT_255_1_388
10
4.3168367
20
4.6519
11
4.1433523
21
4.6519
0
LINE
8
DEFAULT_255_1_388
10
4.1433523
20
4.6519
11
4.1433523
21
5.9674898
0
LINE
8
DEFAULT_255_1_388
10
4.1433523
20
5.9674898
11
4.3168367
21
5.9674898
0
LINE
8
DEFAULT_255_1_388
10
5.2963005
20
5.9674898
11
5.2963005
21
5.093743
0
LINE
8
DEFAULT_255_1_388
10
5.2963005
20
5.093743
11
5.4788206
21
5.093743
0
LINE
8
DEFAULT_255_1_388
10
5.4788206
20
5.093743
11
5.4788206
21
4.9573048
0
LINE
8
DEFAULT_255_1_388
10
5.4788206
20
4.9573048
11
5.2963005
21
4.9573048
0
LINE
8
DEFAULT_255_1_388
10
5.2963005
20
4.9573048
11
5.2963005
21
4.6519
0
LINE
8
DEFAULT_255_1_388
10
5.2963005
20
4.6519
11
5.1282375
21
4.6519
0
LINE
8
DEFAULT_255_1_388
10
5.1282375
20
4.6519
11
5.1282375
21
4.9573048
0
LINE
8
DEFAULT_255_1_388
10
5.1282375
20
4.9573048
11
4.5291743
21
4.9573048
0
LINE
8
DEFAULT_255_1_388
10
4.5291743
20
4.9573048
11
4.5291743
21
5.0557933
0
LINE
8
DEFAULT_255_1_388
10
4.5291743
20
5.0557933
11
5.1182983
21
5.9674898
0
LINE
8
DEFAULT_255_1_388
10
5.1182983
20
5.9674898
11
5.2963005
21
5.9674898
0
LINE
8
DEFAULT_255_1_388
10
5.1083591
20
5.7027455
11
4.7189229
21
5.093743
0
LINE
8
DEFAULT_255_1_388
10
4.7189229
20
5.093743
11
5.1282375
21
5.093743
0
LINE
8
DEFAULT_255_1_388
10
5.1282375
20
5.093743
11
5.1282375
21
5.738888
0
LINE
8
DEFAULT_255_1_388
10
5.1282375
20
5.738888
11
5.1083591
21
5.7027455
0
LINE
8
DEFAULT_255_1_388
10
5.9947559
20
5.2789737
11
5.9947559
21
5.1425355
0
LINE
8
DEFAULT_255_1_388
10
5.9947559
20
5.1425355
11
5.5538164
21
5.1425355
0
LINE
8
DEFAULT_255_1_388
10
5.5538164
20
5.1425355
11
5.5538164
21
5.2789737
0
LINE
8
DEFAULT_255_1_388
10
5.5538164
20
5.2789737
11
5.9947559
21
5.2789737
0
LINE
8
DEFAULT_255_1_388
10
4.1804367
20
13.9049898
11
4.1804367
21
12.5894
0
LINE
8
DEFAULT_255_1_388
10
4.1804367
20
12.5894
11
4.0069523
21
12.5894
0
LINE
8
DEFAULT_255_1_388
10
4.0069523
20
12.5894
11
4.0069523
21
13.9049898
0
LINE
8
DEFAULT_255_1_388
10
4.0069523
20
13.9049898
11
4.1804367
21
13.9049898
0
LINE
8
DEFAULT_255_1_388
10
5.1599005
20
13.9049898
11
5.1599005
21
13.031243
0
LINE
8
DEFAULT_255_1_388
10
5.1599005
20
13.031243
11
5.3424206
21
13.031243
0
LINE
8
DEFAULT_255_1_388
10
5.3424206
20
13.031243
11
5.3424206
21
12.8948048
0
LINE
8
DEFAULT_255_1_388
10
5.3424206
20
12.8948048
11
5.1599005
21
12.8948048
0
LINE
8
DEFAULT_255_1_388
10
5.1599005
20
12.8948048
11
5.1599005
21
12.5894
0
LINE
8
DEFAULT_255_1_388
10
5.1599005
20
12.5894
11
4.9918375
21
12.5894
0
LINE
8
DEFAULT_255_1_388
10
4.9918375
20
12.5894
11
4.9918375
21
12.8948048
0
LINE
8
DEFAULT_255_1_388
10
4.9918375
20
12.8948048
11
4.3927743
21
12.8948048
0
LINE
8
DEFAULT_255_1_388
10
4.3927743
20
12.8948048
11
4.3927743
21
12.9932933
0
LINE
8
DEFAULT_255_1_388
10
4.3927743
20
12.9932933
11
4.9818983
21
13.9049898
0
LINE
8
DEFAULT_255_1_388
10
4.9818983
20
13.9049898
11
5.1599005
21
13.9049898
0
LINE
8
DEFAULT_255_1_388
10
4.9719591
20
13.6402455
11
4.5825229
21
13.031243
0
LINE
8
DEFAULT_255_1_388
10
4.5825229
20
13.031243
11
4.9918375
21
13.031243
0
LINE
8
DEFAULT_255_1_388
10
4.9918375
20
13.031243
11
4.9918375
21
13.676388
0
LINE
8
DEFAULT_255_1_388
10
4.9918375
20
13.676388
11
4.9719591
21
13.6402455
0
LINE
8
DEFAULT_255_1_388
10
5.9893727
20
13.6790987
11
5.9893727
21
13.2950838
0
LINE
8
DEFAULT_255_1_388
10
5.9893727
20
13.2950838
11
6.3562199
21
13.2950838
0
LINE
8
DEFAULT_255_1_388
10
6.3562199
20
13.2950838
11
6.3562199
21
13.1369601
0
LINE
8
DEFAULT_255_1_388
10
6.3562199
20
13.1369601
11
5.9893727
21
13.1369601
0
LINE
8
DEFAULT_255_1_388
10
5.9893727
20
13.1369601
11
5.9893727
21
12.7213204
0
LINE
8
DEFAULT_255_1_388
10
5.9893727
20
12.7213204
11
5.8213097
21
12.7213204
0
LINE
8
DEFAULT_255_1_388
10
5.8213097
20
12.7213204
11
5.8213097
21
13.1369601
0
LINE
8
DEFAULT_255_1_388
10
5.8213097
20
13.1369601
11
5.4544625
21
13.1369601
0
LINE
8
DEFAULT_255_1_388
10
5.4544625
20
13.1369601
11
5.4544625
21
13.2950838
0
LINE
8
DEFAULT_255_1_388
10
5.4544625
20
13.2950838
11
5.8213097
21
13.2950838
0
LINE
8
DEFAULT_255_1_388
10
5.8213097
20
13.2950838
11
5.8213097
21
13.6790987
0
LINE
8
DEFAULT_255_1_388
10
5.8213097
20
13.6790987
11
5.9893727
21
13.6790987
0
LINE
8
DEFAULT_255_1_388
10
4.3168367
20
21.8424898
11
4.3168367
21
20.5269
0
LINE
8
DEFAULT_255_1_388
10
4.3168367
20
20.5269
11
4.1433523
21
20.5269
0
LINE
8
DEFAULT_255_1_388
10
4.1433523
20
20.5269
11
4.1433523
21
21.8424898
0
LINE
8
DEFAULT_255_1_388
10
4.1433523
20
21.8424898
11
4.3168367
21
21.8424898
0
LINE
8
DEFAULT_255_1_388
10
4.8336755
20
21.1295775
11
4.8336755
21
21.2660157
0
LINE
8
DEFAULT_255_1_388
10
4.8336755
20
21.2660157
11
4.959271
21
21.2660157
0
LINE
8
DEFAULT_255_1_388
10
4.7451262
20
21.4973282
11
4.5779668
21
21.4973282
0
LINE
8
DEFAULT_255_1_388
10
4.5662205
20
20.8738687
11
4.7342834
21
20.8738687
0
LINE
8
DEFAULT_255_1_388
10
4.959271
20
21.1295775
11
4.8336755
21
21.1295775
0
ARC
8
DEFAULT_255_1_388
10
4.9559936
20
21.6476922
40
0.3816905
50
270.491971
51
281.8953028
0
ARC
8
DEFAULT_255_1_388
10
4.9831363
20
21.5237199
40
0.2547877
50
281.6690378
51
301.2943765
0
ARC
8
DEFAULT_255_1_388
10
5.0022815
20
21.4886926
40
0.2149197
50
301.7834992
51
311.754567
0
ARC
8
DEFAULT_255_1_388
10
5.0125856
20
21.477265
40
0.1995326
50
311.7325027
51
354.2803031
0
ARC
8
DEFAULT_255_1_388
10
4.9308272
20
21.491328
40
0.2823461
50
353.0941646
51
0.1174696
0
ARC
8
DEFAULT_255_1_388
10
4.878983
20
21.4966874
40
0.3342238
50
359.1804452
51
15.0452323
0
ARC
8
DEFAULT_255_1_388
10
5.0303888
20
21.5408546
40
0.1765747
50
13.957816
51
77.6713812
0
ARC
8
DEFAULT_255_1_388
10
4.9869124
20
21.3850464
40
0.3381982
50
76.111571
51
90.7028736
0
ARC
8
DEFAULT_255_1_388
10
4.9802536
20
21.415825
40
0.3074046
50
89.5321574
51
103.5319393
0
ARC
8
DEFAULT_255_1_388
10
4.957692
20
21.5057443
40
0.2147041
50
103.2930114
51
133.5619756
0
ARC
8
DEFAULT_255_1_388
10
4.9526861
20
21.5124351
40
0.2064084
50
133.8349761
51
173.5343225
0
ARC
8
DEFAULT_255_1_388
10
5.0340519
20
21.4980144
40
0.2889266
50
172.5097183
51
180.1360699
0
ARC
8
DEFAULT_255_1_388
10
4.9270283
20
21.501888
40
0.3490913
50
155.3483706
51
180.7484035
0
ARC
8
DEFAULT_255_1_388
10
4.9215258
20
21.4986519
40
0.3454798
50
131.5745177
51
154.4799474
0
ARC
8
DEFAULT_255_1_388
10
4.9567541
20
21.4630422
40
0.3955058
50
96.9874487
51
131.9690874
0
ARC
8
DEFAULT_255_1_388
10
4.9814434
20
21.3229407
40
0.537622
50
89.8592909
51
97.7827481
0
ARC
8
DEFAULT_255_1_388
10
4.9868543
20
21.293436
40
0.5671399
50
78.3654493
51
90.4132586
0
ARC
8
DEFAULT_255_1_388
10
5.0271184
20
21.4800918
40
0.3762034
50
56.6229818
51
78.6387103
0
ARC
8
DEFAULT_255_1_388
10
5.0513013
20
21.5223846
40
0.3275964
50
47.0254604
51
56.085558
0
ARC
8
DEFAULT_255_1_388
10
5.0535264
20
21.5268189
40
0.3228382
50
10.9207523
51
46.777927
0
ARC
8
DEFAULT_255_1_388
10
4.9000858
20
21.4913401
40
0.4802559
50
359.6364235
51
11.6087615
0
ARC
8
DEFAULT_255_1_388
10
5.1065024
20
21.4896404
40
0.273833
50
332.3549969
51
359.7179765
0
ARC
8
DEFAULT_255_1_388
10
5.0333424
20
21.5243285
40
0.3547505
50
325.2332381
51
332.8746682
0
ARC
8
DEFAULT_255_1_388
10
5.0505007
20
21.5123763
40
0.3338396
50
292.9803892
51
325.2391113
0
ARC
8
DEFAULT_255_1_388
10
5.0194203
20
21.5728679
40
0.4016959
50
292.542178
51
293.6931461
0
ARC
8
DEFAULT_255_1_388
10
5.0637775
20
20.8463036
40
0.372079
50
57.643292
51
72.8626085
0
ARC
8
DEFAULT_255_1_388
10
5.1036609
20
20.9109273
40
0.2961455
50
36.7246661
51
57.4701329
0
ARC
8
DEFAULT_255_1_388
10
5.1023766
20
20.912347
40
0.2963321
50
8.054535
51
36.3561529
0
ARC
8
DEFAULT_255_1_388
10
5.0053439
20
20.8949073
40
0.3948682
50
359.8316595
51
8.5873361
0
ARC
8
DEFAULT_255_1_388
10
4.9630913
20
20.889497
40
0.4371398
50
343.9831631
51
0.557075
0
ARC
8
DEFAULT_255_1_388
10
5.0627962
20
20.8621963
40
0.3337749
50
311.6358204
51
343.7652116
0
ARC
8
DEFAULT_255_1_388
10
5.0202216
20
20.9101955
40
0.3979351
50
279.7829743
51
311.625622
0
ARC
8
DEFAULT_255_1_388
10
4.9863351
20
21.0718642
40
0.5630417
50
269.7285092
51
280.3857694
0
ARC
8
DEFAULT_255_1_388
10
4.9793664
20
21.0672241
40
0.5584119
50
256.6827433
51
270.4412869
0
ARC
8
DEFAULT_255_1_388
10
4.9412651
20
20.9114698
40
0.3980715
50
229.4223821
51
256.8554507
0
ARC
8
DEFAULT_255_1_388
10
4.8946204
20
20.8589683
40
0.3278564
50
181.8183354
51
229.6455015
0
ARC
8
DEFAULT_255_1_388
10
5.0115814
20
20.8736825
40
0.4453611
50
179.9760419
51
183.2330638
0
ARC
8
DEFAULT_255_1_388
10
4.9922366
20
20.8713781
40
0.2579652
50
179.4467996
51
196.2871626
0
ARC
8
DEFAULT_255_1_388
10
4.937382
20
20.8563709
40
0.2011057
50
196.5661293
51
227.7059371
0
ARC
8
DEFAULT_255_1_388
10
4.9558427
20
20.8770155
40
0.2287994
50
227.7653015
51
257.8763321
0
ARC
8
DEFAULT_255_1_388
10
4.981151
20
20.9830961
40
0.3378385
50
257.4583525
51
270.4267406
0
ARC
8
DEFAULT_255_1_388
10
4.986276
20
21.015723
40
0.3704652
50
269.5965319
51
280.8788143
0
ARC
8
DEFAULT_255_1_388
10
5.0120988
20
20.8867529
40
0.2389415
50
280.6347277
51
299.8594068
0
ARC
8
DEFAULT_255_1_388
10
5.0335757
20
20.8459736
40
0.19289
50
300.3575552
51
314.5515667
0
ARC
8
DEFAULT_255_1_388
10
5.0242433
20
20.8528025
40
0.204312
50
315.0730962
51
345.0429362
0
ARC
8
DEFAULT_255_1_388
10
4.9203941
20
20.8830539
40
0.31246
50
344.598526
51
357.9270698
0
ARC
8
DEFAULT_255_1_388
10
4.8194245
20
20.8899705
40
0.4136265
50
357.4755098
51
0.0224936
0
ARC
8
DEFAULT_255_1_388
10
4.9347123
20
20.8927099
40
0.2983498
50
359.5051035
51
13.4236939
0
ARC
8
DEFAULT_255_1_388
10
5.0322213
20
20.9176637
40
0.1977186
50
12.9497905
51
48.7550905
0
ARC
8
DEFAULT_255_1_388
10
5.0117135
20
20.8896373
40
0.2323321
50
49.509109
51
72.1832965
0
ARC
8
DEFAULT_255_1_388
10
4.9714603
20
20.7701632
40
0.358397
50
71.9008458
51
84.3555134
0
ARC
8
DEFAULT_255_1_388
10
4.9532998
20
20.6169712
40
0.512641
50
84.019632
51
89.3326067
0
LINE
8
DEFAULT_255_1_388
10
5.9947559
20
21.1539737
11
5.9947559
21
21.0175355
0
LINE
8
DEFAULT_255_1_388
10
5.9947559
20
21.0175355
11
5.5538164
21
21.0175355
0
LINE
8
DEFAULT_255_1_388
10
5.5538164
20
21.0175355
11
5.5538164
21
21.1539737
0
LINE
8
DEFAULT_255_1_388
10
5.5538164
20
21.1539737
11
5.9947559
21
21.1539737
0
LINE
8
DEFAULT_255_1_388
10
4.1804367
20
29.7799898
11
4.1804367
21
28.4644
0
LINE
8
DEFAULT_255_1_388
10
4.1804367
20
28.4644
11
4.0069523
21
28.4644
0
LINE
8
DEFAULT_255_1_388
10
4.0069523
20
28.4644
11
4.0069523
21
29.7799898
0
LINE
8
DEFAULT_255_1_388
10
4.0069523
20
29.7799898
11
4.1804367
21
29.7799898
0
LINE
8
DEFAULT_255_1_388
10
4.6972755
20
29.0670775
11
4.6972755
21
29.2035157
0
LINE
8
DEFAULT_255_1_388
10
4.6972755
20
29.2035157
11
4.822871
21
29.2035157
0
LINE
8
DEFAULT_255_1_388
10
4.6087262
20
29.4348282
11
4.4415668
21
29.4348282
0
LINE
8
DEFAULT_255_1_388
10
4.4298205
20
28.8113687
11
4.5978834
21
28.8113687
0
LINE
8
DEFAULT_255_1_388
10
4.822871
20
29.0670775
11
4.6972755
21
29.0670775
0
ARC
8
DEFAULT_255_1_388
10
4.8195936
20
29.5851922
40
0.3816905
50
270.491971
51
281.8953028
0
ARC
8
DEFAULT_255_1_388
10
4.8467363
20
29.4612199
40
0.2547877
50
281.6690378
51
301.2943765
0
ARC
8
DEFAULT_255_1_388
10
4.8658815
20
29.4261926
40
0.2149197
50
301.7834992
51
311.754567
0
ARC
8
DEFAULT_255_1_388
10
4.8761856
20
29.414765
40
0.1995326
50
311.7325027
51
354.2803031
0
ARC
8
DEFAULT_255_1_388
10
4.7944272
20
29.428828
40
0.2823461
50
353.0941646
51
0.1174696
0
ARC
8
DEFAULT_255_1_388
10
4.742583
20
29.4341874
40
0.3342238
50
359.1804452
51
15.0452323
0
ARC
8
DEFAULT_255_1_388
10
4.8939888
20
29.4783546
40
0.1765747
50
13.957816
51
77.6713812
0
ARC
8
DEFAULT_255_1_388
10
4.8505124
20
29.3225464
40
0.3381982
50
76.111571
51
90.7028736
0
ARC
8
DEFAULT_255_1_388
10
4.8438536
20
29.353325
40
0.3074046
50
89.5321574
51
103.5319393
0
ARC
8
DEFAULT_255_1_388
10
4.821292
20
29.4432443
40
0.2147041
50
103.2930114
51
133.5619756
0
ARC
8
DEFAULT_255_1_388
10
4.8162861
20
29.4499351
40
0.2064084
50
133.8349761
51
173.5343225
0
ARC
8
DEFAULT_255_1_388
10
4.8976519
20
29.4355144
40
0.2889266
50
172.5097183
51
180.1360699
0
ARC
8
DEFAULT_255_1_388
10
4.7906283
20
29.439388
40
0.3490913
50
155.3483706
51
180.7484035
0
ARC
8
DEFAULT_255_1_388
10
4.7851258
20
29.4361519
40
0.3454798
50
131.5745177
51
154.4799474
0
ARC
8
DEFAULT_255_1_388
10
4.8203541
20
29.4005422
40
0.3955058
50
96.9874487
51
131.9690874
0
ARC
8
DEFAULT_255_1_388
10
4.8450434
20
29.2604407
40
0.537622
50
89.8592909
51
97.7827481
0
ARC
8
DEFAULT_255_1_388
10
4.8504543
20
29.230936
40
0.5671399
50
78.3654493
51
90.4132586
0
ARC
8
DEFAULT_255_1_388
10
4.8907184
20
29.4175918
40
0.3762034
50
56.6229818
51
78.6387103
0
ARC
8
DEFAULT_255_1_388
10
4.9149013
20
29.4598846
40
0.3275964
50
47.0254604
51
56.085558
0
ARC
8
DEFAULT_255_1_388
10
4.9171264
20
29.4643189
40
0.3228382
50
10.9207523
51
46.777927
0
ARC
8
DEFAULT_255_1_388
10
4.7636858
20
29.4288401
40
0.4802559
50
359.6364235
51
11.6087615
0
ARC
8
DEFAULT_255_1_388
10
4.9701024
20
29.4271404
40
0.273833
50
332.3549969
51
359.7179765
0
ARC
8
DEFAULT_255_1_388
10
4.8969424
20
29.4618285
40
0.3547505
50
325.2332381
51
332.8746682
0
ARC
8
DEFAULT_255_1_388
10
4.9141007
20
29.4498763
40
0.3338396
50
292.9803892
51
325.2391113
0
ARC
8
DEFAULT_255_1_388
10
4.8830203
20
29.5103679
40
0.4016959
50
292.542178
51
293.6931461
0
ARC
8
DEFAULT_255_1_388
10
4.9273775
20
28.7838036
40
0.372079
50
57.643292
51
72.8626085
0
ARC
8
DEFAULT_255_1_388
10
4.9672609
20
28.8484273
40
0.2961455
50
36.7246661
51
57.4701329
0
ARC
8
DEFAULT_255_1_388
10
4.9659766
20
28.849847
40
0.2963321
50
8.054535
51
36.3561529
0
ARC
8
DEFAULT_255_1_388
10
4.8689439
20
28.8324073
40
0.3948682
50
359.8316595
51
8.5873361
0
ARC
8
DEFAULT_255_1_388
10
4.8266913
20
28.826997
40
0.4371398
50
343.9831631
51
0.557075
0
ARC
8
DEFAULT_255_1_388
10
4.9263962
20
28.7996963
40
0.3337749
50
311.6358204
51
343.7652116
0
ARC
8
DEFAULT_255_1_388
10
4.8838216
20
28.8476955
40
0.3979351
50
279.7829743
51
311.625622
0
ARC
8
DEFAULT_255_1_388
10
4.8499351
20
29.0093642
40
0.5630417
50
269.7285092
51
280.3857694
0
ARC
8
DEFAULT_255_1_388
10
4.8429664
20
29.0047241
40
0.5584119
50
256.6827433
51
270.4412869
0
ARC
8
DEFAULT_255_1_388
10
4.8048651
20
28.8489698
40
0.3980715
50
229.4223821
51
256.8554507
0
ARC
8
DEFAULT_255_1_388
10
4.7582204
20
28.7964683
40
0.3278564
50
181.8183354
51
229.6455015
0
ARC
8
DEFAULT_255_1_388
10
4.8751814
20
28.8111825
40
0.4453611
50
179.9760419
51
183.2330638
0
ARC
8
DEFAULT_255_1_388
10
4.8558366
20
28.8088781
40
0.2579652
50
179.4467996
51
196.2871626
0
ARC
8
DEFAULT_255_1_388
10
4.800982
20
28.7938709
40
0.2011057
50
196.5661293
51
227.7059371
0
ARC
8
DEFAULT_255_1_388
10
4.8194427
20
28.8145155
40
0.2287994
50
227.7653015
51
257.8763321
0
ARC
8
DEFAULT_255_1_388
10
4.844751
20
28.9205961
40
0.3378385
50
257.4583525
51
270.4267406
0
ARC
8
DEFAULT_255_1_388
10
4.849876
20
28.953223
40
0.3704652
50
269.5965319
51
280.8788143
0
ARC
8
DEFAULT_255_1_388
10
4.8756988
20
28.8242529
40
0.2389415
50
280.6347277
51
299.8594068
0
ARC
8
DEFAULT_255_1_388
10
4.8971757
20
28.7834736
40
0.19289
50
300.3575552
51
314.5515667
0
ARC
8
DEFAULT_255_1_388
10
4.8878433
20
28.7903025
40
0.204312
50
315.0730962
51
345.0429362
0
ARC
8
DEFAULT_255_1_388
10
4.7839941
20
28.8205539
40
0.31246
50
344.598526
51
357.9270698
0
ARC
8
DEFAULT_255_1_388
10
4.6830245
20
28.8274705
40
0.4136265
50
357.4755098
51
0.0224936
0
ARC
8
DEFAULT_255_1_388
10
4.7983123
20
28.8302099
40
0.2983498
50
359.5051035
51
13.4236939
0
ARC
8
DEFAULT_255_1_388
10
4.8958213
20
28.8551637
40
0.1977186
50
12.9497905
51
48.7550905
0
ARC
8
DEFAULT_255_1_388
10
4.8753135
20
28.8271373
40
0.2323321
50
49.509109
51
72.1832965
0
ARC
8
DEFAULT_255_1_388
10
4.8350603
20
28.7076632
40
0.358397
50
71.9008458
51
84.3555134
0
ARC
8
DEFAULT_255_1_388
10
4.8168998
20
28.5544712
40
0.512641
50
84.019632
51
89.3326067
0
LINE
8
DEFAULT_255_1_388
10
5.9893727
20
29.5540987
11
5.9893727
21
29.1700838
0
LINE
8
DEFAULT_255_1_388
10
5.9893727
20
29.1700838
11
6.3562199
21
29.1700838
0
LINE
8
DEFAULT_255_1_388
10
6.3562199
20
29.1700838
11
6.3562199
21
29.0119601
0
LINE
8
DEFAULT_255_1_388
10
6.3562199
20
29.0119601
11
5.9893727
21
29.0119601
0
LINE
8
DEFAULT_255_1_388
10
5.9893727
20
29.0119601
11
5.9893727
21
28.5963204
0
LINE
8
DEFAULT_255_1_388
10
5.9893727
20
28.5963204
11
5.8213097
21
28.5963204
0
LINE
8
DEFAULT_255_1_388
10
5.8213097
20
28.5963204
11
5.8213097
21
29.0119601
0
LINE
8
DEFAULT_255_1_388
10
5.8213097
20
29.0119601
11
5.4544625
21
29.0119601
0
LINE
8
DEFAULT_255_1_388
10
5.4544625
20
29.0119601
11
5.4544625
21
29.1700838
0
LINE
8
DEFAULT_255_1_388
10
5.4544625
20
29.1700838
11
5.8213097
21
29.1700838
0
LINE
8
DEFAULT_255_1_388
10
5.8213097
20
29.1700838
11
5.8213097
21
29.5540987
0
LINE
8
DEFAULT_255_1_388
10
5.8213097
20
29.5540987
11
5.9893727
21
29.5540987
0
LINE
8
DEFAULT_255_1_388
10
4.3168367
20
37.7174898
11
4.3168367
21
36.4019
0
LINE
8
DEFAULT_255_1_388
10
4.3168367
20
36.4019
11
4.1433523
21
36.4019
0
LINE
8
DEFAULT_255_1_388
10
4.1433523
20
36.4019
11
4.1433523
21
37.7174898
0
LINE
8
DEFAULT_255_1_388
10
4.1433523
20
37.7174898
11
4.3168367
21
37.7174898
0
LINE
8
DEFAULT_255_1_388
10
5.4526172
20
36.5383382
11
5.4526172
21
36.4019
0
LINE
8
DEFAULT_255_1_388
10
5.4526172
20
36.4019
11
4.5906167
21
36.4019
0
LINE
8
DEFAULT_255_1_388
10
4.5906167
20
36.4019
11
4.5906167
21
36.5220741
0
LINE
8
DEFAULT_255_1_388
10
4.5906167
20
36.5220741
11
5.0460132
21
37.0280702
0
LINE
8
DEFAULT_255_1_388
10
4.7324763
20
37.3298607
11
4.5653169
21
37.3298607
0
LINE
8
DEFAULT_255_1_388
10
5.1445017
20
36.920546
11
4.7921116
21
36.5383382
0
LINE
8
DEFAULT_255_1_388
10
4.7921116
20
36.5383382
11
5.4526172
21
36.5383382
0
ARC
8
DEFAULT_255_1_388
10
3.5284191
20
38.3700983
40
2.0258655
50
318.5132526
51
320.7829045
0
ARC
8
DEFAULT_255_1_388
10
4.1232148
20
37.8859929
40
1.2589638
50
320.7372878
51
323.9739031
0
ARC
8
DEFAULT_255_1_388
10
4.564108
20
37.5665554
40
0.7145141
50
323.8962701
51
328.64194
0
ARC
8
DEFAULT_255_1_388
10
4.7943338
20
37.4245545
40
0.4440242
50
328.8294576
51
331.7891185
0
ARC
8
DEFAULT_255_1_388
10
4.9065658
20
37.3666374
40
0.3177517
50
331.4254512
51
352.9365785
0
ARC
8
DEFAULT_255_1_388
10
4.9218658
20
37.363205
40
0.3021496
50
353.2257659
51
0.0166158
0
ARC
8
DEFAULT_255_1_388
10
4.9455418
20
37.3657894
40
0.2784847
50
359.486299
51
15.9343185
0
ARC
8
DEFAULT_255_1_388
10
5.0025685
20
37.3811269
40
0.2194403
50
16.1712913
51
43.5286088
0
ARC
8
DEFAULT_255_1_388
10
5.011263
20
37.3898191
40
0.2071504
50
43.4417391
51
83.1661095
0
ARC
8
DEFAULT_255_1_388
10
4.9961791
20
37.3069316
40
0.2912888
50
82.160179
51
90.1505708
0
ARC
8
DEFAULT_255_1_388
10
4.9926272
20
37.2465279
40
0.3517025
50
89.5460741
51
102.5418361
0
ARC
8
DEFAULT_255_1_388
10
4.9652992
20
37.3624933
40
0.2325748
50
102.1738499
51
129.206123
0
ARC
8
DEFAULT_255_1_388
10
4.9564446
20
37.3764664
40
0.2161591
50
129.72865
51
135.753947
0
ARC
8
DEFAULT_255_1_388
10
4.9700928
20
37.3655728
40
0.2335433
50
136.1757367
51
166.3673339
0
ARC
8
DEFAULT_255_1_388
10
5.0833616
20
37.3352148
40
0.3507873
50
165.9090694
51
178.8684636
0
ARC
8
DEFAULT_255_1_388
10
5.1809388
20
37.3299263
40
0.4484624
50
178.4391136
51
180.0083808
0
ARC
8
DEFAULT_255_1_388
10
5.0230089
20
37.3343197
40
0.4577138
50
163.2878482
51
180.5581842
0
ARC
8
DEFAULT_255_1_388
10
4.932813
20
37.3591393
40
0.3641968
50
133.4540601
51
162.947111
0
ARC
8
DEFAULT_255_1_388
10
4.9529012
20
37.3377789
40
0.3935189
50
100.7869829
51
133.4382499
0
ARC
8
DEFAULT_255_1_388
10
4.9920257
20
37.1635399
40
0.5720313
50
89.660664
51
101.3702276
0
ARC
8
DEFAULT_255_1_388
10
4.9994866
20
37.1704263
40
0.5651495
50
78.2172678
51
90.412935
0
ARC
8
DEFAULT_255_1_388
10
5.0394332
20
37.3531511
40
0.378122
50
55.9269121
51
78.4888449
0
ARC
8
DEFAULT_255_1_388
10
5.0615047
20
37.3912187
40
0.3342379
50
47.929771
51
55.4049217
0
ARC
8
DEFAULT_255_1_388
10
5.0729577
20
37.4028618
40
0.3179217
50
4.334829
51
48.0560205
0
ARC
8
DEFAULT_255_1_388
10
4.9497379
20
37.3837487
40
0.442341
50
359.9251713
51
5.5971671
0
ARC
8
DEFAULT_255_1_388
10
4.9979534
20
37.3900728
40
0.3941854
50
337.8914027
51
358.9967534
0
ARC
8
DEFAULT_255_1_388
10
4.6927104
20
37.5078295
40
0.7213271
50
326.9132501
51
338.3508308
0
ARC
8
DEFAULT_255_1_388
10
4.2443216
20
37.7952105
40
1.2538973
50
319.6471833
51
327.0959558
0
ARC
8
DEFAULT_255_1_388
10
3.8129874
20
38.151005
40
1.8129975
50
317.2588228
51
319.9045804
0
LINE
8
DEFAULT_255_1_388
10
5.9947559
20
37.0289737
11
5.9947559
21
36.8925355
0
LINE
8
DEFAULT_255_1_388
10
5.9947559
20
36.8925355
11
5.5538164
21
36.8925355
0
LINE
8
DEFAULT_255_1_388
10
5.5538164
20
36.8925355
11
5.5538164
21
37.0289737
0
LINE
8
DEFAULT_255_1_388
10
5.5538164
20
37.0289737
11
5.9947559
21
37.0289737
0
LINE
8
DEFAULT_255_1_388
10
4.1804367
20
45.6549898
11
4.1804367
21
44.3394
0
LINE
8
DEFAULT_255_1_388
10
4.1804367
20
44.3394
11
4.0069523
21
44.3394
0
LINE
8
DEFAULT_255_1_388
10
4.0069523
20
44.3394
11
4.0069523
21
45.6549898
0
LINE
8
DEFAULT_255_1_388
10
4.0069523
20
45.6549898
11
4.1804367
21
45.6549898
0
LINE
8
DEFAULT_255_1_388
10
5.3162172
20
44.4758382
11
5.3162172
21
44.3394
0
LINE
8
DEFAULT_255_1_388
10
5.3162172
20
44.3394
11
4.4542167
21
44.3394
0
LINE
8
DEFAULT_255_1_388
10
4.4542167
20
44.3394
11
4.4542167
21
44.4595741
0
LINE
8
DEFAULT_255_1_388
10
4.4542167
20
44.4595741
11
4.9096132
21
44.9655702
0
LINE
8
DEFAULT_255_1_388
10
4.5960763
20
45.2673607
11
4.4289169
21
45.2673607
0
LINE
8
DEFAULT_255_1_388
10
5.0081017
20
44.858046
11
4.6557116
21
44.4758382
0
LINE
8
DEFAULT_255_1_388
10
4.6557116
20
44.4758382
11
5.3162172
21
44.4758382
0
ARC
8
DEFAULT_255_1_388
10
3.3920191
20
46.3075983
40
2.0258655
50
318.5132526
51
320.7829045
0
ARC
8
DEFAULT_255_1_388
10
3.9868148
20
45.8234929
40
1.2589638
50
320.7372878
51
323.9739031
0
ARC
8
DEFAULT_255_1_388
10
4.427708
20
45.5040554
40
0.7145141
50
323.8962701
51
328.64194
0
ARC
8
DEFAULT_255_1_388
10
4.6579338
20
45.3620545
40
0.4440242
50
328.8294576
51
331.7891185
0
ARC
8
DEFAULT_255_1_388
10
4.7701658
20
45.3041374
40
0.3177517
50
331.4254512
51
352.9365785
0
ARC
8
DEFAULT_255_1_388
10
4.7854658
20
45.300705
40
0.3021496
50
353.2257659
51
0.0166158
0
ARC
8
DEFAULT_255_1_388
10
4.8091418
20
45.3032894
40
0.2784847
50
359.486299
51
15.9343185
0
ARC
8
DEFAULT_255_1_388
10
4.8661685
20
45.3186269
40
0.2194403
50
16.1712913
51
43.5286088
0
ARC
8
DEFAULT_255_1_388
10
4.874863
20
45.3273191
40
0.2071504
50
43.4417391
51
83.1661095
0
ARC
8
DEFAULT_255_1_388
10
4.8597791
20
45.2444316
40
0.2912888
50
82.160179
51
90.1505708
0
ARC
8
DEFAULT_255_1_388
10
4.8562272
20
45.1840279
40
0.3517025
50
89.5460741
51
102.5418361
0
ARC
8
DEFAULT_255_1_388
10
4.8288992
20
45.2999933
40
0.2325748
50
102.1738499
51
129.206123
0
ARC
8
DEFAULT_255_1_388
10
4.8200446
20
45.3139664
40
0.2161591
50
129.72865
51
135.753947
0
ARC
8
DEFAULT_255_1_388
10
4.8336928
20
45.3030728
40
0.2335433
50
136.1757367
51
166.3673339
0
ARC
8
DEFAULT_255_1_388
10
4.9469616
20
45.2727148
40
0.3507873
50
165.9090694
51
178.8684636
0
ARC
8
DEFAULT_255_1_388
10
5.0445388
20
45.2674263
40
0.4484624
50
178.4391136
51
180.0083808
0
ARC
8
DEFAULT_255_1_388
10
4.8866089
20
45.2718197
40
0.4577138
50
163.2878482
51
180.5581842
0
ARC
8
DEFAULT_255_1_388
10
4.796413
20
45.2966393
40
0.3641968
50
133.4540601
51
162.947111
0
ARC
8
DEFAULT_255_1_388
10
4.8165012
20
45.2752789
40
0.3935189
50
100.7869829
51
133.4382499
0
ARC
8
DEFAULT_255_1_388
10
4.8556257
20
45.1010399
40
0.5720313
50
89.660664
51
101.3702276
0
ARC
8
DEFAULT_255_1_388
10
4.8630866
20
45.1079263
40
0.5651495
50
78.2172678
51
90.412935
0
ARC
8
DEFAULT_255_1_388
10
4.9030332
20
45.2906511
40
0.378122
50
55.9269121
51
78.4888449
0
ARC
8
DEFAULT_255_1_388
10
4.9251047
20
45.3287187
40
0.3342379
50
47.929771
51
55.4049217
0
ARC
8
DEFAULT_255_1_388
10
4.9365577
20
45.3403618
40
0.3179217
50
4.334829
51
48.0560205
0
ARC
8
DEFAULT_255_1_388
10
4.8133379
20
45.3212487
40
0.442341
50
359.9251713
51
5.5971671
0
ARC
8
DEFAULT_255_1_388
10
4.8615534
20
45.3275728
40
0.3941854
50
337.8914027
51
358.9967534
0
ARC
8
DEFAULT_255_1_388
10
4.5563104
20
45.4453295
40
0.7213271
50
326.9132501
51
338.3508308
0
ARC
8
DEFAULT_255_1_388
10
4.1079216
20
45.7327105
40
1.2538973
50
319.6471833
51
327.0959558
0
ARC
8
DEFAULT_255_1_388
10
3.6765874
20
46.088505
40
1.8129975
50
317.2588228
51
319.9045804
0
LINE
8
DEFAULT_255_1_388
10
5.9893727
20
45.4290987
11
5.9893727
21
45.0450838
0
LINE
8
DEFAULT_255_1_388
10
5.9893727
20
45.0450838
11
6.3562199
21
45.0450838
0
LINE
8
DEFAULT_255_1_388
10
6.3562199
20
45.0450838
11
6.3562199
21
44.8869601
0
LINE
8
DEFAULT_255_1_388
10
6.3562199
20
44.8869601
11
5.9893727
21
44.8869601
0
LINE
8
DEFAULT_255_1_388
10
5.9893727
20
44.8869601
11
5.9893727
21
44.4713204
0
LINE
8
DEFAULT_255_1_388
10
5.9893727
20
44.4713204
11
5.8213097
21
44.4713204
0
LINE
8
DEFAULT_255_1_388
10
5.8213097
20
44.4713204
11
5.8213097
21
44.8869601
0
LINE
8
DEFAULT_255_1_388
10
5.8213097
20
44.8869601
11
5.4544625
21
44.8869601
0
LINE
8
DEFAULT_255_1_388
10
5.4544625
20
44.8869601
11
5.4544625
21
45.0450838
0
LINE
8
DEFAULT_255_1_388
10
5.4544625
20
45.0450838
11
5.8213097
21
45.0450838
0
LINE
8
DEFAULT_255_1_388
10
5.8213097
20
45.0450838
11
5.8213097
21
45.4290987
0
LINE
8
DEFAULT_255_1_388
10
5.8213097
20
45.4290987
11
5.9893727
21
45.4290987
0
LINE
8
DEFAULT_255_1_388
10
4.3168367
20
53.5924898
11
4.3168367
21
52.2769
0
LINE
8
DEFAULT_255_1_388
10
4.3168367
20
52.2769
11
4.1433523
21
52.2769
0
LINE
8
DEFAULT_255_1_388
10
4.1433523
20
52.2769
11
4.1433523
21
53.5924898
0
LINE
8
DEFAULT_255_1_388
10
4.1433523
20
53.5924898
11
4.3168367
21
53.5924898
0
LINE
8
DEFAULT_255_1_388
10
5.1399839
20
53.5988148
11
5.1399839
21
52.2769
0
LINE
8
DEFAULT_255_1_388
10
5.1399839
20
52.2769
11
4.9719209
21
52.2769
0
LINE
8
DEFAULT_255_1_388
10
4.9719209
20
52.2769
11
4.9719209
21
53.390995
0
LINE
8
DEFAULT_255_1_388
10
4.9719209
20
53.390995
11
4.6348914
21
53.2672066
0
LINE
8
DEFAULT_255_1_388
10
4.6348914
20
53.2672066
11
4.6348914
21
53.4190055
0
LINE
8
DEFAULT_255_1_388
10
4.6348914
20
53.4190055
11
5.1137805
21
53.5988148
0
LINE
8
DEFAULT_255_1_388
10
5.1137805
20
53.5988148
11
5.1399839
21
53.5988148
0
LINE
8
DEFAULT_255_1_388
10
5.9947559
20
52.9039737
11
5.9947559
21
52.7675355
0
LINE
8
DEFAULT_255_1_388
10
5.9947559
20
52.7675355
11
5.5538164
21
52.7675355
0
LINE
8
DEFAULT_255_1_388
10
5.5538164
20
52.7675355
11
5.5538164
21
52.9039737
0
LINE
8
DEFAULT_255_1_388
10
5.5538164
20
52.9039737
11
5.9947559
21
52.9039737
0
LINE
8
DEFAULT_255_1_388
10
4.1804367
20
61.5299898
11
4.1804367
21
60.2144
0
LINE
8
DEFAULT_255_1_388
10
4.1804367
20
60.2144
11
4.0069523
21
60.2144
0
LINE
8
DEFAULT_255_1_388
10
4.0069523
20
60.2144
11
4.0069523
21
61.5299898
0
LINE
8
DEFAULT_255_1_388
10
4.0069523
20
61.5299898
11
4.1804367
21
61.5299898
0
LINE
8
DEFAULT_255_1_388
10
5.0035839
20
61.5363148
11
5.0035839
21
60.2144
0
LINE
8
DEFAULT_255_1_388
10
5.0035839
20
60.2144
11
4.8355209
21
60.2144
0
LINE
8
DEFAULT_255_1_388
10
4.8355209
20
60.2144
11
4.8355209
21
61.328495
0
LINE
8
DEFAULT_255_1_388
10
4.8355209
20
61.328495
11
4.4984914
21
61.2047066
0
LINE
8
DEFAULT_255_1_388
10
4.4984914
20
61.2047066
11
4.4984914
21
61.3565055
0
LINE
8
DEFAULT_255_1_388
10
4.4984914
20
61.3565055
11
4.9773805
21
61.5363148
0
LINE
8
DEFAULT_255_1_388
10
4.9773805
20
61.5363148
11
5.0035839
21
61.5363148
0
LINE
8
DEFAULT_255_1_388
10
5.9893727
20
61.3040987
11
5.9893727
21
60.9200838
0
LINE
8
DEFAULT_255_1_388
10
5.9893727
20
60.9200838
11
6.3562199
21
60.9200838
0
LINE
8
DEFAULT_255_1_388
10
6.3562199
20
60.9200838
11
6.3562199
21
60.7619601
0
LINE
8
DEFAULT_255_1_388
10
6.3562199
20
60.7619601
11
5.9893727
21
60.7619601
0
LINE
8
DEFAULT_255_1_388
10
5.9893727
20
60.7619601
11
5.9893727
21
60.3463204
0
LINE
8
DEFAULT_255_1_388
10
5.9893727
20
60.3463204
11
5.8213097
21
60.3463204
0
LINE
8
DEFAULT_255_1_388
10
5.8213097
20
60.3463204
11
5.8213097
21
60.7619601
0
LINE
8
DEFAULT_255_1_388
10
5.8213097
20
60.7619601
11
5.4544625
21
60.7619601
0
LINE
8
DEFAULT_255_1_388
10
5.4544625
20
60.7619601
11
5.4544625
21
60.9200838
0
LINE
8
DEFAULT_255_1_388
10
5.4544625
20
60.9200838
11
5.8213097
21
60.9200838
0
LINE
8
DEFAULT_255_1_388
10
5.8213097
20
60.9200838
11
5.8213097
21
61.3040987
0
LINE
8
DEFAULT_255_1_388
10
5.8213097
20
61.3040987
11
5.9893727
21
61.3040987
0
LINE
8
DEFAULT_255_1_388
10
23.1190856
20
68.929869
11
23.1190856
21
68.7130135
0
LINE
8
DEFAULT_255_1_388
10
22.2887099
20
68.6904244
11
22.2887099
21
68.9136048
0
LINE
8
DEFAULT_255_1_388
10
22.9519262
20
68.6678353
11
22.9519262
21
68.9416153
0
LINE
8
DEFAULT_255_1_388
10
22.4558693
20
68.9542652
11
22.4558693
21
68.6868102
0
ARC
8
DEFAULT_255_1_388
10
21.741319
20
68.7075118
40
1.3777776
50
353.8440855
51
0.2287917
0
ARC
8
DEFAULT_255_1_388
10
22.2632208
20
68.6492414
40
0.852639
50
344.4934746
51
353.9763743
0
ARC
8
DEFAULT_255_1_388
10
22.5999015
20
68.5535191
40
0.5026273
50
329.2803599
51
344.7473406
0
ARC
8
DEFAULT_255_1_388
10
22.7114511
20
68.4923038
40
0.3754848
50
324.9361395
51
328.6153007
0
ARC
8
DEFAULT_255_1_388
10
22.7540161
20
68.4625586
40
0.3235566
50
280.5801797
51
324.9173226
0
ARC
8
DEFAULT_255_1_388
10
22.7088789
20
68.6505236
40
0.5167077
50
269.5979457
51
281.6732777
0
ARC
8
DEFAULT_255_1_388
10
22.7007693
20
68.6370113
40
0.5032026
50
256.6228565
51
270.5105488
0
ARC
8
DEFAULT_255_1_388
10
22.6555435
20
68.4628345
40
0.3233092
50
215.8618351
51
257.2787793
0
ARC
8
DEFAULT_255_1_388
10
22.7704142
20
68.5399106
40
0.4615831
50
197.9695203
51
215.2622745
0
ARC
8
DEFAULT_255_1_388
10
23.0499818
20
68.6342641
40
0.7566307
50
187.8816486
51
198.2346584
0
ARC
8
DEFAULT_255_1_388
10
23.4953056
20
68.6985453
40
1.2065653
50
180.8977266
51
188.0054894
0
ARC
8
DEFAULT_255_1_388
10
23.800327
20
68.71004
40
1.5117443
50
180.7434591
51
181.152202
0
ARC
8
DEFAULT_255_1_388
10
23.6328266
20
68.9190371
40
1.3441277
50
173.7674302
51
180.2315596
0
ARC
8
DEFAULT_255_1_388
10
23.1246135
20
68.9764779
40
0.8326847
50
164.3058537
51
173.9000553
0
ARC
8
DEFAULT_255_1_388
10
22.7970135
20
69.0708652
40
0.4917711
50
148.7922028
51
164.5682288
0
ARC
8
DEFAULT_255_1_388
10
22.6900872
20
69.1305457
40
0.3694204
50
144.5883979
51
148.1161588
0
ARC
8
DEFAULT_255_1_388
10
22.6513618
20
69.1575667
40
0.322202
50
101.6440149
51
144.5142619
0
ARC
8
DEFAULT_255_1_388
10
22.699181
20
68.9675337
40
0.5180451
50
89.528284
51
102.5820197
0
ARC
8
DEFAULT_255_1_388
10
22.7080802
20
68.9631376
40
0.5224441
50
77.0437914
51
90.508231
0
ARC
8
DEFAULT_255_1_388
10
22.7533055
20
69.1479272
40
0.3322297
50
48.2777708
51
77.4996087
0
ARC
8
DEFAULT_255_1_388
10
22.7614795
20
69.1624557
40
0.315966
50
36.3141586
51
47.6307332
0
ARC
8
DEFAULT_255_1_388
10
22.6637518
20
69.0966159
40
0.4337313
50
18.2931065
51
35.6770203
0
ARC
8
DEFAULT_255_1_388
10
22.3776358
20
68.9984107
40
0.7362203
50
8.0246996
51
18.5605636
0
ARC
8
DEFAULT_255_1_388
10
21.9092714
20
68.9292432
40
1.2096583
50
1.127539
51
8.1718423
0
ARC
8
DEFAULT_255_1_388
10
21.5443847
20
68.9149374
40
1.5747719
50
0.5432713
51
1.38669
0
ARC
8
DEFAULT_255_1_388
10
21.7501226
20
68.9456163
40
1.2018103
50
359.8092569
51
4.9408001
0
ARC
8
DEFAULT_255_1_388
10
22.2237807
20
68.98789
40
0.7262727
50
4.8364937
51
12.2906017
0
ARC
8
DEFAULT_255_1_388
10
22.5337272
20
69.0569485
40
0.4087324
50
12.0806994
51
23.8171225
0
ARC
8
DEFAULT_255_1_388
10
22.6657668
20
69.1128508
40
0.2653719
50
24.2874621
51
31.3934353
0
ARC
8
DEFAULT_255_1_388
10
22.7248104
20
69.1514822
40
0.1948607
50
30.7407708
51
82.4658033
0
ARC
8
DEFAULT_255_1_388
10
22.7045765
20
69.0521017
40
0.2961198
50
81.1057101
51
90.2187368
0
ARC
8
DEFAULT_255_1_388
10
22.7005577
20
69.0811421
40
0.2670929
50
89.380395
51
105.6763916
0
ARC
8
DEFAULT_255_1_388
10
22.6799299
20
69.156132
40
0.1893189
50
105.7980655
51
149.7387869
0
ARC
8
DEFAULT_255_1_388
10
22.7996439
20
69.0841719
40
0.3289892
50
149.4208441
51
163.628295
0
ARC
8
DEFAULT_255_1_388
10
23.0348668
20
69.0124345
40
0.5749004
50
163.3764549
51
172.141138
0
ARC
8
DEFAULT_255_1_388
10
23.406139
20
68.9592582
40
0.9499585
50
172.0258462
51
178.0705453
0
ARC
8
DEFAULT_255_1_388
10
23.7482943
20
68.9430682
40
1.2924734
50
177.8639301
51
179.5036263
0
ARC
8
DEFAULT_255_1_388
10
23.6263961
20
68.6827151
40
1.170534
50
179.7995545
51
185.246089
0
ARC
8
DEFAULT_255_1_388
10
23.1715554
20
68.6396404
40
0.7136613
50
185.1411911
51
193.0082205
0
ARC
8
DEFAULT_255_1_388
10
22.8741815
20
68.5693441
40
0.4080987
50
192.7897338
51
205.2507384
0
ARC
8
DEFAULT_255_1_388
10
22.7564025
20
68.5167538
40
0.2791522
50
205.8001921
51
211.2545876
0
ARC
8
DEFAULT_255_1_388
10
22.6975564
20
68.4773132
40
0.2084074
50
210.3789935
51
238.4007996
0
ARC
8
DEFAULT_255_1_388
10
22.695365
20
68.4825786
40
0.2117943
50
239.6521916
51
265.9793852
0
ARC
8
DEFAULT_255_1_388
10
22.7049499
20
68.5582358
40
0.2879689
50
265.1324455
51
270.0603288
0
ARC
8
DEFAULT_255_1_388
10
22.7081876
20
68.5217418
40
0.2514919
50
269.3314378
51
287.2180039
0
ARC
8
DEFAULT_255_1_388
10
22.7236958
20
68.4651291
40
0.1928357
50
287.7957942
51
329.0808983
0
ARC
8
DEFAULT_255_1_388
10
22.6159715
20
68.5323651
40
0.319808
50
328.6635261
51
343.3325043
0
ARC
8
DEFAULT_255_1_388
10
22.3715174
20
68.6085195
40
0.5758408
50
343.0498092
51
351.9392499
0
ARC
8
DEFAULT_255_1_388
10
21.9814496
20
68.6660205
40
0.9701202
50
351.8071632
51
357.7957897
0
ARC
8
DEFAULT_255_1_388
10
21.6179973
20
68.6848724
40
1.3340376
50
357.5870923
51
359.2682493
0
LINE
8
DEFAULT_255_1_388
10
23.4380439
20
69.4674898
11
23.8121196
21
68.3823089
0
LINE
8
DEFAULT_255_1_388
10
23.8121196
20
68.3823089
11
24.1880024
21
69.4674898
0
LINE
8
DEFAULT_255_1_388
10
24.1880024
20
69.4674898
11
24.3777509
21
69.4674898
0
LINE
8
DEFAULT_255_1_388
10
24.3777509
20
69.4674898
11
23.8898261
21
68.1519
0
LINE
8
DEFAULT_255_1_388
10
23.8898261
20
68.1519
11
23.7362202
21
68.1519
0
LINE
8
DEFAULT_255_1_388
10
23.7362202
20
68.1519
11
23.2491989
21
69.4674898
0
LINE
8
DEFAULT_255_1_388
10
23.2491989
20
69.4674898
11
23.4380439
21
69.4674898
0
ENDSEC
0
EOF