0
SECTION
2
HEADER
9
$MEASUREMENT
70
1
0
ENDSEC
0
SECTION
2
TABLES
0
TABLE
2
LTYPE
0
LTYPE
72
65
70
64
2
CONTINUOUS
3
______
73
0
40
0
0
ENDTAB
0
TABLE
2
LAYER
0
LAYER
2
DEFAULT_255_2_778
70
0
62
255
6
CONTINUOUS
0
ENDTAB
0
ENDSEC
0
SECTION
2
ENTITIES
0
ARC
8
DEFAULT_255_2_778
10
75.3918372
20
79.0796695
40
0.3037484
50
84.9737877
51
89.9931556
0
ARC
8
DEFAULT_255_2_778
10
75.392256
20
79.0835943
40
0.2998239
50
90.0730866
51
175.0528811
0
ARC
8
DEFAULT_255_2_778
10
75.3973721
20
79.0832847
40
0.3049476
50
175.0778302
51
179.993952
0
ARC
8
DEFAULT_255_2_778
10
75.3923857
20
79.0833792
40
0.2999613
50
180.011901
51
265.0204711
0
LINE
8
DEFAULT_255_2_778
10
76.5847491
20
80.1180499
11
76.7848491
21
79.7717499
0
LINE
8
DEFAULT_255_2_778
10
76.7848491
20
79.7717499
11
76.0191491
21
79.3295499
0
LINE
8
DEFAULT_255_2_778
10
76.0191491
20
79.3295499
11
75.4184491
21
79.3822499
0
LINE
8
DEFAULT_255_2_778
10
75.3663491
20
78.7845499
11
76.1802491
21
78.7133499
0
LINE
8
DEFAULT_255_2_778
10
76.1802491
20
78.7133499
11
77.1848491
21
79.0790499
0
LINE
8
DEFAULT_255_2_778
10
77.1848491
20
79.0790499
11
78.4847491
21
76.8274499
0
LINE
8
DEFAULT_255_2_778
10
78.4847491
20
76.8274499
11
77.6658491
21
76.1403499
0
LINE
8
DEFAULT_255_2_778
10
77.6658491
20
76.1403499
11
77.6552491
21
76.1175499
0
LINE
8
DEFAULT_255_2_778
10
76.1554146
20
78.7155042
11
75.4828146
21
78.3271042
0
LINE
8
DEFAULT_255_2_778
10
71.9379406
20
78.8282479
11
71.2579406
21
76.2906479
0
LINE
8
DEFAULT_255_2_778
10
71.2579406
20
76.2906479
11
71.2164406
21
76.2665479
0
LINE
8
DEFAULT_255_2_778
10
79.1478646
20
76.9790406
11
76.9827646
21
75.7291406
0
LINE
8
DEFAULT_255_2_778
10
76.9827646
20
75.7291406
11
74.9827646
21
79.1933406
0
LINE
8
DEFAULT_255_2_778
10
74.9827646
20
79.1933406
11
77.1478646
21
80.4432406
0
ARC
8
DEFAULT_255_2_778
10
71.8805295
20
79.9277077
40
0.5002829
50
90.0086986
51
149.9812943
0
ARC
8
DEFAULT_255_2_778
10
71.8805463
20
79.9279667
40
0.5001678
50
150.0079494
51
179.965911
0
LINE
8
DEFAULT_255_2_778
10
71.3803787
20
79.9282643
11
71.3803786
21
79.927903
0
ARC
8
DEFAULT_255_2_778
10
71.8801403
20
79.9278053
40
0.4997617
50
179.9888012
51
210.0044964
0
LINE
8
DEFAULT_255_2_778
10
71.2166536
20
73.6281905
11
80.2167536
21
73.6281905
0
LINE
8
DEFAULT_255_2_778
10
80.2167536
20
73.6281905
11
80.2167536
21
75.1280905
0
LINE
8
DEFAULT_255_2_778
10
80.2167536
20
75.1280905
11
76.5794536
21
81.4280905
0
LINE
8
DEFAULT_255_2_778
10
76.5794536
20
81.4280905
11
75.0795536
21
81.4280905
0
LINE
8
DEFAULT_255_2_778
10
75.0795536
20
81.4280905
11
74.0794536
21
80.4279905
0
LINE
8
DEFAULT_255_2_778
10
74.0794536
20
80.4279905
11
71.8804536
21
80.4279905
0
LINE
8
DEFAULT_255_2_778
10
71.4473536
20
79.6778905
11
74.9403536
21
73.6278905
0
LINE
8
DEFAULT_255_2_778
10
74.0165706
20
75.2281
11
71.2164706
21
75.2281
0
LINE
8
DEFAULT_255_2_778
10
6.0164323
20
64.0192996
11
7.6163323
21
64.0192996
0
LINE
8
DEFAULT_255_2_778
10
7.6163323
20
64.0192996
11
7.6163323
21
38.6192996
0
LINE
8
DEFAULT_255_2_778
10
7.6163323
20
38.6192996
11
6.0164323
21
38.6192996
0
ARC
8
DEFAULT_255_2_778
10
58.4000317
20
3.3242969
40
1.7952512
50
299.9527889
51
325.666148
0
ARC
8
DEFAULT_255_2_778
10
58.3931774
20
3.3287918
40
1.8034465
50
325.6710455
51
359.9710604
0
ARC
8
DEFAULT_255_2_778
10
58.4036297
20
3.32788
40
1.7929939
50
0.0000268
51
7.0132788
0
ARC
8
DEFAULT_255_2_778
10
58.3942254
20
3.3264996
40
1.8024967
50
7.0203294
51
16.3324471
0
ARC
8
DEFAULT_255_2_778
10
58.3763743
20
3.3216141
40
1.8210012
50
16.3220156
51
17.8541702
0
ARC
8
DEFAULT_255_2_778
10
58.4014662
20
3.3313772
40
1.7941251
50
17.8030797
51
47.280892
0
ARC
8
DEFAULT_255_2_778
10
58.3968344
20
3.3281681
40
1.7996254
50
47.2418637
51
89.971905
0
ARC
8
DEFAULT_255_2_778
10
58.3978722
20
3.3170476
40
1.8107456
50
90.0049177
51
95.7366811
0
LINE
8
DEFAULT_255_2_778
10
51.7565759
20
1.3190246
11
51.7565759
21
0.9190246
0
LINE
8
DEFAULT_255_2_778
10
51.7565759
20
0.9190246
11
52.3566759
21
0.9190246
0
LINE
8
DEFAULT_255_2_778
10
52.3566759
20
0.9190246
11
52.3566759
21
0.5189246
0
LINE
8
DEFAULT_255_2_778
10
52.3566759
20
0.5189246
11
53.1567759
21
0.5189246
0
LINE
8
DEFAULT_255_2_778
10
53.1567759
20
0.5189246
11
53.1567759
21
0.1189246
0
LINE
8
DEFAULT_255_2_778
10
53.1567759
20
0.1189246
11
53.9568759
21
0.1189246
0
LINE
8
DEFAULT_255_2_778
10
53.9568759
20
0.1189246
11
53.9568759
21
-0.1810754
0
LINE
8
DEFAULT_255_2_778
10
53.9568759
20
-0.1810754
11
57.0167759
21
-0.1810754
0
LINE
8
DEFAULT_255_2_778
10
57.0167759
20
-0.1810754
11
58.5166759
21
1.3188246
0
LINE
8
DEFAULT_255_2_778
10
58.5166759
20
1.3188246
11
59.2963759
21
1.7688246
0
LINE
8
DEFAULT_255_2_778
10
58.2168759
20
5.1187246
11
58.2168759
21
8.2278246
0
LINE
8
DEFAULT_255_2_778
10
58.2168759
20
8.2278246
11
54.1668759
21
8.2278246
0
LINE
8
DEFAULT_255_2_778
10
54.1668759
20
8.2278246
11
54.1668759
21
70.9280246
0
LINE
8
DEFAULT_255_2_778
10
54.1668759
20
70.9280246
11
58.2168759
21
70.9280246
0
LINE
8
DEFAULT_255_2_778
10
58.2168759
20
70.9280246
11
58.2168759
21
74.3189246
0
LINE
8
DEFAULT_255_2_778
10
58.2168759
20
74.3189246
11
71.2168759
21
74.3189246
0
LINE
8
DEFAULT_255_2_778
10
71.2168759
20
74.3189246
11
71.2168759
21
96.8191246
0
LINE
8
DEFAULT_255_2_778
10
71.2168759
20
96.8191246
11
70.7168759
21
96.8191246
0
LINE
8
DEFAULT_255_2_778
10
70.7168759
20
96.8191246
11
66.2168759
21
101.3191246
0
LINE
8
DEFAULT_255_2_778
10
66.2168759
20
101.3191246
11
4.1164759
21
101.3191246
0
LINE
8
DEFAULT_255_2_778
10
59.9779821
20
2.4692
11
0.2165821
21
2.4692
0
LINE
8
DEFAULT_255_2_778
10
68.3666749
20
99.1692
11
0.2165749
21
99.1692
0
LINE
8
DEFAULT_255_2_778
10
16.0163271
20
49.9992509
11
12.2164271
21
49.9992509
0
LINE
8
DEFAULT_255_2_778
10
12.2164271
20
49.9992509
11
12.2164271
21
39.8691509
0
LINE
8
DEFAULT_255_2_778
10
12.2164271
20
39.8691509
11
16.0163271
21
39.8691509
0
LINE
8
DEFAULT_255_2_778
10
16.0163271
20
91.7692484
11
12.2164271
21
91.7692484
0
LINE
8
DEFAULT_255_2_778
10
12.2164271
20
91.7692484
11
12.2164271
21
52.3693484
0
LINE
8
DEFAULT_255_2_778
10
12.2164271
20
52.3693484
11
16.0163271
21
52.3693484
0
LINE
8
DEFAULT_255_2_778
10
3.0667
20
33.4506041
11
3.0667
21
36.1250041
0
LINE
8
DEFAULT_255_2_778
10
0.6120813
20
33.1651572
11
3.7666813
21
36.9690572
0
LINE
8
DEFAULT_255_2_778
10
3.7666813
20
36.9690572
11
4.6167813
21
36.9690572
0
LINE
8
DEFAULT_255_2_778
10
4.6167813
20
36.9690572
11
5.2300813
21
33.6191572
0
LINE
8
DEFAULT_255_2_778
10
4.7165511
20
48.2191
11
7.6166511
21
48.2191
0
LINE
8
DEFAULT_255_2_778
10
6.0164323
20
61.3192
11
7.6163323
21
61.3192
0
LINE
8
DEFAULT_255_2_778
10
6.0164323
20
43.4191
11
7.6163323
21
43.4191
0
LINE
8
DEFAULT_255_2_778
10
4.1165936
20
99.1691475
11
4.1165936
21
105.8191475
0
LINE
8
DEFAULT_255_2_778
10
4.1165936
20
105.8191475
11
0.2165936
21
105.8191475
0
LINE
8
DEFAULT_255_2_778
10
0.2165936
20
105.8191475
11
0.2165936
21
69.5191475
0
LINE
8
DEFAULT_255_2_778
10
0.2165936
20
69.5191475
11
4.5165936
21
69.0190475
0
LINE
8
DEFAULT_255_2_778
10
4.5165936
20
69.0190475
11
6.0164936
21
69.0190475
0
LINE
8
DEFAULT_255_2_778
10
6.0164936
20
69.0190475
11
6.0164936
21
55.4189475
0
LINE
8
DEFAULT_255_2_778
10
6.0164936
20
55.4189475
11
4.7165936
21
55.4189475
0
LINE
8
DEFAULT_255_2_778
10
4.7165936
20
55.4189475
11
4.7165936
21
47.2189475
0
LINE
8
DEFAULT_255_2_778
10
4.7165936
20
47.2189475
11
6.0164936
21
47.2189475
0
LINE
8
DEFAULT_255_2_778
10
6.0164936
20
47.2189475
11
6.0164936
21
33.6188475
0
LINE
8
DEFAULT_255_2_778
10
6.0164936
20
33.6188475
11
4.5165936
21
33.6188475
0
LINE
8
DEFAULT_255_2_778
10
4.5165936
20
33.6188475
11
0.2165936
21
33.1190475
0
LINE
8
DEFAULT_255_2_778
10
0.2165936
20
33.1190475
11
0.2165936
21
1.3190475
0
LINE
8
DEFAULT_255_2_778
10
0.2165936
20
1.3190475
11
61.7165936
21
1.3190475
0
LINE
8
DEFAULT_255_2_778
10
61.7165936
20
1.3190475
11
61.7165936
21
2.2781475
0
LINE
8
DEFAULT_255_2_778
10
60.3134948
20
3.2418292
11
60.1962948
21
3.3191292
0
LINE
8
DEFAULT_255_2_778
10
65.7165522
20
101.3191937
11
64.2166522
21
102.8190937
0
LINE
8
DEFAULT_255_2_778
10
64.2166522
20
102.8190937
11
61.3165522
21
102.8190937
0
LINE
8
DEFAULT_255_2_778
10
61.3165522
20
102.8190937
11
61.3165522
21
102.5190937
0
LINE
8
DEFAULT_255_2_778
10
61.3165522
20
102.5190937
11
60.5164522
21
102.5190937
0
LINE
8
DEFAULT_255_2_778
10
60.5164522
20
102.5190937
11
60.5164522
21
102.1189937
0
LINE
8
DEFAULT_255_2_778
10
60.5164522
20
102.1189937
11
59.7162522
21
102.1189937
0
LINE
8
DEFAULT_255_2_778
10
59.7162522
20
102.1189937
11
59.7162522
21
101.7189937
0
LINE
8
DEFAULT_255_2_778
10
59.7162522
20
101.7189937
11
59.1162522
21
101.7189937
0
LINE
8
DEFAULT_255_2_778
10
59.1162522
20
101.7189937
11
59.1162522
21
101.3188937
0
ARC
8
DEFAULT_255_2_778
10
58.2227611
20
3.1301859
40
2.0939327
50
359.9481694
51
23.6165261
0
ARC
8
DEFAULT_255_2_778
10
58.2141694
20
3.1250504
40
2.1038624
50
23.6509349
51
79.9477957
0
ARC
8
DEFAULT_255_2_778
10
58.216835
20
3.1145926
40
2.113699
50
80.0684215
51
90.0038509
0
LINE
8
DEFAULT_255_2_778
10
58.2166929
20
74.1281917
11
71.2166929
21
74.1281917
0
LINE
8
DEFAULT_255_2_778
10
71.2166929
20
74.1281917
11
71.2166929
21
5.7481917
0
LINE
8
DEFAULT_255_2_778
10
71.2166929
20
5.7481917
11
69.9167929
21
5.7481917
0
LINE
8
DEFAULT_255_2_778
10
69.9167929
20
5.7481917
11
69.9167929
21
2.2781917
0
LINE
8
DEFAULT_255_2_778
10
69.9167929
20
2.2781917
11
60.3166929
21
2.2781917
0
LINE
8
DEFAULT_255_2_778
10
60.3166929
20
2.2781917
11
60.3166929
21
3.1282917
0
LINE
8
DEFAULT_255_2_778
10
58.2166929
20
5.2282917
11
58.2166929
21
8.2283917
0
LINE
8
DEFAULT_255_2_778
10
58.2166929
20
8.2283917
11
54.1666929
21
8.2283917
0
LINE
8
DEFAULT_255_2_778
10
54.1666929
20
8.2283917
11
54.1666929
21
70.9282917
0
LINE
8
DEFAULT_255_2_778
10
54.1666929
20
70.9282917
11
58.2166929
21
70.9282917
0
LINE
8
DEFAULT_255_2_778
10
59.9549646
20
4.2282
11
60.0052646
21
4.2282
0
ARC
8
DEFAULT_255_2_778
10
64.4821212
20
3.6584907
40
2.5154725
50
278.710678
51
279.9973213
0
ARC
8
DEFAULT_255_2_778
10
64.4840965
20
3.6441367
40
2.500985
50
270.5448734
51
278.7157476
0
ARC
8
DEFAULT_255_2_778
10
64.4843115
20
3.6408695
40
2.4977159
50
270.0001289
51
270.5406557
0
ARC
8
DEFAULT_255_2_778
10
64.4850224
20
3.6437316
40
2.5005783
50
214.2438517
51
269.9838382
0
ARC
8
DEFAULT_255_2_778
10
64.4971217
20
3.6515137
40
2.5149592
50
213.0966328
51
214.2353004
0
LINE
8
DEFAULT_255_2_778
10
69.2514126
20
2.2782134
11
68.9852126
21
1.8983134
0
LINE
8
DEFAULT_255_2_778
10
68.9852126
20
1.8983134
11
64.9188126
21
1.1812134
0
LINE
8
DEFAULT_255_2_778
10
4.4636511
20
69.0251468
11
4.4162511
21
65.6689468
0
LINE
8
DEFAULT_255_2_778
10
4.4162511
20
65.6689468
11
3.6164511
21
65.6689468
0
LINE
8
DEFAULT_255_2_778
10
3.6164511
20
65.6689468
11
0.4459511
21
69.4924468
0
LINE
8
DEFAULT_255_2_778
10
2.3166
20
67.2368427
11
2.3166
21
69.2749427
0
LINE
8
DEFAULT_255_2_778
10
4.1165209
20
104.3193
11
0.2165209
21
104.3193
0
LINE
8
DEFAULT_255_2_778
10
16.0167
20
38.8690607
11
16.0167
21
92.7691607
0
LINE
8
DEFAULT_255_2_778
10
11.7167
20
92.7691607
11
11.7167
21
38.8690607
0
LINE
8
DEFAULT_255_2_778
10
19.0165179
20
38.8690607
11
8.7165179
21
38.8690607
0
LINE
8
DEFAULT_255_2_778
10
8.7165179
20
38.8690607
11
8.7165179
21
92.7691607
0
LINE
8
DEFAULT_255_2_778
10
8.7165179
20
92.7691607
11
19.0165179
21
92.7691607
0
LINE
8
DEFAULT_255_2_778
10
19.0165179
20
92.7691607
11
19.0165179
21
38.8690607
0
ENDSEC
0
EOF