0
SECTION
2
HEADER
9
$MEASUREMENT
70
1
0
ENDSEC
0
SECTION
2
TABLES
0
TABLE
2
LTYPE
0
LTYPE
72
65
70
64
2
CONTINUOUS
3
______
73
0
40
0
0
ENDTAB
0
TABLE
2
LAYER
0
LAYER
2
DEFAULT_255_2_778
70
0
62
255
6
CONTINUOUS
0
LAYER
2
DEFAULT_255_1_234
70
0
62
255
6
CONTINUOUS
0
ENDTAB
0
ENDSEC
0
SECTION
2
ENTITIES
0
ARC
8
DEFAULT_255_2_778
10
3.5700693
20
59.9302032
40
0.7914215
50
129.1312896
51
180.1450914
0
ARC
8
DEFAULT_255_2_778
10
3.5703345
20
59.9306904
40
0.7912112
50
89.854026
51
129.1684493
0
ARC
8
DEFAULT_255_2_778
10
25.7993937
20
59.9303769
40
0.7915249
50
39.4792447
51
90.147911
0
ARC
8
DEFAULT_255_2_778
10
25.7999935
20
59.9302236
40
0.7911595
50
359.8533901
51
39.5154338
0
ARC
8
DEFAULT_255_2_778
10
25.7996693
20
-1.986349
40
0.7914836
50
309.4761667
51
0.1482649
0
ARC
8
DEFAULT_255_2_778
10
25.799398
20
-1.9867801
40
0.7913235
50
269.8517415
51
309.511178
0
ARC
8
DEFAULT_255_2_778
10
3.570342
20
-1.9867219
40
0.7913815
50
219.1282118
51
270.1454017
0
ARC
8
DEFAULT_255_2_778
10
3.5700247
20
-1.9863394
40
0.7913769
50
179.8524075
51
219.1641908
0
LINE
8
DEFAULT_255_2_778
10
3.5723503
20
60.7218991
11
25.7973503
21
60.7218991
0
LINE
8
DEFAULT_255_2_778
10
26.5911503
20
59.9281991
11
26.5911503
21
-1.9843009
0
LINE
8
DEFAULT_255_2_778
10
25.7973503
20
-2.7781009
11
3.5723503
21
-2.7781009
0
LINE
8
DEFAULT_255_2_778
10
2.7786503
20
-1.9843009
11
2.7786503
21
59.9281991
0
LINE
8
DEFAULT_255_1_234
10
10.9506879
20
0.5181211
11
10.9506879
21
-0.6513
0
LINE
8
DEFAULT_255_1_234
10
10.9506879
20
-0.6513
11
10.7956753
21
-0.6513
0
LINE
8
DEFAULT_255_1_234
10
10.7956753
20
-0.6513
11
10.2069489
21
0.249861
0
LINE
8
DEFAULT_255_1_234
10
10.2069489
20
0.249861
11
10.2069489
21
-0.6513
0
LINE
8
DEFAULT_255_1_234
10
10.2069489
20
-0.6513
11
10.0519364
21
-0.6513
0
LINE
8
DEFAULT_255_1_234
10
10.0519364
20
-0.6513
11
10.0519364
21
0.5181211
0
LINE
8
DEFAULT_255_1_234
10
10.0519364
20
0.5181211
11
10.2069489
21
0.5181211
0
LINE
8
DEFAULT_255_1_234
10
10.2069489
20
0.5181211
11
10.7972817
21
-0.3870558
0
LINE
8
DEFAULT_255_1_234
10
10.7972817
20
-0.3870558
11
10.7972817
21
0.5181211
0
LINE
8
DEFAULT_255_1_234
10
10.7972817
20
0.5181211
11
10.9506879
21
0.5181211
0
LINE
8
DEFAULT_255_1_234
10
11.3378177
20
0.5181211
11
11.6197317
21
0.0699501
0
LINE
8
DEFAULT_255_1_234
10
11.6197317
20
0.0699501
11
11.9000394
21
0.5181211
0
LINE
8
DEFAULT_255_1_234
10
11.9000394
20
0.5181211
11
12.0815566
21
0.5181211
0
LINE
8
DEFAULT_255_1_234
10
12.0815566
20
0.5181211
11
11.7120967
21
-0.0617704
0
LINE
8
DEFAULT_255_1_234
10
11.7120967
20
-0.0617704
11
12.0903916
21
-0.6513
0
LINE
8
DEFAULT_255_1_234
10
12.0903916
20
-0.6513
11
11.9072679
21
-0.6513
0
LINE
8
DEFAULT_255_1_234
10
11.9072679
20
-0.6513
11
11.6197317
21
-0.1950973
0
LINE
8
DEFAULT_255_1_234
10
11.6197317
20
-0.1950973
11
11.3305891
21
-0.6513
0
LINE
8
DEFAULT_255_1_234
10
11.3305891
20
-0.6513
11
11.1482687
21
-0.6513
0
LINE
8
DEFAULT_255_1_234
10
11.1482687
20
-0.6513
11
11.5273667
21
-0.0617704
0
LINE
8
DEFAULT_255_1_234
10
11.5273667
20
-0.0617704
11
11.1571036
21
0.5181211
0
LINE
8
DEFAULT_255_1_234
10
11.1571036
20
0.5181211
11
11.3378177
21
0.5181211
0
LINE
8
DEFAULT_255_1_234
10
12.5184832
20
-0.0938974
11
12.5184832
21
-0.2151766
0
LINE
8
DEFAULT_255_1_234
10
12.5184832
20
-0.2151766
11
12.1265344
21
-0.2151766
0
LINE
8
DEFAULT_255_1_234
10
12.1265344
20
-0.2151766
11
12.1265344
21
-0.0938974
0
LINE
8
DEFAULT_255_1_234
10
12.1265344
20
-0.0938974
11
12.5184832
21
-0.0938974
0
LINE
8
DEFAULT_255_1_234
10
13.3473586
20
0.0153343
11
13.3473586
21
-0.110764
0
LINE
8
DEFAULT_255_1_234
10
13.3473586
20
-0.110764
11
12.8405559
21
-0.110764
0
LINE
8
DEFAULT_255_1_234
10
12.8405559
20
-0.110764
11
12.8405559
21
-0.5252017
0
LINE
8
DEFAULT_255_1_234
10
12.8405559
20
-0.5252017
11
13.4292823
21
-0.5252017
0
LINE
8
DEFAULT_255_1_234
10
13.4292823
20
-0.5252017
11
13.4292823
21
-0.6513
0
LINE
8
DEFAULT_255_1_234
10
13.4292823
20
-0.6513
11
12.6863465
21
-0.6513
0
LINE
8
DEFAULT_255_1_234
10
12.6863465
20
-0.6513
11
12.6863465
21
0.5181211
0
LINE
8
DEFAULT_255_1_234
10
12.6863465
20
0.5181211
11
13.4212506
21
0.5181211
0
LINE
8
DEFAULT_255_1_234
10
13.4212506
20
0.5181211
11
13.4212506
21
0.3912196
0
LINE
8
DEFAULT_255_1_234
10
13.4212506
20
0.3912196
11
12.8405559
21
0.3912196
0
LINE
8
DEFAULT_255_1_234
10
12.8405559
20
0.3912196
11
12.8405559
21
0.0153343
0
LINE
8
DEFAULT_255_1_234
10
12.8405559
20
0.0153343
11
13.3473586
21
0.0153343
0
LINE
8
DEFAULT_255_1_234
10
14.3264275
20
-0.2802337
11
14.48144
21
-0.2802337
0
LINE
8
DEFAULT_255_1_234
10
13.5810822
20
-0.1212053
11
13.5810822
21
-0.0087609
0
LINE
8
DEFAULT_255_1_234
10
14.48144
20
0.1422357
11
14.3264275
21
0.1422357
0
LINE
8
DEFAULT_255_1_234
10
13.7360947
20
-0.0127768
11
13.7360947
21
-0.1260243
0
ARC
8
DEFAULT_255_1_234
10
13.9333787
20
-0.2205154
40
0.5513052
50
340.1774281
51
353.7814284
0
ARC
8
DEFAULT_255_1_234
10
14.0905139
20
-0.2790418
40
0.3836379
50
311.4558989
51
340.4421614
0
ARC
8
DEFAULT_255_1_234
10
14.0871808
20
-0.2679472
40
0.3941894
50
282.4333181
51
310.7513653
0
ARC
8
DEFAULT_255_1_234
10
14.0432547
20
-0.0864321
40
0.5809175
50
269.9358511
51
282.809604
0
ARC
8
DEFAULT_255_1_234
10
14.0380613
20
0.0593212
40
0.7266847
50
270.0021091
51
270.3581957
0
ARC
8
DEFAULT_255_1_234
10
14.032803
20
-0.2007415
40
0.4666519
50
250.7884749
51
270.6489167
0
ARC
8
DEFAULT_255_1_234
10
14.0159865
20
-0.2644681
40
0.4009729
50
219.3627325
51
250.0611886
0
ARC
8
DEFAULT_255_1_234
10
14.0989076
20
-0.1939958
40
0.5097822
50
193.5479632
51
219.5756669
0
ARC
8
DEFAULT_255_1_234
10
14.3360697
20
-0.1324081
40
0.7547848
50
181.1218675
51
193.87563
0
ARC
8
DEFAULT_255_1_234
10
14.5430878
20
-0.121342
40
0.9620055
50
179.9918545
51
181.5394234
0
ARC
8
DEFAULT_255_1_234
10
14.357998
20
-0.0050212
40
0.7769248
50
169.5837241
51
180.2757934
0
ARC
8
DEFAULT_255_1_234
10
14.1742918
20
0.0289229
40
0.590109
50
155.0365899
51
169.6003176
0
ARC
8
DEFAULT_255_1_234
10
14.0607382
20
0.0836677
40
0.4640625
50
136.783148
51
155.2472683
0
ARC
8
DEFAULT_255_1_234
10
14.0217859
20
0.1167562
40
0.4130255
50
121.7633186
51
136.428115
0
ARC
8
DEFAULT_255_1_234
10
14.0352821
20
0.0918227
40
0.4413323
50
95.6459699
51
121.5490577
0
ARC
8
DEFAULT_255_1_234
10
14.0510103
20
-0.0190051
40
0.55319
50
89.924208
51
96.1377933
0
ARC
8
DEFAULT_255_1_234
10
14.0560536
20
-0.0071458
40
0.5413475
50
76.6779277
51
90.4563316
0
ARC
8
DEFAULT_255_1_234
10
14.0954159
20
0.1519114
40
0.3775041
50
47.485847
51
76.9287264
0
ARC
8
DEFAULT_255_1_234
10
14.0807132
20
0.1419159
40
0.3948286
50
16.5424086
51
46.8933463
0
ARC
8
DEFAULT_255_1_234
10
13.9199289
20
0.0890861
40
0.564021
50
5.4072051
51
17.0365086
0
ARC
8
DEFAULT_255_1_234
10
13.7760306
20
0.0659679
40
0.5556559
50
7.8891745
51
15.9239216
0
ARC
8
DEFAULT_255_1_234
10
13.9747319
20
0.1236631
40
0.3487515
50
15.7653144
51
27.9410532
0
ARC
8
DEFAULT_255_1_234
10
14.0851537
20
0.182779
40
0.2235026
50
27.8166557
51
46.4008329
0
ARC
8
DEFAULT_255_1_234
10
14.090118
20
0.1822082
40
0.2205286
50
47.4371857
51
75.0698205
0
ARC
8
DEFAULT_255_1_234
10
14.0592574
20
0.0747765
40
0.3322915
50
74.7008593
51
87.8124495
0
ARC
8
DEFAULT_255_1_234
10
14.0519262
20
-0.0308156
40
0.4380987
50
87.3814673
51
90.0240855
0
ARC
8
DEFAULT_255_1_234
10
14.0480805
20
0.0869291
40
0.3203749
50
89.3451631
51
108.5745436
0
ARC
8
DEFAULT_255_1_234
10
14.034391
20
0.1382908
40
0.2673494
50
109.2998449
51
143.3037509
0
ARC
8
DEFAULT_255_1_234
10
14.1105983
20
0.0796881
40
0.3634757
50
143.0753173
51
163.1916937
0
ARC
8
DEFAULT_255_1_234
10
14.3057711
20
0.0180967
40
0.5681262
50
162.9373603
51
174.6208611
0
ARC
8
DEFAULT_255_1_234
10
14.5683753
20
-0.010699
40
0.8322832
50
174.3419979
51
180.1430411
0
ARC
8
DEFAULT_255_1_234
10
14.4752909
20
-0.1301302
40
0.7392076
50
179.6817502
51
189.150529
0
ARC
8
DEFAULT_255_1_234
10
14.2252157
20
-0.171781
40
0.4856932
50
188.9910863
51
203.5773039
0
ARC
8
DEFAULT_255_1_234
10
14.117249
20
-0.2165789
40
0.3688271
50
203.9077269
51
215.1312379
0
ARC
8
DEFAULT_255_1_234
10
14.0249584
20
-0.2881059
40
0.2522457
50
213.9071664
51
263.8849284
0
ARC
8
DEFAULT_255_1_234
10
14.0374913
20
-0.2096482
40
0.3316174
50
263.1758525
51
270.1031083
0
ARC
8
DEFAULT_255_1_234
10
14.0407004
20
-0.0849635
40
0.4563091
50
269.6719807
51
279.0609165
0
ARC
8
DEFAULT_255_1_234
10
14.0673773
20
-0.2462093
40
0.2928759
50
278.8750225
51
293.6346586
0
ARC
8
DEFAULT_255_1_234
10
14.0993981
20
-0.32141
40
0.2111472
50
293.8553404
51
310.0518804
0
ARC
8
DEFAULT_255_1_234
10
14.0998835
20
-0.3276484
40
0.2060917
50
311.0646779
51
332.0108348
0
ARC
8
DEFAULT_255_1_234
10
13.9806562
20
-0.2619022
40
0.3422352
50
331.6588543
51
343.2878891
0
ARC
8
DEFAULT_255_1_234
10
13.7744077
20
-0.1985202
40
0.5580003
50
343.1446044
51
351.010618
0
ARC
8
DEFAULT_255_1_234
10
13.6202723
20
-0.1704129
40
0.7146438
50
350.7157277
51
351.1602153
0
LINE
8
DEFAULT_255_1_234
10
15.3970582
20
-0.2802337
11
15.5520708
21
-0.2802337
0
LINE
8
DEFAULT_255_1_234
10
14.6517129
20
-0.1212053
11
14.6517129
21
-0.0087609
0
LINE
8
DEFAULT_255_1_234
10
15.5520708
20
0.1422357
11
15.3970582
21
0.1422357
0
LINE
8
DEFAULT_255_1_234
10
14.8067254
20
-0.0127768
11
14.8067254
21
-0.1260243
0
ARC
8
DEFAULT_255_1_234
10
15.0040094
20
-0.2205154
40
0.5513052
50
340.1774281
51
353.7814284
0
ARC
8
DEFAULT_255_1_234
10
15.1611447
20
-0.2790418
40
0.3836379
50
311.4558989
51
340.4421614
0
ARC
8
DEFAULT_255_1_234
10
15.1578115
20
-0.2679472
40
0.3941894
50
282.4333181
51
310.7513653
0
ARC
8
DEFAULT_255_1_234
10
15.1138854
20
-0.0864321
40
0.5809175
50
269.9358511
51
282.809604
0
ARC
8
DEFAULT_255_1_234
10
15.108692
20
0.0593212
40
0.7266847
50
270.0021091
51
270.3581957
0
ARC
8
DEFAULT_255_1_234
10
15.1034337
20
-0.2007415
40
0.4666519
50
250.7884749
51
270.6489167
0
ARC
8
DEFAULT_255_1_234
10
15.0866172
20
-0.2644681
40
0.4009729
50
219.3627325
51
250.0611886
0
ARC
8
DEFAULT_255_1_234
10
15.1695383
20
-0.1939958
40
0.5097822
50
193.5479632
51
219.5756669
0
ARC
8
DEFAULT_255_1_234
10
15.4067004
20
-0.1324081
40
0.7547848
50
181.1218675
51
193.87563
0
ARC
8
DEFAULT_255_1_234
10
15.6137185
20
-0.121342
40
0.9620055
50
179.9918545
51
181.5394234
0
ARC
8
DEFAULT_255_1_234
10
15.4286287
20
-0.0050212
40
0.7769248
50
169.5837241
51
180.2757934
0
ARC
8
DEFAULT_255_1_234
10
15.2449225
20
0.0289229
40
0.590109
50
155.0365899
51
169.6003176
0
ARC
8
DEFAULT_255_1_234
10
15.1313689
20
0.0836677
40
0.4640625
50
136.783148
51
155.2472683
0
ARC
8
DEFAULT_255_1_234
10
15.0924166
20
0.1167562
40
0.4130255
50
121.7633186
51
136.428115
0
ARC
8
DEFAULT_255_1_234
10
15.1059128
20
0.0918227
40
0.4413323
50
95.6459699
51
121.5490577
0
ARC
8
DEFAULT_255_1_234
10
15.121641
20
-0.0190051
40
0.55319
50
89.924208
51
96.1377933
0
ARC
8
DEFAULT_255_1_234
10
15.1266843
20
-0.0071458
40
0.5413475
50
76.6779277
51
90.4563316
0
ARC
8
DEFAULT_255_1_234
10
15.1660466
20
0.1519114
40
0.3775041
50
47.485847
51
76.9287264
0
ARC
8
DEFAULT_255_1_234
10
15.1513439
20
0.1419159
40
0.3948286
50
16.5424086
51
46.8933463
0
ARC
8
DEFAULT_255_1_234
10
14.9905596
20
0.0890861
40
0.564021
50
5.4072051
51
17.0365086
0
ARC
8
DEFAULT_255_1_234
10
14.8466613
20
0.0659679
40
0.5556559
50
7.8891745
51
15.9239216
0
ARC
8
DEFAULT_255_1_234
10
15.0453627
20
0.1236631
40
0.3487515
50
15.7653144
51
27.9410532
0
ARC
8
DEFAULT_255_1_234
10
15.1557844
20
0.182779
40
0.2235026
50
27.8166557
51
46.4008329
0
ARC
8
DEFAULT_255_1_234
10
15.1607487
20
0.1822082
40
0.2205286
50
47.4371857
51
75.0698205
0
ARC
8
DEFAULT_255_1_234
10
15.1298882
20
0.0747765
40
0.3322915
50
74.7008593
51
87.8124495
0
ARC
8
DEFAULT_255_1_234
10
15.1225569
20
-0.0308156
40
0.4380987
50
87.3814673
51
90.0240855
0
ARC
8
DEFAULT_255_1_234
10
15.1187112
20
0.0869291
40
0.3203749
50
89.3451631
51
108.5745436
0
ARC
8
DEFAULT_255_1_234
10
15.1050218
20
0.1382908
40
0.2673494
50
109.2998449
51
143.3037509
0
ARC
8
DEFAULT_255_1_234
10
15.181229
20
0.0796881
40
0.3634757
50
143.0753173
51
163.1916937
0
ARC
8
DEFAULT_255_1_234
10
15.3764018
20
0.0180967
40
0.5681262
50
162.9373603
51
174.6208611
0
ARC
8
DEFAULT_255_1_234
10
15.639006
20
-0.010699
40
0.8322832
50
174.3419979
51
180.1430411
0
ARC
8
DEFAULT_255_1_234
10
15.5459216
20
-0.1301302
40
0.7392076
50
179.6817502
51
189.150529
0
ARC
8
DEFAULT_255_1_234
10
15.2958465
20
-0.171781
40
0.4856932
50
188.9910863
51
203.5773039
0
ARC
8
DEFAULT_255_1_234
10
15.1878797
20
-0.2165789
40
0.3688271
50
203.9077269
51
215.1312379
0
ARC
8
DEFAULT_255_1_234
10
15.0955891
20
-0.2881059
40
0.2522457
50
213.9071664
51
263.8849284
0
ARC
8
DEFAULT_255_1_234
10
15.108122
20
-0.2096482
40
0.3316174
50
263.1758525
51
270.1031083
0
ARC
8
DEFAULT_255_1_234
10
15.1113312
20
-0.0849635
40
0.4563091
50
269.6719807
51
279.0609165
0
ARC
8
DEFAULT_255_1_234
10
15.138008
20
-0.2462093
40
0.2928759
50
278.8750225
51
293.6346586
0
ARC
8
DEFAULT_255_1_234
10
15.1700288
20
-0.32141
40
0.2111472
50
293.8553404
51
310.0518804
0
ARC
8
DEFAULT_255_1_234
10
15.1705142
20
-0.3276484
40
0.2060917
50
311.0646779
51
332.0108348
0
ARC
8
DEFAULT_255_1_234
10
15.0512869
20
-0.2619022
40
0.3422352
50
331.6588543
51
343.2878891
0
ARC
8
DEFAULT_255_1_234
10
14.8450384
20
-0.1985202
40
0.5580003
50
343.1446044
51
351.010618
0
ARC
8
DEFAULT_255_1_234
10
14.690903
20
-0.1704129
40
0.7146438
50
350.7157277
51
351.1602153
0
LINE
8
DEFAULT_255_1_234
10
16.4901778
20
-0.5300208
11
16.4901778
21
-0.6513
0
LINE
8
DEFAULT_255_1_234
10
16.4901778
20
-0.6513
11
15.72395
21
-0.6513
0
LINE
8
DEFAULT_255_1_234
10
15.72395
20
-0.6513
11
15.72395
21
-0.5444779
0
LINE
8
DEFAULT_255_1_234
10
15.72395
20
-0.5444779
11
16.1287496
21
-0.0947005
0
LINE
8
DEFAULT_255_1_234
10
15.8500482
20
0.1735595
11
15.7014611
21
0.1735595
0
LINE
8
DEFAULT_255_1_234
10
16.2162955
20
-0.1902782
11
15.9030577
21
-0.5300208
0
LINE
8
DEFAULT_255_1_234
10
15.9030577
20
-0.5300208
11
16.4901778
21
-0.5300208
0
ARC
8
DEFAULT_255_1_234
10
14.7797329
20
1.0982527
40
1.8008286
50
318.5132453
51
320.7828378
0
ARC
8
DEFAULT_255_1_234
10
15.3084303
20
0.6679426
40
1.1191493
50
320.7372736
51
323.9737074
0
ARC
8
DEFAULT_255_1_234
10
15.700416
20
0.3839361
40
0.6350923
50
323.8961724
51
328.6421089
0
ARC
8
DEFAULT_255_1_234
10
15.9050755
20
0.2577031
40
0.3946393
50
328.8299013
51
331.789948
0
ARC
8
DEFAULT_255_1_234
10
16.0047934
20
0.2062509
40
0.2824501
50
331.4255242
51
352.9364833
0
ARC
8
DEFAULT_255_1_234
10
16.0184434
20
0.2031976
40
0.2685315
50
353.2248685
51
0.0169286
0
ARC
8
DEFAULT_255_1_234
10
16.0394311
20
0.205495
40
0.2475536
50
359.4866256
51
15.9339782
0
ARC
8
DEFAULT_255_1_234
10
16.0901296
20
0.2191286
40
0.1950618
50
16.1714718
51
43.5284424
0
ARC
8
DEFAULT_255_1_234
10
16.0978605
20
0.2268573
40
0.184134
50
43.4415429
51
83.1661404
0
ARC
8
DEFAULT_255_1_234
10
16.0844523
20
0.1531771
40
0.258926
50
82.160215
51
90.1505798
0
ARC
8
DEFAULT_255_1_234
10
16.0812951
20
0.0994865
40
0.3126255
50
89.5460705
51
102.5418777
0
ARC
8
DEFAULT_255_1_234
10
16.0570037
20
0.2025665
40
0.2067346
50
102.1739365
51
129.2061916
0
ARC
8
DEFAULT_255_1_234
10
16.0491108
20
0.2150094
40
0.1921118
50
129.7279328
51
135.7542026
0
ARC
8
DEFAULT_255_1_234
10
16.0612636
20
0.2053045
40
0.2075944
50
136.175737
51
166.3674722
0
ARC
8
DEFAULT_255_1_234
10
16.1619555
20
0.1783182
40
0.3118201
50
165.9092917
51
178.8683903
0
ARC
8
DEFAULT_255_1_234
10
16.2484417
20
0.1736179
40
0.3983935
50
178.438168
51
180.0083905
0
ARC
8
DEFAULT_255_1_234
10
16.1083019
20
0.1775231
40
0.4068601
50
163.2878735
51
180.5581814
0
ARC
8
DEFAULT_255_1_234
10
16.028128
20
0.199584
40
0.3237344
50
133.454115
51
162.9470031
0
ARC
8
DEFAULT_255_1_234
10
16.0459822
20
0.1806
40
0.349795
50
100.7869394
51
133.4384016
0
ARC
8
DEFAULT_255_1_234
10
16.0807593
20
0.0257319
40
0.5084616
50
89.6605301
51
101.3704185
0
ARC
8
DEFAULT_255_1_234
10
16.0873932
20
0.0318496
40
0.502348
50
78.2171172
51
90.4130393
0
ARC
8
DEFAULT_255_1_234
10
16.122901
20
0.1942637
40
0.3361092
50
55.9268222
51
78.4888551
0
ARC
8
DEFAULT_255_1_234
10
16.142545
20
0.2281324
40
0.2970617
50
47.9292255
51
55.4054003
0
ARC
8
DEFAULT_255_1_234
10
16.1527011
20
0.2384502
40
0.2825983
50
4.3347696
51
48.0560701
0
ARC
8
DEFAULT_255_1_234
10
16.0431405
20
0.2214601
40
0.393225
50
359.925209
51
5.5967654
0
ARC
8
DEFAULT_255_1_234
10
16.0860296
20
0.2270816
40
0.3503892
50
337.8914096
51
358.9967724
0
ARC
8
DEFAULT_255_1_234
10
15.8146708
20
0.3317706
40
0.6412172
50
326.9135351
51
338.3505194
0
ARC
8
DEFAULT_255_1_234
10
15.4161012
20
0.5872284
40
1.1146189
50
319.6472867
51
327.095818
0
ARC
8
DEFAULT_255_1_234
10
15.0328015
20
0.9034
40
1.6114559
50
317.2586784
51
319.9046139
0
LINE
8
DEFAULT_255_1_234
10
17.3808976
20
0.0402327
11
17.3808976
21
-0.1525291
0
LINE
8
DEFAULT_255_1_234
10
16.6427808
20
-0.1726084
11
16.6427808
21
0.0257755
0
LINE
8
DEFAULT_255_1_234
10
17.2323104
20
-0.1926877
11
17.2323104
21
0.0506739
0
LINE
8
DEFAULT_255_1_234
10
16.791368
20
0.0619184
11
16.791368
21
-0.1758211
0
ARC
8
DEFAULT_255_1_234
10
16.1561865
20
-0.1574195
40
1.2247208
50
353.8441951
51
0.2287902
0
ARC
8
DEFAULT_255_1_234
10
16.6201369
20
-0.2092194
40
0.7578929
50
344.4934747
51
353.9765454
0
ARC
8
DEFAULT_255_1_234
10
16.9193959
20
-0.2943019
40
0.4467846
50
329.2803592
51
344.7472793
0
ARC
8
DEFAULT_255_1_234
10
17.0186784
20
-0.3487982
40
0.3336173
50
324.9352394
51
328.6160465
0
ARC
8
DEFAULT_255_1_234
10
17.0563893
20
-0.3751573
40
0.2876076
50
280.580143
51
324.9173126
0
ARC
8
DEFAULT_255_1_234
10
17.0162685
20
-0.2080901
40
0.4592847
50
269.5977311
51
281.6734359
0
ARC
8
DEFAULT_255_1_234
10
17.0090591
20
-0.2200827
40
0.4472986
50
256.6228859
51
270.51044
0
ARC
8
DEFAULT_255_1_234
10
16.9688569
20
-0.3749123
40
0.2873874
50
215.8618325
51
257.2788573
0
ARC
8
DEFAULT_255_1_234
10
17.07096
20
-0.3064023
40
0.4102928
50
197.9693508
51
215.2623606
0
ARC
8
DEFAULT_255_1_234
10
17.3194716
20
-0.2225291
40
0.6725652
50
187.8816417
51
198.2346507
0
ARC
8
DEFAULT_255_1_234
10
17.7152924
20
-0.1653921
40
1.0724845
50
180.8976217
51
188.0055519
0
ARC
8
DEFAULT_255_1_234
10
17.9953112
20
-0.1550223
40
1.3526448
50
180.7449369
51
181.1510016
0
ARC
8
DEFAULT_255_1_234
10
17.8375841
20
0.0306042
40
1.1948131
50
173.7675579
51
180.231553
0
ARC
8
DEFAULT_255_1_234
10
17.3857988
20
0.0816666
40
0.7401564
50
164.3058563
51
173.9002247
0
ARC
8
DEFAULT_255_1_234
10
17.0946057
20
0.1655656
40
0.4371288
50
148.7922025
51
164.568378
0
ARC
8
DEFAULT_255_1_234
10
16.9994509
20
0.2186929
40
0.3282386
50
144.5883898
51
148.1176286
0
ARC
8
DEFAULT_255_1_234
10
16.9651407
20
0.2426315
40
0.2864044
50
101.6440918
51
144.514236
0
ARC
8
DEFAULT_255_1_234
10
17.0076474
20
0.0737069
40
0.4604934
50
89.5284041
51
102.5819763
0
ARC
8
DEFAULT_255_1_234
10
17.0155561
20
0.0698018
40
0.464401
50
77.0437873
51
90.5081339
0
ARC
8
DEFAULT_255_1_234
10
17.0557563
20
0.2340615
40
0.2953195
50
48.2778575
51
77.4994676
0
ARC
8
DEFAULT_255_1_234
10
17.0630194
20
0.2469746
40
0.2808655
50
36.3142134
51
47.6305865
0
ARC
8
DEFAULT_255_1_234
10
16.9761501
20
0.1884515
40
0.3855453
50
18.2931786
51
35.6769206
0
ARC
8
DEFAULT_255_1_234
10
16.721826
20
0.1011593
40
0.654423
50
8.024666
51
18.5605216
0
ARC
8
DEFAULT_255_1_234
10
16.305518
20
0.0396792
40
1.0752407
50
1.1274072
51
8.1718305
0
ARC
8
DEFAULT_255_1_234
10
15.9819371
20
0.0269885
40
1.3990231
50
0.5424119
51
1.3863029
0
ARC
8
DEFAULT_255_1_234
10
16.1640749
20
0.0542342
40
1.0682415
50
359.8090433
51
4.9407866
0
ARC
8
DEFAULT_255_1_234
10
16.5850763
20
0.0918113
40
0.6455691
50
4.8362157
51
12.2904523
0
ARC
8
DEFAULT_255_1_234
10
16.8605878
20
0.1531965
40
0.3633074
50
12.0805627
51
23.8173984
0
ARC
8
DEFAULT_255_1_234
10
16.9779583
20
0.2028919
40
0.2358723
50
24.2871213
51
31.3935614
0
ARC
8
DEFAULT_255_1_234
10
17.030428
20
0.2372233
40
0.1732111
50
30.7407893
51
82.4657128
0
ARC
8
DEFAULT_255_1_234
10
17.0124414
20
0.1488691
40
0.263235
50
81.1060089
51
90.2184952
0
ARC
8
DEFAULT_255_1_234
10
17.0088713
20
0.1746924
40
0.2374236
50
89.3806855
51
105.6762551
0
ARC
8
DEFAULT_255_1_234
10
16.9905344
20
0.2413567
40
0.1682847
50
105.7981136
51
149.7388061
0
ARC
8
DEFAULT_255_1_234
10
17.0969422
20
0.177395
40
0.2924306
50
149.4208916
51
163.6286378
0
ARC
8
DEFAULT_255_1_234
10
17.306031
20
0.113625
40
0.5110213
50
163.3763315
51
172.1410975
0
ARC
8
DEFAULT_255_1_234
10
17.6361029
20
0.0663518
40
0.8444586
50
172.0259487
51
178.0703232
0
ARC
8
DEFAULT_255_1_234
10
17.9391119
20
0.0519906
40
1.1477868
50
177.8631668
51
179.5044149
0
ARC
8
DEFAULT_255_1_234
10
17.8318523
20
-0.1794611
40
1.0404907
50
179.7995573
51
185.2460446
0
ARC
8
DEFAULT_255_1_234
10
17.4275562
20
-0.2177487
40
0.6343885
50
185.1411642
51
193.0079639
0
ARC
8
DEFAULT_255_1_234
10
17.1632035
20
-0.2802359
40
0.3627568
50
192.7897626
51
205.2507664
0
ARC
8
DEFAULT_255_1_234
10
17.0585582
20
-0.3269585
40
0.2481908
50
205.8005384
51
211.2537509
0
ARC
8
DEFAULT_255_1_234
10
17.0062022
20
-0.362042
40
0.1852521
50
210.3789793
51
238.4008143
0
ARC
8
DEFAULT_255_1_234
10
17.0042544
20
-0.3573624
40
0.1882621
50
239.6520629
51
265.9793761
0
ARC
8
DEFAULT_255_1_234
10
17.0127745
20
-0.2901573
40
0.2559272
50
265.1315437
51
270.060332
0
ARC
8
DEFAULT_255_1_234
10
17.0156523
20
-0.3225466
40
0.2235528
50
269.3314664
51
287.2178029
0
ARC
8
DEFAULT_255_1_234
10
17.0294375
20
-0.3728721
40
0.1714108
50
287.7958004
51
329.080874
0
ARC
8
DEFAULT_255_1_234
10
16.9336832
20
-0.313107
40
0.2842745
50
328.6634704
51
343.3325132
0
ARC
8
DEFAULT_255_1_234
10
16.7163852
20
-0.2454137
40
0.5118644
50
343.0499468
51
351.9393422
0
ARC
8
DEFAULT_255_1_234
10
16.3697152
20
-0.1943051
40
0.8622784
50
351.8069023
51
357.7959224
0
ARC
8
DEFAULT_255_1_234
10
16.0461708
20
-0.1775279
40
1.1862365
50
357.5871873
51
359.2677531
0
LINE
8
DEFAULT_255_1_234
10
18.0595794
20
0.5237433
11
18.0595794
21
-0.6513
0
LINE
8
DEFAULT_255_1_234
10
18.0595794
20
-0.6513
11
17.9101891
21
-0.6513
0
LINE
8
DEFAULT_255_1_234
10
17.9101891
20
-0.6513
11
17.9101891
21
0.3390133
0
LINE
8
DEFAULT_255_1_234
10
17.9101891
20
0.3390133
11
17.6106053
21
0.2289785
0
LINE
8
DEFAULT_255_1_234
10
17.6106053
20
0.2289785
11
17.6106053
21
0.3639117
0
LINE
8
DEFAULT_255_1_234
10
17.6106053
20
0.3639117
11
18.0362874
21
0.5237433
0
LINE
8
DEFAULT_255_1_234
10
18.0362874
20
0.5237433
11
18.0595794
21
0.5237433
0
LINE
8
DEFAULT_255_1_234
10
11.6121879
20
55.4191211
11
11.6121879
21
54.2497
0
LINE
8
DEFAULT_255_1_234
10
11.6121879
20
54.2497
11
11.4571753
21
54.2497
0
LINE
8
DEFAULT_255_1_234
10
11.4571753
20
54.2497
11
10.8684489
21
55.150861
0
LINE
8
DEFAULT_255_1_234
10
10.8684489
20
55.150861
11
10.8684489
21
54.2497
0
LINE
8
DEFAULT_255_1_234
10
10.8684489
20
54.2497
11
10.7134364
21
54.2497
0
LINE
8
DEFAULT_255_1_234
10
10.7134364
20
54.2497
11
10.7134364
21
55.4191211
0
LINE
8
DEFAULT_255_1_234
10
10.7134364
20
55.4191211
11
10.8684489
21
55.4191211
0
LINE
8
DEFAULT_255_1_234
10
10.8684489
20
55.4191211
11
11.4587817
21
54.5139442
0
LINE
8
DEFAULT_255_1_234
10
11.4587817
20
54.5139442
11
11.4587817
21
55.4191211
0
LINE
8
DEFAULT_255_1_234
10
11.4587817
20
55.4191211
11
11.6121879
21
55.4191211
0
LINE
8
DEFAULT_255_1_234
10
11.9993177
20
55.4191211
11
12.2812317
21
54.9709501
0
LINE
8
DEFAULT_255_1_234
10
12.2812317
20
54.9709501
11
12.5615394
21
55.4191211
0
LINE
8
DEFAULT_255_1_234
10
12.5615394
20
55.4191211
11
12.7430566
21
55.4191211
0
LINE
8
DEFAULT_255_1_234
10
12.7430566
20
55.4191211
11
12.3735967
21
54.8392296
0
LINE
8
DEFAULT_255_1_234
10
12.3735967
20
54.8392296
11
12.7518916
21
54.2497
0
LINE
8
DEFAULT_255_1_234
10
12.7518916
20
54.2497
11
12.5687679
21
54.2497
0
LINE
8
DEFAULT_255_1_234
10
12.5687679
20
54.2497
11
12.2812317
21
54.7059027
0
LINE
8
DEFAULT_255_1_234
10
12.2812317
20
54.7059027
11
11.9920891
21
54.2497
0
LINE
8
DEFAULT_255_1_234
10
11.9920891
20
54.2497
11
11.8097687
21
54.2497
0
LINE
8
DEFAULT_255_1_234
10
11.8097687
20
54.2497
11
12.1888667
21
54.8392296
0
LINE
8
DEFAULT_255_1_234
10
12.1888667
20
54.8392296
11
11.8186036
21
55.4191211
0
LINE
8
DEFAULT_255_1_234
10
11.8186036
20
55.4191211
11
11.9993177
21
55.4191211
0
LINE
8
DEFAULT_255_1_234
10
13.1799832
20
54.8071026
11
13.1799832
21
54.6858234
0
LINE
8
DEFAULT_255_1_234
10
13.1799832
20
54.6858234
11
12.7880344
21
54.6858234
0
LINE
8
DEFAULT_255_1_234
10
12.7880344
20
54.6858234
11
12.7880344
21
54.8071026
0
LINE
8
DEFAULT_255_1_234
10
12.7880344
20
54.8071026
11
13.1799832
21
54.8071026
0
LINE
8
DEFAULT_255_1_234
10
14.1237125
20
55.0809849
11
13.9686999
21
55.0809849
0
LINE
8
DEFAULT_255_1_234
10
13.2763641
20
54.5886394
11
13.4313766
21
54.5886394
0
ARC
8
DEFAULT_255_1_234
10
14.0345812
20
55.9756768
40
1.252368
50
248.9199003
51
254.1439814
0
ARC
8
DEFAULT_255_1_234
10
13.8665307
20
55.5430234
40
0.788226
50
241.633709
51
249.0064503
0
ARC
8
DEFAULT_255_1_234
10
13.7136701
20
55.2629317
40
0.4691427
50
230.498225
51
241.8087113
0
ARC
8
DEFAULT_255_1_234
10
13.6352275
20
55.1629906
40
0.3421437
50
227.4064532
51
229.9881192
0
ARC
8
DEFAULT_255_1_234
10
13.5864796
20
55.1154088
40
0.2741476
50
200.6781896
51
228.1763934
0
ARC
8
DEFAULT_255_1_234
10
13.5937107
20
55.1139077
40
0.2804109
50
179.5061581
51
199.8694617
0
ARC
8
DEFAULT_255_1_234
10
13.5927858
20
55.121321
40
0.2795204
50
132.4834203
51
181.0242172
0
ARC
8
DEFAULT_255_1_234
10
13.6523441
20
55.0650704
40
0.3612768
50
129.2532479
51
133.4242687
0
ARC
8
DEFAULT_255_1_234
10
13.666989
20
55.0430965
40
0.3875675
50
101.98776
51
128.8742646
0
ARC
8
DEFAULT_255_1_234
10
13.7068501
20
54.8709741
40
0.5642249
50
89.5906553
51
102.3169264
0
ARC
8
DEFAULT_255_1_234
10
13.7138993
20
54.9028148
40
0.5323783
50
77.2360837
51
90.3248275
0
ARC
8
DEFAULT_255_1_234
10
13.7346072
20
54.99954
40
0.4334697
50
63.837784
51
77.0809408
0
ARC
8
DEFAULT_255_1_234
10
13.7623834
20
55.0512911
40
0.3747796
50
45.9864267
51
64.1607727
0
ARC
8
DEFAULT_255_1_234
10
13.7884715
20
55.0810866
40
0.3352302
50
32.2747395
51
45.6547121
0
ARC
8
DEFAULT_255_1_234
10
13.7951156
20
55.082988
40
0.328603
50
359.6507365
51
32.6130309
0
ARC
8
DEFAULT_255_1_234
10
13.7008251
20
55.083466
40
0.2678863
50
359.469343
51
14.9832209
0
ARC
8
DEFAULT_255_1_234
10
13.7713314
20
55.1023539
40
0.1948938
50
14.9781179
51
48.2004265
0
ARC
8
DEFAULT_255_1_234
10
13.7548958
20
55.0816983
40
0.2212521
50
48.5927837
51
74.1241538
0
ARC
8
DEFAULT_255_1_234
10
13.7215447
20
54.9716248
40
0.3362561
50
73.7888341
51
86.6652678
0
ARC
8
DEFAULT_255_1_234
10
13.7113013
20
54.8508881
40
0.4573953
50
86.2640471
51
90.0526343
0
ARC
8
DEFAULT_255_1_234
10
13.7084725
20
54.8904192
40
0.4178709
50
89.6697524
51
99.2309573
0
ARC
8
DEFAULT_255_1_234
10
13.6842176
20
55.0348964
40
0.2713749
50
99.069534
51
113.7658566
0
ARC
8
DEFAULT_255_1_234
10
13.6568367
20
55.0994677
40
0.2012469
50
114.0401004
51
127.9850673
0
ARC
8
DEFAULT_255_1_234
10
13.6327931
20
55.129073
40
0.1631167
50
127.7287463
51
176.7105154
0
ARC
8
DEFAULT_255_1_234
10
13.7006649
20
55.1189693
40
0.2315392
50
175.1779447
51
180.0581938
0
ARC
8
DEFAULT_255_1_234
10
13.6163496
20
55.1177428
40
0.1472271
50
179.6142195
51
228.1246017
0
ARC
8
DEFAULT_255_1_234
10
13.6605164
20
55.1586308
40
0.2072299
50
226.5779593
51
230.8800004
0
ARC
8
DEFAULT_255_1_234
10
13.7076243
20
55.2211636
40
0.2854818
50
231.4635071
51
241.9260842
0
ARC
8
DEFAULT_255_1_234
10
13.8273421
20
55.44148
40
0.53622
50
241.7178533
51
248.3259551
0
ARC
8
DEFAULT_255_1_234
10
13.9658793
20
55.7847064
40
0.9063478
50
248.2007737
51
252.4528373
0
ARC
8
DEFAULT_255_1_234
10
14.0862518
20
56.1568441
40
1.2974635
50
252.3391078
51
254.3469452
0
ARC
8
DEFAULT_255_1_234
10
13.332022
20
53.4591148
40
1.5037162
50
71.0197183
51
74.4087047
0
ARC
8
DEFAULT_255_1_234
10
13.5014906
20
53.9483111
40
0.9859993
50
66.1847285
51
71.086374
0
ARC
8
DEFAULT_255_1_234
10
13.6571218
20
54.29872
40
0.6025855
50
59.3536294
51
66.2691831
0
ARC
8
DEFAULT_255_1_234
10
13.745987
20
54.4490609
40
0.4279449
50
49.1020879
51
59.3293958
0
ARC
8
DEFAULT_255_1_234
10
13.827861
20
54.5423834
40
0.3038015
50
32.7919921
51
49.2505539
0
ARC
8
DEFAULT_255_1_234
10
13.85997
20
54.5652191
40
0.264448
50
31.1181161
51
32.4005348
0
ARC
8
DEFAULT_255_1_234
10
13.8511238
20
54.5616779
40
0.2738556
50
8.1116974
51
30.7958831
0
ARC
8
DEFAULT_255_1_234
10
13.7700906
20
54.5478753
40
0.3560327
50
359.8389159
51
8.4706516
0
ARC
8
DEFAULT_255_1_234
10
13.8326697
20
54.5430137
40
0.2934776
50
337.4731098
51
0.7537279
0
ARC
8
DEFAULT_255_1_234
10
13.8505392
20
54.5410387
40
0.2762607
50
307.5917067
51
336.4315538
0
ARC
8
DEFAULT_255_1_234
10
13.804522
20
54.5923102
40
0.3449979
50
307.6551545
51
308.4529766
0
ARC
8
DEFAULT_255_1_234
10
13.7814939
20
54.627825
40
0.3871988
50
284.3734338
51
307.1424381
0
ARC
8
DEFAULT_255_1_234
10
13.7319769
20
54.8099932
40
0.5759636
50
272.4382747
51
284.646547
0
ARC
8
DEFAULT_255_1_234
10
13.7192978
20
54.9899893
40
0.7563528
50
269.9708387
51
272.8178037
0
ARC
8
DEFAULT_255_1_234
10
13.7150018
20
54.7861716
40
0.5525489
50
248.2707594
51
270.4055579
0
ARC
8
DEFAULT_255_1_234
10
13.7095759
20
54.7671192
40
0.5328452
50
246.1383403
51
248.0542782
0
ARC
8
DEFAULT_255_1_234
10
13.6677138
20
54.6791843
40
0.4355005
50
233.1670131
51
246.4950969
0
ARC
8
DEFAULT_255_1_234
10
13.6123043
20
54.6043812
40
0.3424126
50
215.3403242
51
233.0843104
0
ARC
8
DEFAULT_255_1_234
10
13.5850474
20
54.5845549
40
0.3087104
50
179.2419209
51
215.2648451
0
ARC
8
DEFAULT_255_1_234
10
13.6618068
20
54.5859666
40
0.2304457
50
179.335461
51
199.1045811
0
ARC
8
DEFAULT_255_1_234
10
13.6285744
20
54.5772766
40
0.1962176
50
199.8828939
51
232.7063202
0
ARC
8
DEFAULT_255_1_234
10
13.6758013
20
54.6366788
40
0.2720938
50
232.3738199
51
255.5136649
0
ARC
8
DEFAULT_255_1_234
10
13.7098879
20
54.7610835
40
0.4010747
50
255.2446292
51
267.5320849
0
ARC
8
DEFAULT_255_1_234
10
13.7186503
20
54.8843702
40
0.5246356
50
267.1557994
51
270.0286766
0
ARC
8
DEFAULT_255_1_234
10
13.7214275
20
54.839995
40
0.4802668
50
269.7000017
51
278.1660162
0
ARC
8
DEFAULT_255_1_234
10
13.747028
20
54.6669515
40
0.3053425
50
278.0231263
51
290.625471
0
ARC
8
DEFAULT_255_1_234
10
13.7817967
20
54.5742025
40
0.206291
50
290.6619762
51
307.0370976
0
ARC
8
DEFAULT_255_1_234
10
13.8118356
20
54.5373504
40
0.1587906
50
306.3943566
51
355.3030547
0
ARC
8
DEFAULT_255_1_234
10
13.7606288
20
54.5450113
40
0.2104809
50
354.3660432
51
0.0698737
0
ARC
8
DEFAULT_255_1_234
10
13.7748633
20
54.5472617
40
0.1962563
50
359.417946
51
16.1971788
0
ARC
8
DEFAULT_255_1_234
10
13.8203943
20
54.5597418
40
0.149053
50
16.4723299
51
52.6262157
0
ARC
8
DEFAULT_255_1_234
10
13.7382997
20
54.4513433
40
0.2850296
50
52.7386432
51
62.4979148
0
ARC
8
DEFAULT_255_1_234
10
13.5998074
20
54.1907283
40
0.5801521
50
62.2515216
51
68.1220564
0
ARC
8
DEFAULT_255_1_234
10
13.4277985
20
53.7679872
40
1.0365451
50
68.0062803
51
71.8053402
0
ARC
8
DEFAULT_255_1_234
10
13.2482356
20
53.2294758
40
1.6042013
50
71.7183119
51
73.9258742
0
LINE
8
DEFAULT_255_1_234
10
14.2626615
20
54.6601218
11
14.2626615
21
54.6874297
0
LINE
8
DEFAULT_255_1_234
10
14.9999751
20
54.7034932
11
14.9999751
21
54.6416488
0
LINE
8
DEFAULT_255_1_234
10
14.9999751
20
54.6416488
11
14.4112487
21
54.6416488
0
LINE
8
DEFAULT_255_1_234
10
14.897972
20
54.4721792
11
14.9887307
21
54.4014999
0
LINE
8
DEFAULT_255_1_234
10
14.4160677
20
54.7637313
11
14.8513879
21
54.7637313
0
LINE
8
DEFAULT_255_1_234
10
14.8513879
20
54.7637313
11
14.8513879
21
54.7749757
0
ARC
8
DEFAULT_255_1_234
10
14.656598
20
54.6712332
40
0.4376191
50
252.3266134
51
270.5810217
0
ARC
8
DEFAULT_255_1_234
10
14.6361069
20
54.5971644
40
0.3608374
50
223.3000567
51
251.8561855
0
ARC
8
DEFAULT_255_1_234
10
14.657243
20
54.6176937
40
0.3902993
50
190.9374509
51
223.3654032
0
ARC
8
DEFAULT_255_1_234
10
14.8297402
20
54.6566885
40
0.5670891
50
179.6531105
51
191.4989439
0
ARC
8
DEFAULT_255_1_234
10
14.8419415
20
54.6906417
40
0.5792888
50
167.4007466
51
180.3176909
0
ARC
8
DEFAULT_255_1_234
10
14.7367476
20
54.7128885
40
0.471777
50
154.1835823
51
167.250763
0
ARC
8
DEFAULT_255_1_234
10
14.6735944
20
54.7461417
40
0.4004528
50
134.3149965
51
154.5315275
0
ARC
8
DEFAULT_255_1_234
10
14.6518439
20
54.7652228
40
0.371612
50
122.8616532
51
133.9707695
0
ARC
8
DEFAULT_255_1_234
10
14.6415013
20
54.7874703
40
0.3473289
50
89.8249009
51
123.4199222
0
ARC
8
DEFAULT_255_1_234
10
14.6465054
20
54.7227967
40
0.4120197
50
74.7876118
51
90.5482747
0
ARC
8
DEFAULT_255_1_234
10
14.6758797
20
54.831303
40
0.2996077
50
39.8178249
51
74.7633718
0
ARC
8
DEFAULT_255_1_234
10
14.6246117
20
54.7913351
40
0.3645855
50
16.8990863
51
39.4829761
0
ARC
8
DEFAULT_255_1_234
10
14.4351414
20
54.7306526
40
0.5635218
50
4.9636328
51
17.2026414
0
ARC
8
DEFAULT_255_1_234
10
14.1933484
20
54.705134
40
0.8066286
50
359.8834553
51
5.2834307
0
ARC
8
DEFAULT_255_1_234
10
14.7971008
20
54.6482803
40
0.3859091
50
180.9846213
51
194.9401313
0
ARC
8
DEFAULT_255_1_234
10
14.6921286
20
54.6195849
40
0.2770883
50
194.80314
51
222.0412631
0
ARC
8
DEFAULT_255_1_234
10
14.6617168
20
54.5894116
40
0.2343055
50
221.5417084
51
268.8614402
0
ARC
8
DEFAULT_255_1_234
10
14.6690163
20
54.6570686
40
0.3021528
50
267.732405
51
270.0097136
0
ARC
8
DEFAULT_255_1_234
10
14.6707973
20
54.6772105
40
0.3222994
50
269.6924892
51
280.4117579
0
ARC
8
DEFAULT_255_1_234
10
14.688438
20
54.5853193
40
0.2287344
50
280.2255091
51
298.6338936
0
ARC
8
DEFAULT_255_1_234
10
14.7001171
20
54.5609223
40
0.2017294
50
299.0430333
51
300.4643464
0
ARC
8
DEFAULT_255_1_234
10
14.6321177
20
54.6743038
40
0.3339357
50
300.6577328
51
322.0378878
0
ARC
8
DEFAULT_255_1_234
10
14.5970716
20
54.7047021
40
0.3802736
50
321.6750233
51
322.3046845
0
ARC
8
DEFAULT_255_1_234
10
14.6901677
20
54.588037
40
0.3520454
50
276.9728461
51
328.0035423
0
ARC
8
DEFAULT_255_1_234
10
14.662473
20
54.7360841
40
0.5024498
50
269.8361028
51
278.0581756
0
ARC
8
DEFAULT_255_1_234
10
14.6397468
20
54.8105757
40
0.202159
50
89.2018686
51
117.2851756
0
ARC
8
DEFAULT_255_1_234
10
14.6450637
20
54.8063752
40
0.2083484
50
118.0551165
51
137.4540413
0
ARC
8
DEFAULT_255_1_234
10
14.6825377
20
54.7723304
40
0.2589774
50
137.5109581
51
158.8516286
0
ARC
8
DEFAULT_255_1_234
10
14.7963212
20
54.7264074
40
0.38167
50
158.5845963
51
170.1721436
0
ARC
8
DEFAULT_255_1_234
10
14.9132601
20
54.7031823
40
0.5008657
50
169.8376422
51
173.0566086
0
ARC
8
DEFAULT_255_1_234
10
14.4435675
20
54.7542509
40
0.4083467
50
2.9091802
51
12.8847116
0
ARC
8
DEFAULT_255_1_234
10
14.5806352
20
54.7865101
40
0.2675383
50
12.6957781
51
28.6404489
0
ARC
8
DEFAULT_255_1_234
10
14.6348023
20
54.8145458
40
0.2065654
50
29.0169854
51
41.1487595
0
ARC
8
DEFAULT_255_1_234
10
14.6550808
20
54.8322003
40
0.1796786
50
41.1646065
51
85.0013516
0
ARC
8
DEFAULT_255_1_234
10
14.6429904
20
54.7587431
40
0.2539726
50
83.7280015
51
90.0964893
0
LINE
8
DEFAULT_255_1_234
10
15.5919142
20
55.1235531
11
15.5919142
21
54.9854072
0
LINE
8
DEFAULT_255_1_234
10
15.3204415
20
54.8665375
11
15.3204415
21
54.2497
0
LINE
8
DEFAULT_255_1_234
10
15.3204415
20
54.2497
11
15.1718543
21
54.2497
0
LINE
8
DEFAULT_255_1_234
10
15.1718543
20
54.2497
11
15.1718543
21
55.1187341
0
LINE
8
DEFAULT_255_1_234
10
15.1718543
20
55.1187341
11
15.3164256
21
55.1187341
0
LINE
8
DEFAULT_255_1_234
10
15.3164256
20
55.1187341
11
15.3188351
21
55.0183374
0
ARC
8
DEFAULT_255_1_234
10
15.5252548
20
54.5794342
40
0.4114092
50
80.6754243
51
86.8932892
0
ARC
8
DEFAULT_255_1_234
10
15.5192082
20
54.48267
40
0.5083596
50
86.8038578
51
90.0431435
0
ARC
8
DEFAULT_255_1_234
10
15.5155063
20
54.7283866
40
0.2626638
50
89.2759698
51
106.6213787
0
ARC
8
DEFAULT_255_1_234
10
15.4950627
20
54.802683
40
0.1856317
50
107.1346045
51
157.6458115
0
ARC
8
DEFAULT_255_1_234
10
15.5642228
20
54.7643311
40
0.2643398
50
155.6586782
51
157.2539184
0
ARC
8
DEFAULT_255_1_234
10
15.543743
20
54.8812157
40
0.2634121
50
127.8165941
51
148.6302098
0
ARC
8
DEFAULT_255_1_234
10
15.5183899
20
54.9072218
40
0.2273596
50
91.3329982
51
126.7875809
0
ARC
8
DEFAULT_255_1_234
10
15.525984
20
54.8357195
40
0.299078
50
89.986594
51
92.4688449
0
ARC
8
DEFAULT_255_1_234
10
15.5268235
20
54.8632078
40
0.2715908
50
85.3589899
51
90.1623399
0
ARC
8
DEFAULT_255_1_234
10
15.535275
20
54.9636164
40
0.1708278
50
78.401942
51
85.4594656
0
ARC
8
DEFAULT_255_1_234
10
15.5497634
20
55.0327236
40
0.1002194
50
67.7858312
51
78.5728455
0
ARC
8
DEFAULT_255_1_234
10
15.5605487
20
55.0606887
40
0.0702548
50
63.4835954
51
67.3062642
0
LINE
8
DEFAULT_255_1_234
10
15.8898917
20
55.1187341
11
15.8898917
21
54.2497
0
LINE
8
DEFAULT_255_1_234
10
15.8898917
20
54.2497
11
15.7413045
21
54.2497
0
LINE
8
DEFAULT_255_1_234
10
15.7413045
20
54.2497
11
15.7413045
21
55.1187341
0
LINE
8
DEFAULT_255_1_234
10
15.7413045
20
55.1187341
11
15.8898917
21
55.1187341
0
ARC
8
DEFAULT_255_1_234
10
15.8271194
20
55.3501889
40
0.097867
50
161.415052
51
180.5526306
0
ARC
8
DEFAULT_255_1_234
10
15.8146972
20
55.3536077
40
0.0850062
50
138.1827368
51
160.9307106
0
ARC
8
DEFAULT_255_1_234
10
15.8036918
20
55.3631588
40
0.0704362
50
104.6368899
51
138.0039868
0
ARC
8
DEFAULT_255_1_234
10
15.8144073
20
55.3264963
40
0.1086221
50
92.0600725
51
105.2189128
0
ARC
8
DEFAULT_255_1_234
10
15.8167421
20
55.2922117
40
0.1429728
50
89.9756393
51
92.5012496
0
ARC
8
DEFAULT_255_1_234
10
15.817744
20
55.3147731
40
0.1204151
50
78.0235316
51
90.4478182
0
ARC
8
DEFAULT_255_1_234
10
15.8269532
20
55.3561295
40
0.0780493
50
55.051506
51
78.3369085
0
ARC
8
DEFAULT_255_1_234
10
15.8319807
20
55.3645711
40
0.0682538
50
42.0501187
51
54.4513741
0
ARC
8
DEFAULT_255_1_234
10
15.8184674
20
55.3521798
40
0.0865878
50
1.7497075
51
42.1496013
0
ARC
8
DEFAULT_255_1_234
10
15.7930007
20
55.3492738
40
0.1121515
50
359.9852656
51
2.8364544
0
ARC
8
DEFAULT_255_1_234
10
15.8095999
20
55.3483229
40
0.0955566
50
342.1070653
51
0.552888
0
ARC
8
DEFAULT_255_1_234
10
15.8238696
20
55.3443904
40
0.0807713
50
316.7107116
51
341.6516965
0
ARC
8
DEFAULT_255_1_234
10
15.8305733
20
55.3383823
40
0.0717724
50
285.4397031
51
316.5324284
0
ARC
8
DEFAULT_255_1_234
10
15.819565
20
55.3749554
40
0.1099597
50
272.3547054
51
285.8953117
0
ARC
8
DEFAULT_255_1_234
10
15.8168808
20
55.4115048
40
0.1465932
50
269.9695369
51
272.8160237
0
ARC
8
DEFAULT_255_1_234
10
15.815899
20
55.3895863
40
0.1246779
50
258.8431134
51
270.4153935
0
ARC
8
DEFAULT_255_1_234
10
15.8069032
20
55.3460414
40
0.0802162
50
238.5431189
51
259.1288175
0
ARC
8
DEFAULT_255_1_234
10
15.8000917
20
55.3336856
40
0.0661247
50
222.5062634
51
237.9906969
0
ARC
8
DEFAULT_255_1_234
10
15.8128504
20
55.3452889
40
0.0833707
50
184.1069131
51
222.460413
0
ARC
8
DEFAULT_255_1_234
10
15.8397745
20
55.3491349
40
0.1105176
50
179.9429482
51
185.0960898
0
LINE
8
DEFAULT_255_1_234
10
16.089882
20
54.6601218
11
16.089882
21
54.6874297
0
LINE
8
DEFAULT_255_1_234
10
16.8271956
20
54.7034932
11
16.8271956
21
54.6416488
0
LINE
8
DEFAULT_255_1_234
10
16.8271956
20
54.6416488
11
16.2384691
21
54.6416488
0
LINE
8
DEFAULT_255_1_234
10
16.7251925
20
54.4721792
11
16.8159511
21
54.4014999
0
LINE
8
DEFAULT_255_1_234
10
16.2432882
20
54.7637313
11
16.6786084
21
54.7637313
0
LINE
8
DEFAULT_255_1_234
10
16.6786084
20
54.7637313
11
16.6786084
21
54.7749757
0
ARC
8
DEFAULT_255_1_234
10
16.4838185
20
54.6712332
40
0.4376191
50
252.3266134
51
270.5810217
0
ARC
8
DEFAULT_255_1_234
10
16.4633274
20
54.5971644
40
0.3608374
50
223.3000567
51
251.8561855
0
ARC
8
DEFAULT_255_1_234
10
16.4844635
20
54.6176937
40
0.3902993
50
190.9374509
51
223.3654032
0
ARC
8
DEFAULT_255_1_234
10
16.6569607
20
54.6566885
40
0.5670891
50
179.6531105
51
191.4989439
0
ARC
8
DEFAULT_255_1_234
10
16.6691619
20
54.6906417
40
0.5792888
50
167.4007466
51
180.3176909
0
ARC
8
DEFAULT_255_1_234
10
16.5639681
20
54.7128885
40
0.471777
50
154.1835823
51
167.250763
0
ARC
8
DEFAULT_255_1_234
10
16.5008148
20
54.7461417
40
0.4004528
50
134.3149965
51
154.5315275
0
ARC
8
DEFAULT_255_1_234
10
16.4790643
20
54.7652228
40
0.371612
50
122.8616532
51
133.9707695
0
ARC
8
DEFAULT_255_1_234
10
16.4687217
20
54.7874703
40
0.3473289
50
89.8249009
51
123.4199222
0
ARC
8
DEFAULT_255_1_234
10
16.4737258
20
54.7227967
40
0.4120197
50
74.7876118
51
90.5482747
0
ARC
8
DEFAULT_255_1_234
10
16.5031002
20
54.831303
40
0.2996077
50
39.8178249
51
74.7633718
0
ARC
8
DEFAULT_255_1_234
10
16.4518322
20
54.7913351
40
0.3645855
50
16.8990863
51
39.4829761
0
ARC
8
DEFAULT_255_1_234
10
16.2623618
20
54.7306526
40
0.5635218
50
4.9636328
51
17.2026414
0
ARC
8
DEFAULT_255_1_234
10
16.0205688
20
54.705134
40
0.8066286
50
359.8834553
51
5.2834307
0
ARC
8
DEFAULT_255_1_234
10
16.6243213
20
54.6482803
40
0.3859091
50
180.9846213
51
194.9401313
0
ARC
8
DEFAULT_255_1_234
10
16.5193491
20
54.6195849
40
0.2770883
50
194.80314
51
222.0412631
0
ARC
8
DEFAULT_255_1_234
10
16.4889373
20
54.5894116
40
0.2343055
50
221.5417084
51
268.8614402
0
ARC
8
DEFAULT_255_1_234
10
16.4962367
20
54.6570686
40
0.3021528
50
267.732405
51
270.0097136
0
ARC
8
DEFAULT_255_1_234
10
16.4980177
20
54.6772105
40
0.3222994
50
269.6924892
51
280.4117579
0
ARC
8
DEFAULT_255_1_234
10
16.5156584
20
54.5853193
40
0.2287344
50
280.2255091
51
298.6338936
0
ARC
8
DEFAULT_255_1_234
10
16.5273376
20
54.5609223
40
0.2017294
50
299.0430333
51
300.4643464
0
ARC
8
DEFAULT_255_1_234
10
16.4593382
20
54.6743038
40
0.3339357
50
300.6577328
51
322.0378878
0
ARC
8
DEFAULT_255_1_234
10
16.4242921
20
54.7047021
40
0.3802736
50
321.6750233
51
322.3046845
0
ARC
8
DEFAULT_255_1_234
10
16.5173882
20
54.588037
40
0.3520454
50
276.9728461
51
328.0035423
0
ARC
8
DEFAULT_255_1_234
10
16.4896935
20
54.7360841
40
0.5024498
50
269.8361028
51
278.0581756
0
ARC
8
DEFAULT_255_1_234
10
16.4669672
20
54.8105757
40
0.202159
50
89.2018686
51
117.2851756
0
ARC
8
DEFAULT_255_1_234
10
16.4722841
20
54.8063752
40
0.2083484
50
118.0551165
51
137.4540413
0
ARC
8
DEFAULT_255_1_234
10
16.5097581
20
54.7723304
40
0.2589774
50
137.5109581
51
158.8516286
0
ARC
8
DEFAULT_255_1_234
10
16.6235417
20
54.7264074
40
0.38167
50
158.5845963
51
170.1721436
0
ARC
8
DEFAULT_255_1_234
10
16.7404806
20
54.7031823
40
0.5008657
50
169.8376422
51
173.0566086
0
ARC
8
DEFAULT_255_1_234
10
16.270788
20
54.7542509
40
0.4083467
50
2.9091802
51
12.8847116
0
ARC
8
DEFAULT_255_1_234
10
16.4078556
20
54.7865101
40
0.2675383
50
12.6957781
51
28.6404489
0
ARC
8
DEFAULT_255_1_234
10
16.4620227
20
54.8145458
40
0.2065654
50
29.0169854
51
41.1487595
0
ARC
8
DEFAULT_255_1_234
10
16.4823012
20
54.8322003
40
0.1796786
50
41.1646065
51
85.0013516
0
ARC
8
DEFAULT_255_1_234
10
16.4702109
20
54.7587431
40
0.2539726
50
83.7280015
51
90.0964893
0
LINE
8
DEFAULT_255_1_234
10
17.6456297
20
54.8633248
11
17.4962394
21
54.8633248
0
LINE
8
DEFAULT_255_1_234
10
16.9629319
20
54.5171569
11
17.1115191
21
54.5171569
0
ARC
8
DEFAULT_255_1_234
10
17.3774212
20
54.4816959
40
0.1276617
50
359.3334982
51
18.5871358
0
ARC
8
DEFAULT_255_1_234
10
17.3982849
20
54.4872133
40
0.1061371
50
19.3540742
51
54.6485071
0
ARC
8
DEFAULT_255_1_234
10
17.3478751
20
54.4176919
40
0.1920087
50
54.3827097
51
65.0622807
0
ARC
8
DEFAULT_255_1_234
10
17.2710148
20
54.25599
40
0.3710447
50
64.8282493
51
71.4200025
0
ARC
8
DEFAULT_255_1_234
10
17.1808023
20
53.9913107
40
0.6506741
50
71.3164301
51
75.8006402
0
ARC
8
DEFAULT_255_1_234
10
17.0966843
20
53.6672561
40
0.9854641
50
75.6809531
51
78.0061883
0
ARC
8
DEFAULT_255_1_234
10
17.5415376
20
55.765177
40
1.1591028
50
254.6901892
51
258.0466452
0
ARC
8
DEFAULT_255_1_234
10
17.4377285
20
55.3892781
40
0.7691345
50
249.9010773
51
254.755261
0
ARC
8
DEFAULT_255_1_234
10
17.3373627
20
55.1166982
40
0.478665
50
243.3097214
51
249.9709442
0
ARC
8
DEFAULT_255_1_234
10
17.2744648
20
54.9912778
40
0.3383568
50
234.4047477
51
243.2862168
0
ARC
8
DEFAULT_255_1_234
10
17.2122172
20
54.9053232
40
0.2322322
50
220.8667099
51
234.5493881
0
ARC
8
DEFAULT_255_1_234
10
17.1780112
20
54.8741817
40
0.1859923
50
214.3062465
51
220.5065136
0
ARC
8
DEFAULT_255_1_234
10
17.1754192
20
54.871088
40
0.1821108
50
186.912965
51
213.9618616
0
ARC
8
DEFAULT_255_1_234
10
17.2286286
20
54.8797009
40
0.2359799
50
179.8808832
51
187.4339886
0
ARC
8
DEFAULT_255_1_234
10
17.213142
20
54.8817088
40
0.2204978
50
132.005434
51
180.3942919
0
ARC
8
DEFAULT_255_1_234
10
17.2788033
20
54.8211083
40
0.3095791
50
129.2319861
51
133.5302299
0
ARC
8
DEFAULT_255_1_234
10
17.2841541
20
54.8116928
40
0.3202615
50
100.4410011
51
128.9081242
0
ARC
8
DEFAULT_255_1_234
10
17.3115425
20
54.6831455
40
0.4516583
50
89.6985377
51
100.9026564
0
ARC
8
DEFAULT_255_1_234
10
17.3172467
20
54.6671166
40
0.4676928
50
77.6965325
51
90.4076836
0
ARC
8
DEFAULT_255_1_234
10
17.3503451
20
54.8098413
40
0.3211988
50
50.7276602
51
78.0399361
0
ARC
8
DEFAULT_255_1_234
10
17.394791
20
54.8616296
40
0.2529778
50
25.7545084
51
51.0957453
0
ARC
8
DEFAULT_255_1_234
10
17.3949134
20
54.8666206
40
0.250738
50
359.2468627
51
24.7394243
0
ARC
8
DEFAULT_255_1_234
10
17.3664586
20
54.8637664
40
0.1297815
50
359.8050318
51
45.1544908
0
ARC
8
DEFAULT_255_1_234
10
17.3257728
20
54.8289794
40
0.1831883
50
43.8047702
51
49.6271585
0
ARC
8
DEFAULT_255_1_234
10
17.326563
20
54.8290678
40
0.18261
50
49.7980766
51
82.1218353
0
ARC
8
DEFAULT_255_1_234
10
17.3146601
20
54.7643998
40
0.2483163
50
81.4465357
51
90.1710293
0
ARC
8
DEFAULT_255_1_234
10
17.3122204
20
54.711788
40
0.300932
50
89.6766211
51
99.1264602
0
ARC
8
DEFAULT_255_1_234
10
17.2950666
20
54.8151537
40
0.1961547
50
98.968313
51
113.4570237
0
ARC
8
DEFAULT_255_1_234
10
17.2754751
20
54.8619965
40
0.1453859
50
113.722589
51
127.4763106
0
ARC
8
DEFAULT_255_1_234
10
17.2586397
20
54.8820124
40
0.1192639
50
126.9083309
51
150.3165862
0
ARC
8
DEFAULT_255_1_234
10
17.253873
20
54.8870981
40
0.112623
50
151.3635175
51
180.0701457
0
ARC
8
DEFAULT_255_1_234
10
17.2847515
20
54.884999
40
0.1435149
50
179.2169974
51
179.9954013
0
ARC
8
DEFAULT_255_1_234
10
17.2486572
20
54.8837056
40
0.1074286
50
179.3040112
51
198.4225446
0
ARC
8
DEFAULT_255_1_234
10
17.2294706
20
54.8787127
40
0.0876573
50
199.2895851
51
238.6034594
0
ARC
8
DEFAULT_255_1_234
10
17.2897552
20
54.973345
40
0.1998512
50
237.9846301
51
246.8744712
0
ARC
8
DEFAULT_255_1_234
10
17.3755497
20
55.1696205
40
0.4140547
50
246.6234531
51
251.8168941
0
ARC
8
DEFAULT_255_1_234
10
17.4786041
20
55.4790905
40
0.7402308
50
251.713434
51
255.0778414
0
ARC
8
DEFAULT_255_1_234
10
17.5985303
20
55.9257563
40
1.2027155
50
255.0367487
51
257.4705983
0
ARC
8
DEFAULT_255_1_234
10
17.0877313
20
53.6243863
40
1.1546601
50
73.6837552
51
77.5016755
0
ARC
8
DEFAULT_255_1_234
10
17.1966088
20
53.9943581
40
0.7690009
50
68.7044154
51
73.7249639
0
ARC
8
DEFAULT_255_1_234
10
17.2869109
20
54.2270654
40
0.5193873
50
63.590599
51
68.6626804
0
ARC
8
DEFAULT_255_1_234
10
17.3640128
20
54.3808123
40
0.3473927
50
54.7106439
51
63.7013633
0
ARC
8
DEFAULT_255_1_234
10
17.4264582
20
54.46804
40
0.2401192
50
41.0622434
51
54.8487496
0
ARC
8
DEFAULT_255_1_234
10
17.4605969
20
54.4993592
40
0.1938094
50
34.4950568
51
40.7105546
0
ARC
8
DEFAULT_255_1_234
10
17.4652776
20
54.5042078
40
0.1872106
50
9.3763373
51
34.0833615
0
ARC
8
DEFAULT_255_1_234
10
17.3999646
20
54.4916728
40
0.2536988
50
359.7694872
51
9.7663171
0
ARC
8
DEFAULT_255_1_234
10
17.4197147
20
54.4873764
40
0.2339696
50
335.8654732
51
0.8022045
0
ARC
8
DEFAULT_255_1_234
10
17.4272192
20
54.4887197
40
0.2277108
50
307.7357725
51
334.7849066
0
ARC
8
DEFAULT_255_1_234
10
17.3871367
20
54.5337645
40
0.2878951
50
307.0241536
51
308.5578354
0
ARC
8
DEFAULT_255_1_234
10
17.3613699
20
54.5723801
40
0.3342515
50
282.9362969
51
306.5646424
0
ARC
8
DEFAULT_255_1_234
10
17.3251996
20
54.7191108
40
0.4853615
50
271.1026298
51
283.2200835
0
ARC
8
DEFAULT_255_1_234
10
17.318824
20
54.8432418
40
0.6096052
50
269.9919117
51
271.4772449
0
ARC
8
DEFAULT_255_1_234
10
17.3161995
20
54.7354436
40
0.5018135
50
259.0723564
51
270.289833
0
ARC
8
DEFAULT_255_1_234
10
17.2949727
20
54.6237271
40
0.388099
50
245.4963068
51
259.0227342
0
ARC
8
DEFAULT_255_1_234
10
17.2671684
20
54.5655615
40
0.3236422
50
228.9684658
51
245.7044727
0
ARC
8
DEFAULT_255_1_234
10
17.2406127
20
54.5328575
40
0.2815426
50
214.4011705
51
228.6759915
0
ARC
8
DEFAULT_255_1_234
10
17.2116868
20
54.517029
40
0.2487548
50
179.9705531
51
215.1572795
0
ARC
8
DEFAULT_255_1_234
10
17.2817468
20
54.5243806
40
0.1703809
50
182.4299387
51
203.0329699
0
ARC
8
DEFAULT_255_1_234
10
17.2633125
20
54.5187396
40
0.1512226
50
203.798802
51
232.548466
0
ARC
8
DEFAULT_255_1_234
10
17.2909647
20
54.5538826
40
0.1959374
50
232.3782728
51
256.3934612
0
ARC
8
DEFAULT_255_1_234
10
17.3140008
20
54.6428842
40
0.2878639
50
256.104506
51
268.4626716
0
ARC
8
DEFAULT_255_1_234
10
17.3186493
20
54.7225487
40
0.3676329
50
268.0715632
51
270.0138206
0
ARC
8
DEFAULT_255_1_234
10
17.3205017
20
54.6953083
40
0.3403971
50
269.7031147
51
278.8341955
0
ARC
8
DEFAULT_255_1_234
10
17.3387111
20
54.5822876
40
0.2259217
50
278.6728789
51
292.8232582
0
ARC
8
DEFAULT_255_1_234
10
17.3587649
20
54.5321449
40
0.171929
50
293.1452328
51
303.6655899
0
ARC
8
DEFAULT_255_1_234
10
17.3852528
20
54.4945204
40
0.1259367
50
303.1248165
51
321.742847
0
ARC
8
DEFAULT_255_1_234
10
17.4038408
20
54.4782156
40
0.1012531
50
322.4748573
51
1.1291126
0
ARC
8
DEFAULT_255_2_778
10
15.2717312
20
58.4857757
40
0.3782991
50
0.3791625
51
91.2888722
0
ARC
8
DEFAULT_255_2_778
10
15.2696233
20
58.4828625
40
0.3804373
50
269.035893
51
0.8157951
0
ARC
8
DEFAULT_255_2_778
10
15.4282091
20
58.4701903
40
0.764498
50
290.7706876
51
357.5425648
0
ARC
8
DEFAULT_255_2_778
10
15.3428454
20
58.488208
40
0.8506767
50
356.5766106
51
0.0047928
0
LINE
8
DEFAULT_255_2_778
10
16.1935221
20
58.4882791
11
16.1935221
21
58.4884643
0
ARC
8
DEFAULT_255_2_778
10
15.3431931
20
58.489314
40
0.8503294
50
359.9427427
51
50.5285141
0
ARC
8
DEFAULT_255_2_778
10
15.3428717
20
58.4920728
40
0.8484066
50
50.3933222
51
90.0506259
0
ARC
8
DEFAULT_255_2_778
10
20.1732844
20
58.4793388
40
0.3846416
50
1.3318655
51
90.1433517
0
ARC
8
DEFAULT_255_2_778
10
20.2311997
20
58.4726399
40
0.8701301
50
359.7589483
51
41.4305054
0
ARC
8
DEFAULT_255_2_778
10
20.2352836
20
58.4744682
40
0.8658593
50
41.5186192
51
87.8931913
0
ARC
8
DEFAULT_255_2_778
10
20.230556
20
58.4331194
40
0.9073597
50
87.6908463
51
90.0021405
0
ARC
8
DEFAULT_255_2_778
10
12.9263929
20
58.4862202
40
0.3778348
50
0.3122178
51
91.1481395
0
ARC
8
DEFAULT_255_2_778
10
12.9788584
20
58.4726354
40
0.8701714
50
359.7592556
51
41.4285005
0
ARC
8
DEFAULT_255_2_778
10
12.9830443
20
58.4745851
40
0.8657437
50
41.5150601
51
87.890796
0
ARC
8
DEFAULT_255_2_778
10
12.9783559
20
58.4334819
40
0.9069972
50
87.6903894
51
90.0021406
0
ARC
8
DEFAULT_255_2_778
10
17.559163
20
58.0776363
40
1.2832573
50
232.9444752
51
270.0294264
0
ARC
8
DEFAULT_255_2_778
10
17.5730862
20
58.1002392
40
1.309688
50
187.7220619
51
233.0542317
0
ARC
8
DEFAULT_255_2_778
10
17.5924137
20
58.1021092
40
1.3290916
50
179.9840519
51
187.6899902
0
ARC
8
DEFAULT_255_2_778
10
17.5595161
20
58.0990924
40
1.2961984
50
146.5730906
51
179.8502955
0
ARC
8
DEFAULT_255_2_778
10
17.5647569
20
58.0977376
40
1.30132
50
96.2181804
51
146.6504188
0
ARC
8
DEFAULT_255_2_778
10
17.5649428
20
58.0825593
40
1.3164299
50
90.2228718
51
96.1546683
0
ARC
8
DEFAULT_255_2_778
10
17.5618767
20
58.0956828
40
1.3032979
50
57.7575982
51
90.0903269
0
ARC
8
DEFAULT_255_2_778
10
17.5681376
20
58.0986597
40
1.2974453
50
3.9443134
51
57.9213142
0
ARC
8
DEFAULT_255_2_778
10
17.5687439
20
58.1025542
40
1.2965781
50
359.9966843
51
3.7744653
0
ARC
8
DEFAULT_255_2_778
10
17.5598786
20
58.0998085
40
1.3054462
50
328.1074285
51
0.1172153
0
ARC
8
DEFAULT_255_2_778
10
17.5609686
20
58.0978496
40
1.3034863
50
276.1451864
51
328.1552184
0
ARC
8
DEFAULT_255_2_778
10
17.5600717
20
58.1174075
40
1.3230283
50
269.9891883
51
276.0931369
0
ARC
8
DEFAULT_255_2_778
10
17.5639838
20
58.09704
40
0.7573723
50
269.6851627
51
316.0204287
0
ARC
8
DEFAULT_255_2_778
10
17.5591545
20
58.0980889
40
0.7615801
50
316.2159375
51
0.3302942
0
ARC
8
DEFAULT_255_2_778
10
17.5680401
20
58.1017627
40
0.7526823
50
0.0545399
51
85.3801077
0
ARC
8
DEFAULT_255_2_778
10
17.5599566
20
58.0613031
40
0.793676
50
85.0337063
51
90.0097107
0
ARC
8
DEFAULT_255_2_778
10
17.5591732
20
58.1026224
40
0.7523571
50
89.950584
51
177.7945888
0
ARC
8
DEFAULT_255_2_778
10
17.5733252
20
58.1025059
40
0.7665032
50
177.8265967
51
180.0019985
0
ARC
8
DEFAULT_255_2_778
10
17.5722216
20
58.0985227
40
0.7654098
50
179.7038321
51
222.1989357
0
ARC
8
DEFAULT_255_2_778
10
17.5579975
20
58.0864205
40
0.7467434
50
222.2441262
51
270.1399959
0
ARC
8
DEFAULT_255_2_778
10
9.564563
20
58.0776363
40
1.2832573
50
232.9444752
51
270.0294264
0
ARC
8
DEFAULT_255_2_778
10
9.5784862
20
58.1002392
40
1.309688
50
187.7220619
51
233.0542317
0
ARC
8
DEFAULT_255_2_778
10
9.5978137
20
58.1021092
40
1.3290916
50
179.9840519
51
187.6899902
0
ARC
8
DEFAULT_255_2_778
10
9.5645596
20
58.0992672
40
1.2958415
50
146.5719337
51
179.8579848
0
ARC
8
DEFAULT_255_2_778
10
9.5701539
20
58.09766
40
1.301397
50
96.2177316
51
146.648563
0
ARC
8
DEFAULT_255_2_778
10
9.5703435
20
58.0825219
40
1.3164672
50
90.2228976
51
96.1545761
0
ARC
8
DEFAULT_255_2_778
10
9.5673389
20
58.0956994
40
1.3032814
50
58.1028503
51
90.093062
0
ARC
8
DEFAULT_255_2_778
10
9.5733795
20
58.098756
40
1.2974994
50
3.9626176
51
58.2579977
0
ARC
8
DEFAULT_255_2_778
10
9.5734722
20
58.102556
40
1.2971498
50
359.9966051
51
3.7954532
0
ARC
8
DEFAULT_255_2_778
10
9.5648844
20
58.0997699
40
1.3057405
50
328.1174595
51
0.118882
0
ARC
8
DEFAULT_255_2_778
10
9.5665051
20
58.0975655
40
1.3032005
50
276.6132577
51
328.1621178
0
ARC
8
DEFAULT_255_2_778
10
9.5655121
20
58.116988
40
1.3226088
50
269.9874371
51
276.559089
0
ARC
8
DEFAULT_255_2_778
10
9.5693532
20
58.0970111
40
0.7573432
50
269.6874622
51
316.2799796
0
ARC
8
DEFAULT_255_2_778
10
9.5644943
20
58.098141
40
0.7616402
50
316.4711746
51
0.3263467
0
ARC
8
DEFAULT_255_2_778
10
9.5730893
20
58.1014636
40
0.7530334
50
0.0772648
51
85.7305483
0
ARC
8
DEFAULT_255_2_778
10
9.5653359
20
58.0619743
40
0.7930048
50
85.3843136
51
90.0082261
0
ARC
8
DEFAULT_255_2_778
10
9.5643097
20
58.1028957
40
0.752084
50
89.9304929
51
177.8146271
0
ARC
8
DEFAULT_255_2_778
10
9.5798405
20
58.1025058
40
0.7676183
50
177.8297522
51
180.0019923
0
ARC
8
DEFAULT_255_2_778
10
9.5776554
20
58.0984968
40
0.7654437
50
179.7019109
51
222.1940298
0
ARC
8
DEFAULT_255_2_778
10
9.5633479
20
58.0863879
40
0.746711
50
222.2430072
51
270.143803
0
LINE
8
DEFAULT_255_2_778
10
14.0768221
20
59.3198791
11
14.0768221
21
56.8539791
0
LINE
8
DEFAULT_255_2_778
10
14.0768221
20
56.8539791
11
14.6203221
21
56.8539791
0
LINE
8
DEFAULT_255_2_778
10
14.6203221
20
56.8539791
11
14.6203221
21
58.8639791
0
LINE
8
DEFAULT_255_2_778
10
14.6203221
20
58.8639791
11
15.2632221
21
58.8639791
0
LINE
8
DEFAULT_255_2_778
10
15.2632221
20
58.1024791
11
14.7986221
21
58.1024791
0
LINE
8
DEFAULT_255_2_778
10
14.7986221
20
58.1024791
11
15.6397221
21
56.8539791
0
LINE
8
DEFAULT_255_2_778
10
15.6397221
20
56.8539791
11
16.3126221
21
56.8539791
0
LINE
8
DEFAULT_255_2_778
10
16.3126221
20
56.8539791
11
15.6993221
21
57.7553791
0
LINE
8
DEFAULT_255_2_778
10
15.3421221
20
59.3404791
11
14.6200221
21
59.3404791
0
LINE
8
DEFAULT_255_2_778
10
14.6200221
20
59.3404791
11
14.0766221
21
59.3198791
0
LINE
8
DEFAULT_255_2_778
10
14.0766221
20
59.3198791
11
14.0768221
21
59.3198791
0
LINE
8
DEFAULT_255_2_778
10
19.0142221
20
59.3198791
11
19.0142221
21
56.8539791
0
LINE
8
DEFAULT_255_2_778
10
19.0142221
20
56.8539791
11
19.5577221
21
56.8539791
0
LINE
8
DEFAULT_255_2_778
10
19.5577221
20
56.8539791
11
19.5577221
21
58.8639791
0
LINE
8
DEFAULT_255_2_778
10
19.5577221
20
58.8639791
11
20.1723221
21
58.8639791
0
LINE
8
DEFAULT_255_2_778
10
20.5578221
20
58.4882791
11
20.5578221
21
56.8539791
0
LINE
8
DEFAULT_255_2_778
10
20.5578221
20
56.8539791
11
21.1013221
21
56.8539791
0
LINE
8
DEFAULT_255_2_778
10
21.1013221
20
56.8539791
11
21.1013221
21
58.4689791
0
LINE
8
DEFAULT_255_2_778
10
20.2305221
20
59.3404791
11
19.5577221
21
59.3404791
0
LINE
8
DEFAULT_255_2_778
10
19.5577221
20
59.3404791
11
19.0142221
21
59.3198791
0
LINE
8
DEFAULT_255_2_778
10
19.0142221
20
59.3198791
11
19.0142221
21
59.3198791
0
LINE
8
DEFAULT_255_2_778
10
11.0196221
20
59.3198791
11
11.0196221
21
56.8539791
0
LINE
8
DEFAULT_255_2_778
10
11.0196221
20
56.8539791
11
11.5628221
21
56.8539791
0
LINE
8
DEFAULT_255_2_778
10
11.5628221
20
56.8539791
11
11.5628221
21
58.8639791
0
LINE
8
DEFAULT_255_2_778
10
11.5628221
20
58.8639791
11
12.1671221
21
58.8639791
0
LINE
8
DEFAULT_255_2_778
10
12.1671221
20
58.8639791
11
12.1671221
21
56.8539791
0
LINE
8
DEFAULT_255_2_778
10
12.1671221
20
56.8539791
11
12.7105221
21
56.8539791
0
LINE
8
DEFAULT_255_2_778
10
12.7105221
20
56.8539791
11
12.7105221
21
58.8639791
0
LINE
8
DEFAULT_255_2_778
10
12.7105221
20
58.8639791
11
12.9188221
21
58.8639791
0
LINE
8
DEFAULT_255_2_778
10
13.3042221
20
58.4882791
11
13.3042221
21
56.8539791
0
LINE
8
DEFAULT_255_2_778
10
13.3042221
20
56.8539791
11
13.8490221
21
56.8539791
0
LINE
8
DEFAULT_255_2_778
10
13.8490221
20
56.8539791
11
13.8490221
21
58.4689791
0
LINE
8
DEFAULT_255_2_778
10
12.9783221
20
59.3404791
11
11.5731221
21
59.3404791
0
LINE
8
DEFAULT_255_2_778
10
11.5731221
20
59.3404791
11
11.0193221
21
59.3198791
0
LINE
8
DEFAULT_255_2_778
10
11.0193221
20
59.3198791
11
11.0196221
21
59.3198791
0
LINE
8
DEFAULT_255_2_778
10
17.5598221
20
56.7943791
11
17.5598221
21
56.7943791
0
LINE
8
DEFAULT_255_2_778
10
9.5652221
20
56.7943791
11
9.5652221
21
56.7943791
0
LINE
8
DEFAULT_255_1_234
10
4.9274119
20
52.3866792
11
4.9274119
21
52.2654
0
LINE
8
DEFAULT_255_1_234
10
4.9274119
20
52.2654
11
4.161184
21
52.2654
0
LINE
8
DEFAULT_255_1_234
10
4.161184
20
52.2654
11
4.161184
21
52.3722221
0
LINE
8
DEFAULT_255_1_234
10
4.161184
20
52.3722221
11
4.5659836
21
52.8219995
0
LINE
8
DEFAULT_255_1_234
10
4.2872823
20
53.0902595
11
4.1386952
21
53.0902595
0
LINE
8
DEFAULT_255_1_234
10
4.6535296
20
52.7264218
11
4.3402918
21
52.3866792
0
LINE
8
DEFAULT_255_1_234
10
4.3402918
20
52.3866792
11
4.9274119
21
52.3866792
0
ARC
8
DEFAULT_255_1_234
10
3.216967
20
54.0149527
40
1.8008286
50
318.5132453
51
320.7828378
0
ARC
8
DEFAULT_255_1_234
10
3.7456644
20
53.5846426
40
1.1191493
50
320.7372736
51
323.9737074
0
ARC
8
DEFAULT_255_1_234
10
4.1376501
20
53.3006361
40
0.6350923
50
323.8961724
51
328.6421089
0
ARC
8
DEFAULT_255_1_234
10
4.3423096
20
53.1744031
40
0.3946393
50
328.8299013
51
331.789948
0
ARC
8
DEFAULT_255_1_234
10
4.4420274
20
53.1229509
40
0.2824501
50
331.4255242
51
352.9364833
0
ARC
8
DEFAULT_255_1_234
10
4.4556775
20
53.1198976
40
0.2685315
50
353.2248685
51
0.0169286
0
ARC
8
DEFAULT_255_1_234
10
4.4766652
20
53.122195
40
0.2475536
50
359.4866256
51
15.9339782
0
ARC
8
DEFAULT_255_1_234
10
4.5273637
20
53.1358286
40
0.1950618
50
16.1714718
51
43.5284424
0
ARC
8
DEFAULT_255_1_234
10
4.5350946
20
53.1435573
40
0.184134
50
43.4415429
51
83.1661404
0
ARC
8
DEFAULT_255_1_234
10
4.5216864
20
53.0698771
40
0.258926
50
82.160215
51
90.1505798
0
ARC
8
DEFAULT_255_1_234
10
4.5185291
20
53.0161865
40
0.3126255
50
89.5460705
51
102.5418777
0
ARC
8
DEFAULT_255_1_234
10
4.4942377
20
53.1192665
40
0.2067346
50
102.1739365
51
129.2061916
0
ARC
8
DEFAULT_255_1_234
10
4.4863449
20
53.1317094
40
0.1921118
50
129.7279328
51
135.7542026
0
ARC
8
DEFAULT_255_1_234
10
4.4984977
20
53.1220045
40
0.2075944
50
136.175737
51
166.3674722
0
ARC
8
DEFAULT_255_1_234
10
4.5991896
20
53.0950182
40
0.3118201
50
165.9092917
51
178.8683903
0
ARC
8
DEFAULT_255_1_234
10
4.6856757
20
53.0903179
40
0.3983935
50
178.438168
51
180.0083905
0
ARC
8
DEFAULT_255_1_234
10
4.5455359
20
53.0942231
40
0.4068601
50
163.2878735
51
180.5581814
0
ARC
8
DEFAULT_255_1_234
10
4.4653621
20
53.116284
40
0.3237344
50
133.454115
51
162.9470031
0
ARC
8
DEFAULT_255_1_234
10
4.4832162
20
53.0973
40
0.349795
50
100.7869394
51
133.4384016
0
ARC
8
DEFAULT_255_1_234
10
4.5179934
20
52.9424319
40
0.5084616
50
89.6605301
51
101.3704185
0
ARC
8
DEFAULT_255_1_234
10
4.5246273
20
52.9485496
40
0.502348
50
78.2171172
51
90.4130393
0
ARC
8
DEFAULT_255_1_234
10
4.5601351
20
53.1109637
40
0.3361092
50
55.9268222
51
78.4888551
0
ARC
8
DEFAULT_255_1_234
10
4.5797791
20
53.1448324
40
0.2970617
50
47.9292255
51
55.4054003
0
ARC
8
DEFAULT_255_1_234
10
4.5899352
20
53.1551502
40
0.2825983
50
4.3347696
51
48.0560701
0
ARC
8
DEFAULT_255_1_234
10
4.4803745
20
53.1381601
40
0.393225
50
359.925209
51
5.5967654
0
ARC
8
DEFAULT_255_1_234
10
4.5232637
20
53.1437816
40
0.3503892
50
337.8914096
51
358.9967724
0
ARC
8
DEFAULT_255_1_234
10
4.2519049
20
53.2484706
40
0.6412172
50
326.9135351
51
338.3505194
0
ARC
8
DEFAULT_255_1_234
10
3.8533353
20
53.5039284
40
1.1146189
50
319.6472867
51
327.095818
0
ARC
8
DEFAULT_255_1_234
10
3.4700356
20
53.8201
40
1.6114559
50
317.2586784
51
319.9046139
0
LINE
8
DEFAULT_255_1_234
10
5.7121127
20
53.4348211
11
5.7121127
21
52.658152
0
LINE
8
DEFAULT_255_1_234
10
5.7121127
20
52.658152
11
5.8743538
21
52.658152
0
LINE
8
DEFAULT_255_1_234
10
5.8743538
20
52.658152
11
5.8743538
21
52.5368728
0
LINE
8
DEFAULT_255_1_234
10
5.8743538
20
52.5368728
11
5.7121127
21
52.5368728
0
LINE
8
DEFAULT_255_1_234
10
5.7121127
20
52.5368728
11
5.7121127
21
52.2654
0
LINE
8
DEFAULT_255_1_234
10
5.7121127
20
52.2654
11
5.5627224
21
52.2654
0
LINE
8
DEFAULT_255_1_234
10
5.5627224
20
52.2654
11
5.5627224
21
52.5368728
0
LINE
8
DEFAULT_255_1_234
10
5.5627224
20
52.5368728
11
5.0302181
21
52.5368728
0
LINE
8
DEFAULT_255_1_234
10
5.0302181
20
52.5368728
11
5.0302181
21
52.6244187
0
LINE
8
DEFAULT_255_1_234
10
5.0302181
20
52.6244187
11
5.5538875
21
53.4348211
0
LINE
8
DEFAULT_255_1_234
10
5.5538875
20
53.4348211
11
5.7121127
21
53.4348211
0
LINE
8
DEFAULT_255_1_234
10
5.5450525
20
53.1994912
11
5.1988846
21
52.658152
0
LINE
8
DEFAULT_255_1_234
10
5.1988846
20
52.658152
11
5.5627224
21
52.658152
0
LINE
8
DEFAULT_255_1_234
10
5.5627224
20
52.658152
11
5.5627224
21
53.2316181
0
LINE
8
DEFAULT_255_1_234
10
5.5627224
20
53.2316181
11
5.5450525
21
53.1994912
0
LINE
8
DEFAULT_255_1_234
10
6.101652
20
53.4348211
11
6.434166
21
52.4702093
0
LINE
8
DEFAULT_255_1_234
10
6.434166
20
52.4702093
11
6.7682863
21
53.4348211
0
LINE
8
DEFAULT_255_1_234
10
6.7682863
20
53.4348211
11
6.9369528
21
53.4348211
0
LINE
8
DEFAULT_255_1_234
10
6.9369528
20
53.4348211
11
6.5032389
21
52.2654
0
LINE
8
DEFAULT_255_1_234
10
6.5032389
20
52.2654
11
6.3666994
21
52.2654
0
LINE
8
DEFAULT_255_1_234
10
6.3666994
20
52.2654
11
5.9337887
21
53.4348211
0
LINE
8
DEFAULT_255_1_234
10
5.9337887
20
53.4348211
11
6.101652
21
53.4348211
0
LINE
8
DEFAULT_255_1_234
10
4.5339344
20
5.0982091
11
4.2584458
21
5.0982091
0
LINE
8
DEFAULT_255_1_234
10
4.2584458
20
5.0982091
11
4.2584458
21
4.6404
0
LINE
8
DEFAULT_255_1_234
10
4.2584458
20
4.6404
11
4.1042364
21
4.6404
0
LINE
8
DEFAULT_255_1_234
10
4.1042364
20
4.6404
11
4.1042364
21
5.8098211
0
LINE
8
DEFAULT_255_1_234
10
4.1042364
20
5.8098211
11
4.5355407
21
5.8098211
0
LINE
8
DEFAULT_255_1_234
10
4.2584458
20
5.6829196
11
4.2584458
21
5.2243074
0
LINE
8
DEFAULT_255_1_234
10
4.2584458
20
5.2243074
11
4.5355407
21
5.2243074
0
LINE
8
DEFAULT_255_1_234
10
4.5443756
20
5.6829196
11
4.2584458
21
5.6829196
0
ARC
8
DEFAULT_255_1_234
10
4.5397534
20
5.2039195
40
0.6059162
50
78.8378113
51
90.3983573
0
ARC
8
DEFAULT_255_1_234
10
4.5813548
20
5.4059879
40
0.3996205
50
58.9632738
51
79.0810598
0
ARC
8
DEFAULT_255_1_234
10
4.611509
20
5.4619721
40
0.3361177
50
48.0197965
51
58.447194
0
ARC
8
DEFAULT_255_1_234
10
4.6203951
20
5.4705225
40
0.3238191
50
3.3375044
51
48.1766626
0
ARC
8
DEFAULT_255_1_234
10
4.497379
20
5.4528171
40
0.4477806
50
359.9477528
51
4.6829065
0
ARC
8
DEFAULT_255_1_234
10
4.5097107
20
5.4485628
40
0.4354656
50
346.1877825
51
0.5060252
0
ARC
8
DEFAULT_255_1_234
10
4.6455975
20
5.4132731
40
0.295089
50
310.8831995
51
346.5426355
0
ARC
8
DEFAULT_255_1_234
10
4.6147395
20
5.4549695
40
0.3468331
50
286.6925341
51
310.2288297
0
ARC
8
DEFAULT_255_1_234
10
4.5578226
20
5.6339882
40
0.5346654
50
274.6850312
51
287.0245141
0
ARC
8
DEFAULT_255_1_234
10
4.5352949
20
5.8548932
40
0.7566852
50
269.8969846
51
275.018904
0
ARC
8
DEFAULT_255_1_234
10
4.538054
20
5.6469707
40
0.4226708
50
269.6593078
51
279.4153575
0
ARC
8
DEFAULT_255_1_234
10
4.5637815
20
5.4979133
40
0.2714146
50
279.2049762
51
294.9900808
0
ARC
8
DEFAULT_255_1_234
10
4.5928141
20
5.4331508
40
0.2004525
50
295.2888114
51
311.2911209
0
ARC
8
DEFAULT_255_1_234
10
4.5999035
20
5.422622
40
0.1878703
50
311.7854996
51
347.2861051
0
ARC
8
DEFAULT_255_1_234
10
4.5015194
20
5.4479092
40
0.2894234
50
346.6893224
51
0.1059443
0
ARC
8
DEFAULT_255_1_234
10
4.4260089
20
5.4507685
40
0.3649409
50
359.6350983
51
0.0053152
0
ARC
8
DEFAULT_255_1_234
10
4.5230417
20
5.4532937
40
0.2679199
50
359.4672059
51
15.5933957
0
ARC
8
DEFAULT_255_1_234
10
4.5855306
20
5.4701779
40
0.2031932
50
15.7442113
51
46.6203375
0
ARC
8
DEFAULT_255_1_234
10
4.5707527
20
5.4531484
40
0.2257226
50
46.8628658
51
75.6676503
0
ARC
8
DEFAULT_255_1_234
10
4.5413347
20
5.3472718
40
0.3355939
50
75.276167
51
88.2915297
0
ARC
8
DEFAULT_255_1_234
10
4.5355054
20
5.2594524
40
0.4235602
50
87.8575022
51
88.8000139
0
LINE
8
DEFAULT_255_1_234
10
5.8696125
20
4.7616792
11
5.8696125
21
4.6404
0
LINE
8
DEFAULT_255_1_234
10
5.8696125
20
4.6404
11
5.1033846
21
4.6404
0
LINE
8
DEFAULT_255_1_234
10
5.1033846
20
4.6404
11
5.1033846
21
4.7472221
0
LINE
8
DEFAULT_255_1_234
10
5.1033846
20
4.7472221
11
5.5081842
21
5.1969995
0
LINE
8
DEFAULT_255_1_234
10
5.2294829
20
5.4652595
11
5.0808958
21
5.4652595
0
LINE
8
DEFAULT_255_1_234
10
5.5957302
20
5.1014218
11
5.2824924
21
4.7616792
0
LINE
8
DEFAULT_255_1_234
10
5.2824924
20
4.7616792
11
5.8696125
21
4.7616792
0
ARC
8
DEFAULT_255_1_234
10
4.1591676
20
6.3899527
40
1.8008286
50
318.5132453
51
320.7828378
0
ARC
8
DEFAULT_255_1_234
10
4.687865
20
5.9596426
40
1.1191493
50
320.7372736
51
323.9737074
0
ARC
8
DEFAULT_255_1_234
10
5.0798506
20
5.6756361
40
0.6350923
50
323.8961724
51
328.6421089
0
ARC
8
DEFAULT_255_1_234
10
5.2845102
20
5.5494031
40
0.3946393
50
328.8299013
51
331.789948
0
ARC
8
DEFAULT_255_1_234
10
5.384228
20
5.4979509
40
0.2824501
50
331.4255242
51
352.9364833
0
ARC
8
DEFAULT_255_1_234
10
5.3978781
20
5.4948976
40
0.2685315
50
353.2248685
51
0.0169286
0
ARC
8
DEFAULT_255_1_234
10
5.4188658
20
5.497195
40
0.2475536
50
359.4866256
51
15.9339782
0
ARC
8
DEFAULT_255_1_234
10
5.4695643
20
5.5108286
40
0.1950618
50
16.1714718
51
43.5284424
0
ARC
8
DEFAULT_255_1_234
10
5.4772952
20
5.5185573
40
0.184134
50
43.4415429
51
83.1661404
0
ARC
8
DEFAULT_255_1_234
10
5.463887
20
5.4448771
40
0.258926
50
82.160215
51
90.1505798
0
ARC
8
DEFAULT_255_1_234
10
5.4607297
20
5.3911865
40
0.3126255
50
89.5460705
51
102.5418777
0
ARC
8
DEFAULT_255_1_234
10
5.4364383
20
5.4942665
40
0.2067346
50
102.1739365
51
129.2061916
0
ARC
8
DEFAULT_255_1_234
10
5.4285455
20
5.5067094
40
0.1921118
50
129.7279328
51
135.7542026
0
ARC
8
DEFAULT_255_1_234
10
5.4406983
20
5.4970045
40
0.2075944
50
136.175737
51
166.3674722
0
ARC
8
DEFAULT_255_1_234
10
5.5413902
20
5.4700182
40
0.3118201
50
165.9092917
51
178.8683903
0
ARC
8
DEFAULT_255_1_234
10
5.6278763
20
5.4653179
40
0.3983935
50
178.438168
51
180.0083905
0
ARC
8
DEFAULT_255_1_234
10
5.4877365
20
5.4692231
40
0.4068601
50
163.2878735
51
180.5581814
0
ARC
8
DEFAULT_255_1_234
10
5.4075627
20
5.491284
40
0.3237344
50
133.454115
51
162.9470031
0
ARC
8
DEFAULT_255_1_234
10
5.4254168
20
5.4723
40
0.349795
50
100.7869394
51
133.4384016
0
ARC
8
DEFAULT_255_1_234
10
5.4601939
20
5.3174319
40
0.5084616
50
89.6605301
51
101.3704185
0
ARC
8
DEFAULT_255_1_234
10
5.4668278
20
5.3235496
40
0.502348
50
78.2171172
51
90.4130393
0
ARC
8
DEFAULT_255_1_234
10
5.5023357
20
5.4859637
40
0.3361092
50
55.9268222
51
78.4888551
0
ARC
8
DEFAULT_255_1_234
10
5.5219797
20
5.5198324
40
0.2970617
50
47.9292255
51
55.4054003
0
ARC
8
DEFAULT_255_1_234
10
5.5321357
20
5.5301502
40
0.2825983
50
4.3347696
51
48.0560701
0
ARC
8
DEFAULT_255_1_234
10
5.4225751
20
5.5131601
40
0.393225
50
359.925209
51
5.5967654
0
ARC
8
DEFAULT_255_1_234
10
5.4654643
20
5.5187816
40
0.3503892
50
337.8914096
51
358.9967724
0
ARC
8
DEFAULT_255_1_234
10
5.1941055
20
5.6234706
40
0.6412172
50
326.9135351
51
338.3505194
0
ARC
8
DEFAULT_255_1_234
10
4.7955359
20
5.8789284
40
1.1146189
50
319.6472867
51
327.095818
0
ARC
8
DEFAULT_255_1_234
10
4.4122362
20
6.1951
40
1.6114559
50
317.2586784
51
319.9046139
0
LINE
8
DEFAULT_255_1_234
10
4.5251344
20
13.0357091
11
4.2496458
21
13.0357091
0
LINE
8
DEFAULT_255_1_234
10
4.2496458
20
13.0357091
11
4.2496458
21
12.5779
0
LINE
8
DEFAULT_255_1_234
10
4.2496458
20
12.5779
11
4.0954364
21
12.5779
0
LINE
8
DEFAULT_255_1_234
10
4.0954364
20
12.5779
11
4.0954364
21
13.7473211
0
LINE
8
DEFAULT_255_1_234
10
4.0954364
20
13.7473211
11
4.5267407
21
13.7473211
0
LINE
8
DEFAULT_255_1_234
10
4.2496458
20
13.6204196
11
4.2496458
21
13.1618074
0
LINE
8
DEFAULT_255_1_234
10
4.2496458
20
13.1618074
11
4.5267407
21
13.1618074
0
LINE
8
DEFAULT_255_1_234
10
4.5355756
20
13.6204196
11
4.2496458
21
13.6204196
0
ARC
8
DEFAULT_255_1_234
10
4.5309534
20
13.1414195
40
0.6059162
50
78.8378113
51
90.3983573
0
ARC
8
DEFAULT_255_1_234
10
4.5725548
20
13.3434879
40
0.3996205
50
58.9632738
51
79.0810598
0
ARC
8
DEFAULT_255_1_234
10
4.602709
20
13.3994721
40
0.3361177
50
48.0197965
51
58.447194
0
ARC
8
DEFAULT_255_1_234
10
4.6115951
20
13.4080225
40
0.3238191
50
3.3375044
51
48.1766626
0
ARC
8
DEFAULT_255_1_234
10
4.488579
20
13.3903171
40
0.4477806
50
359.9477528
51
4.6829065
0
ARC
8
DEFAULT_255_1_234
10
4.5009107
20
13.3860628
40
0.4354656
50
346.1877825
51
0.5060252
0
ARC
8
DEFAULT_255_1_234
10
4.6367975
20
13.3507731
40
0.295089
50
310.8831995
51
346.5426355
0
ARC
8
DEFAULT_255_1_234
10
4.6059395
20
13.3924695
40
0.3468331
50
286.6925341
51
310.2288297
0
ARC
8
DEFAULT_255_1_234
10
4.5490226
20
13.5714882
40
0.5346654
50
274.6850312
51
287.0245141
0
ARC
8
DEFAULT_255_1_234
10
4.5264949
20
13.7923932
40
0.7566852
50
269.8969846
51
275.018904
0
ARC
8
DEFAULT_255_1_234
10
4.529254
20
13.5844707
40
0.4226708
50
269.6593078
51
279.4153575
0
ARC
8
DEFAULT_255_1_234
10
4.5549815
20
13.4354133
40
0.2714146
50
279.2049762
51
294.9900808
0
ARC
8
DEFAULT_255_1_234
10
4.5840141
20
13.3706508
40
0.2004525
50
295.2888114
51
311.2911209
0
ARC
8
DEFAULT_255_1_234
10
4.5911035
20
13.360122
40
0.1878703
50
311.7854996
51
347.2861051
0
ARC
8
DEFAULT_255_1_234
10
4.4927194
20
13.3854092
40
0.2894234
50
346.6893224
51
0.1059443
0
ARC
8
DEFAULT_255_1_234
10
4.4172089
20
13.3882685
40
0.3649409
50
359.6350983
51
0.0053152
0
ARC
8
DEFAULT_255_1_234
10
4.5142417
20
13.3907937
40
0.2679199
50
359.4672059
51
15.5933957
0
ARC
8
DEFAULT_255_1_234
10
4.5767306
20
13.4076779
40
0.2031932
50
15.7442113
51
46.6203375
0
ARC
8
DEFAULT_255_1_234
10
4.5619527
20
13.3906484
40
0.2257226
50
46.8628658
51
75.6676503
0
ARC
8
DEFAULT_255_1_234
10
4.5325347
20
13.2847718
40
0.3355939
50
75.276167
51
88.2915297
0
ARC
8
DEFAULT_255_1_234
10
4.5267054
20
13.1969524
40
0.4235602
50
87.8575022
51
88.8000139
0
LINE
8
DEFAULT_255_1_234
10
5.5829143
20
13.7529433
11
5.5829143
21
12.5779
0
LINE
8
DEFAULT_255_1_234
10
5.5829143
20
12.5779
11
5.433524
21
12.5779
0
LINE
8
DEFAULT_255_1_234
10
5.433524
20
12.5779
11
5.433524
21
13.5682133
0
LINE
8
DEFAULT_255_1_234
10
5.433524
20
13.5682133
11
5.1339401
21
13.4581785
0
LINE
8
DEFAULT_255_1_234
10
5.1339401
20
13.4581785
11
5.1339401
21
13.5931117
0
LINE
8
DEFAULT_255_1_234
10
5.1339401
20
13.5931117
11
5.5596223
21
13.7529433
0
LINE
8
DEFAULT_255_1_234
10
5.5596223
20
13.7529433
11
5.5829143
21
13.7529433
0
LINE
8
DEFAULT_255_1_234
10
5.0753482
20
21.097701
11
5.0753482
21
20.6688062
0
LINE
8
DEFAULT_255_1_234
10
4.1741872
20
21.0438884
11
4.1741872
21
21.1458915
0
LINE
8
DEFAULT_255_1_234
10
5.0753482
20
21.3418659
11
4.9211389
21
21.3418659
0
LINE
8
DEFAULT_255_1_234
10
4.3291998
20
21.1499073
11
4.3291998
21
21.0543296
0
LINE
8
DEFAULT_255_1_234
10
4.921942
20
20.7097681
11
4.921942
21
20.9724059
0
LINE
8
DEFAULT_255_1_234
10
4.921942
20
20.9724059
11
4.6512725
21
20.9724059
0
LINE
8
DEFAULT_255_1_234
10
4.6512725
20
20.9724059
11
4.6512725
21
21.097701
0
LINE
8
DEFAULT_255_1_234
10
4.6512725
20
21.097701
11
5.0753482
21
21.097701
0
ARC
8
DEFAULT_255_1_234
10
4.7921989
20
20.8681396
40
0.3462765
50
295.8437914
51
324.8549609
0
ARC
8
DEFAULT_255_1_234
10
4.7505956
20
20.9434567
40
0.4322211
50
291.5695085
51
296.4549398
0
ARC
8
DEFAULT_255_1_234
10
4.6995207
20
21.0799275
40
0.5779178
50
278.6622409
51
291.3045483
0
ARC
8
DEFAULT_255_1_234
10
4.6655699
20
21.2947408
40
0.7953952
50
270.020006
51
278.7494541
0
ARC
8
DEFAULT_255_1_234
10
4.6617623
20
21.4264036
40
0.927067
50
269.9969998
51
270.2524872
0
ARC
8
DEFAULT_255_1_234
10
4.6579336
20
21.0180589
40
0.5187361
50
253.5786322
51
270.4175299
0
ARC
8
DEFAULT_255_1_234
10
4.6405992
20
20.9509236
40
0.4494451
50
238.8203306
51
253.2788235
0
ARC
8
DEFAULT_255_1_234
10
4.6386365
20
20.9458231
40
0.4440665
50
206.7883783
51
238.6962764
0
ARC
8
DEFAULT_255_1_234
10
4.7160275
20
20.9922405
40
0.5341121
50
206.1129412
51
207.4916643
0
ARC
8
DEFAULT_255_1_234
10
4.775719
20
21.0176488
40
0.5989041
50
188.6921119
51
205.7821245
0
ARC
8
DEFAULT_255_1_234
10
4.9613552
20
21.049223
40
0.7871862
50
180.3882829
51
188.9219216
0
ARC
8
DEFAULT_255_1_234
10
5.0841366
20
21.1515464
40
0.909967
50
170.2024264
51
180.3560651
0
ARC
8
DEFAULT_255_1_234
10
4.7677884
20
21.2081237
40
0.5886083
50
154.2857445
51
170.3893044
0
ARC
8
DEFAULT_255_1_234
10
4.6396087
20
21.266795
40
0.4476743
50
139.8401567
51
153.9332699
0
ARC
8
DEFAULT_255_1_234
10
4.6036823
20
21.2955577
40
0.4016697
50
98.4190291
51
139.6707122
0
ARC
8
DEFAULT_255_1_234
10
4.6416341
20
21.1110328
40
0.5898566
50
89.7659205
51
99.4415478
0
ARC
8
DEFAULT_255_1_234
10
4.648159
20
21.1175844
40
0.5833147
50
78.0551672
51
90.4042112
0
ARC
8
DEFAULT_255_1_234
10
4.68861
20
21.2994644
40
0.3970055
50
54.6380464
51
78.3339173
0
ARC
8
DEFAULT_255_1_234
10
4.7076156
20
21.3314795
40
0.3599102
50
50.031736
51
54.1558201
0
ARC
8
DEFAULT_255_1_234
10
4.6968944
20
21.3218766
40
0.3741624
50
18.1092409
51
49.7180913
0
ARC
8
DEFAULT_255_1_234
10
4.5512144
20
21.2685089
40
0.5292424
50
7.9672797
51
18.6984571
0
ARC
8
DEFAULT_255_1_234
10
4.5662622
20
21.2808504
40
0.3600838
50
9.7557294
51
27.3215714
0
ARC
8
DEFAULT_255_1_234
10
4.6790094
20
21.3371912
40
0.2340608
50
27.7361077
51
84.5257964
0
ARC
8
DEFAULT_255_1_234
10
4.6462481
20
21.172864
40
0.4011215
50
82.106034
51
90.2001166
0
ARC
8
DEFAULT_255_1_234
10
4.6412698
20
21.2236215
40
0.3503799
50
89.4150119
51
105.5823402
0
ARC
8
DEFAULT_255_1_234
10
4.6155696
20
21.3171867
40
0.2533503
50
105.6678618
51
144.2648758
0
ARC
8
DEFAULT_255_1_234
10
4.7048951
20
21.2536289
40
0.3629787
50
144.3561283
51
162.8564086
0
ARC
8
DEFAULT_255_1_234
10
4.913286
20
21.1867017
40
0.5818441
50
162.6076014
51
173.6780284
0
ARC
8
DEFAULT_255_1_234
10
5.2194004
20
21.149489
40
0.8902007
50
173.4670142
51
179.9730753
0
ARC
8
DEFAULT_255_1_234
10
5.0285675
20
21.050126
40
0.6993804
50
179.6556203
51
190.0080463
0
ARC
8
DEFAULT_255_1_234
10
4.7969504
20
21.0076375
40
0.4639066
50
189.8116607
51
206.6796816
0
ARC
8
DEFAULT_255_1_234
10
4.7124656
20
20.9682503
40
0.3707421
50
207.1031645
51
217.7074368
0
ARC
8
DEFAULT_255_1_234
10
4.6490345
20
20.9130559
40
0.2868417
50
216.7345547
51
265.6812148
0
ARC
8
DEFAULT_255_1_234
10
4.6621136
20
21.0034855
40
0.3780509
50
264.7366618
51
270.0611241
0
ARC
8
DEFAULT_255_1_234
10
4.6644399
20
21.2875111
40
0.662079
50
269.8335834
51
276.0539546
0
ARC
8
DEFAULT_255_1_234
10
4.6851404
20
21.097356
40
0.4708016
50
275.9894168
51
284.4615085
0
ARC
8
DEFAULT_255_1_234
10
4.7049411
20
21.0140663
40
0.3852094
50
284.7034461
51
286.4953897
0
ARC
8
DEFAULT_255_1_234
10
4.7456424
20
20.8829965
40
0.2479842
50
286.0770838
51
304.2625829
0
ARC
8
DEFAULT_255_1_234
10
4.7589838
20
20.8611594
40
0.2224291
50
304.5891602
51
317.1073298
0
LINE
8
DEFAULT_255_1_234
10
6.2311154
20
21.6848211
11
6.2311154
21
20.5154
0
LINE
8
DEFAULT_255_1_234
10
6.2311154
20
20.5154
11
6.0761028
21
20.5154
0
LINE
8
DEFAULT_255_1_234
10
6.0761028
20
20.5154
11
5.4873764
21
21.416561
0
LINE
8
DEFAULT_255_1_234
10
5.4873764
20
21.416561
11
5.4873764
21
20.5154
0
LINE
8
DEFAULT_255_1_234
10
5.4873764
20
20.5154
11
5.3323639
21
20.5154
0
LINE
8
DEFAULT_255_1_234
10
5.3323639
20
20.5154
11
5.3323639
21
21.6848211
0
LINE
8
DEFAULT_255_1_234
10
5.3323639
20
21.6848211
11
5.4873764
21
21.6848211
0
LINE
8
DEFAULT_255_1_234
10
5.4873764
20
21.6848211
11
6.0777092
21
20.7796442
0
LINE
8
DEFAULT_255_1_234
10
6.0777092
20
20.7796442
11
6.0777092
21
21.6848211
0
LINE
8
DEFAULT_255_1_234
10
6.0777092
20
21.6848211
11
6.2311154
21
21.6848211
0
LINE
8
DEFAULT_255_1_234
10
6.8286767
20
20.5154
11
6.5049977
21
20.5154
0
LINE
8
DEFAULT_255_1_234
10
6.5049977
20
20.5154
11
6.5049977
21
21.6848211
0
LINE
8
DEFAULT_255_1_234
10
6.5049977
20
21.6848211
11
6.8351021
21
21.6848211
0
LINE
8
DEFAULT_255_1_234
10
7.3507397
20
21.1394661
11
7.3507397
21
21.0647709
0
LINE
8
DEFAULT_255_1_234
10
6.839118
20
21.5579196
11
6.659207
21
21.5579196
0
LINE
8
DEFAULT_255_1_234
10
6.659207
20
21.5579196
11
6.659207
21
20.6414983
0
LINE
8
DEFAULT_255_1_234
10
6.659207
20
20.6414983
11
6.8214481
21
20.6414983
0
LINE
8
DEFAULT_255_1_234
10
7.1981367
20
21.0679836
11
7.1981367
21
21.1362534
0
ARC
8
DEFAULT_255_1_234
10
6.8389963
20
21.0982894
40
0.5865446
50
75.4101064
51
90.3804066
0
ARC
8
DEFAULT_255_1_234
10
6.8619477
20
21.1939492
40
0.4881916
50
60.145586
51
75.1888407
0
ARC
8
DEFAULT_255_1_234
10
6.8778252
20
21.2216199
40
0.4562893
50
26.5253612
51
60.1450928
0
ARC
8
DEFAULT_255_1_234
10
6.7658002
20
21.1622158
40
0.5830602
50
7.4030428
51
26.8320788
0
ARC
8
DEFAULT_255_1_234
10
6.6063758
20
21.1373804
40
0.7443669
50
0.1605367
51
7.7176192
0
ARC
8
DEFAULT_255_1_234
10
6.6227663
20
21.0609434
40
0.7279835
50
348.7289388
51
0.3012466
0
ARC
8
DEFAULT_255_1_234
10
6.7884093
20
21.0280386
40
0.559104
50
333.0706509
51
348.7181832
0
ARC
8
DEFAULT_255_1_234
10
6.8850851
20
20.9755319
40
0.4491417
50
299.2531685
51
333.4571258
0
ARC
8
DEFAULT_255_1_234
10
6.8489991
20
21.0440828
40
0.5265881
50
278.107187
51
299.0339503
0
ARC
8
DEFAULT_255_1_234
10
6.823407
20
21.1948216
40
0.679442
50
270.4443897
51
278.4511052
0
ARC
8
DEFAULT_255_1_234
10
6.82549
20
21.1019213
40
0.4604407
50
269.4970433
51
284.0205042
0
ARC
8
DEFAULT_255_1_234
10
6.8610201
20
20.9653978
40
0.3193797
50
283.7700273
51
318.1555492
0
ARC
8
DEFAULT_255_1_234
10
6.8272959
20
20.9906367
40
0.3613588
50
318.7415601
51
343.6873628
0
ARC
8
DEFAULT_255_1_234
10
6.6468982
20
21.0469832
40
0.5503313
50
343.3325091
51
355.8548958
0
ARC
8
DEFAULT_255_1_234
10
6.4370666
20
21.0669319
40
0.7610708
50
355.4988528
51
0.0791727
0
ARC
8
DEFAULT_255_1_234
10
6.5153289
20
21.140478
40
0.6828208
50
359.6455037
51
9.8607896
0
ARC
8
DEFAULT_255_1_234
10
6.7513987
20
21.1831099
40
0.4429406
50
9.6571907
51
26.1932807
0
ARC
8
DEFAULT_255_1_234
10
6.8441975
20
21.2262118
40
0.3406537
50
26.5777228
51
40.1532208
0
ARC
8
DEFAULT_255_1_234
10
6.8697702
20
21.2461619
40
0.308246
50
40.3840491
51
80.1431104
0
ARC
8
DEFAULT_255_1_234
10
6.837082
20
21.1012333
40
0.4566909
50
79.2152159
51
89.7445637
0
LINE
8
DEFAULT_255_1_234
10
4.3473902
20
29.6223211
11
4.3473902
21
28.4529
0
LINE
8
DEFAULT_255_1_234
10
4.3473902
20
28.4529
11
4.1931808
21
28.4529
0
LINE
8
DEFAULT_255_1_234
10
4.1931808
20
28.4529
11
4.1931808
21
29.6223211
0
LINE
8
DEFAULT_255_1_234
10
4.1931808
20
29.6223211
11
4.3473902
21
29.6223211
0
LINE
8
DEFAULT_255_1_234
10
5.5288589
20
29.0737534
11
5.5288589
21
28.9998614
0
LINE
8
DEFAULT_255_1_234
10
4.5883423
20
28.9894201
11
4.5883423
21
29.0737534
0
LINE
8
DEFAULT_255_1_234
10
5.3754527
20
28.9886169
11
5.3754527
21
29.0753597
0
LINE
8
DEFAULT_255_1_234
10
4.7417485
20
29.085801
11
4.7417485
21
28.9998614
0
ARC
8
DEFAULT_255_1_234
10
4.6646615
20
28.9959015
40
0.8642064
50
350.487711
51
0.2625388
0
ARC
8
DEFAULT_255_1_234
10
4.8939857
20
28.9564578
40
0.631518
50
336.0277639
51
350.5787438
0
ARC
8
DEFAULT_255_1_234
10
5.028468
20
28.8956892
40
0.4839466
50
319.8877444
51
336.1328423
0
ARC
8
DEFAULT_255_1_234
10
5.0887321
20
28.847458
40
0.4067874
50
302.4806467
51
319.6143626
0
ARC
8
DEFAULT_255_1_234
10
5.0772331
20
28.8696202
40
0.4316636
50
275.8195682
51
302.1884709
0
ARC
8
DEFAULT_255_1_234
10
5.0605964
20
28.9838665
40
0.5470306
50
269.9171439
51
276.3397983
0
ARC
8
DEFAULT_255_1_234
10
5.0561174
20
28.9152681
40
0.4784458
50
252.5219675
51
270.4416499
0
ARC
8
DEFAULT_255_1_234
10
5.0417433
20
28.8613592
40
0.422716
50
237.5352116
51
252.1857531
0
ARC
8
DEFAULT_255_1_234
10
5.0506629
20
28.8727363
40
0.4371052
50
209.063312
51
237.3492538
0
ARC
8
DEFAULT_255_1_234
10
5.1376477
20
28.9273685
40
0.5397041
50
205.1183774
51
209.6470015
0
ARC
8
DEFAULT_255_1_234
10
5.2173514
20
28.961183
40
0.6262326
50
188.7215458
51
204.8240747
0
ARC
8
DEFAULT_255_1_234
10
5.4171042
20
28.9948067
40
0.8287794
50
180.3723947
51
188.9252049
0
ARC
8
DEFAULT_255_1_234
10
5.4143794
20
29.0777402
40
0.8260467
50
169.5253763
51
180.2765336
0
ARC
8
DEFAULT_255_1_234
10
5.2241243
20
29.1127309
40
0.6326007
50
155.8315255
51
169.5089989
0
ARC
8
DEFAULT_255_1_234
10
5.0960744
20
29.1721348
40
0.4914567
50
139.6258461
51
156.0379525
0
ARC
8
DEFAULT_255_1_234
10
5.0371077
20
29.2195799
40
0.4158054
50
122.6416387
51
139.3430715
0
ARC
8
DEFAULT_255_1_234
10
5.0471697
20
29.2012451
40
0.4366739
50
93.0223692
51
122.455762
0
ARC
8
DEFAULT_255_1_234
10
5.0579694
20
29.1047709
40
0.5336137
50
89.975342
51
93.6341897
0
ARC
8
DEFAULT_255_1_234
10
5.0618473
20
29.1446242
40
0.4937738
50
73.746375
51
90.4233405
0
ARC
8
DEFAULT_255_1_234
10
5.0794052
20
29.2126287
40
0.4235786
50
57.662753
51
73.4518111
0
ARC
8
DEFAULT_255_1_234
10
5.0786058
20
29.2147832
40
0.4221899
50
29.1440151
51
57.414694
0
ARC
8
DEFAULT_255_1_234
10
4.9851253
20
29.1564005
40
0.5322966
50
24.0982783
51
29.7323517
0
ARC
8
DEFAULT_255_1_234
10
4.8817528
20
29.1135399
40
0.6441673
50
8.6655297
51
23.8241346
0
ARC
8
DEFAULT_255_1_234
10
4.6583266
20
29.0770854
40
0.8705386
50
359.7806941
51
8.8218784
0
ARC
8
DEFAULT_255_1_234
10
4.5436264
20
29.0796345
40
0.8318373
50
359.7055579
51
8.036044
0
ARC
8
DEFAULT_255_1_234
10
4.843627
20
29.1233239
40
0.5286768
50
7.8928306
51
20.2962107
0
ARC
8
DEFAULT_255_1_234
10
5.0063841
20
29.1833395
40
0.3552073
50
20.3231126
51
36.4992797
0
ARC
8
DEFAULT_255_1_234
10
5.0749387
20
29.2361402
40
0.2686974
50
36.1437156
51
85.6627023
0
ARC
8
DEFAULT_255_1_234
10
5.0586933
20
29.1321221
40
0.373739
50
84.3852322
51
90.0757696
0
ARC
8
DEFAULT_255_1_234
10
5.0544605
20
29.1981839
40
0.3076997
50
89.3038458
51
109.9045693
0
ARC
8
DEFAULT_255_1_234
10
5.0451996
20
29.2364062
40
0.2686424
50
110.8228367
51
143.9179474
0
ARC
8
DEFAULT_255_1_234
10
5.1385656
20
29.1651236
40
0.3860887
50
143.5289163
51
163.2980757
0
ARC
8
DEFAULT_255_1_234
10
5.3293477
20
29.1051433
40
0.5860659
50
163.0418846
51
174.3140048
0
ARC
8
DEFAULT_255_1_234
10
5.5697589
20
29.0773854
40
0.8280531
50
174.0509143
51
179.4176892
0
ARC
8
DEFAULT_255_1_234
10
5.5193328
20
28.9956954
40
0.7775954
50
179.6930361
51
188.7906598
0
ARC
8
DEFAULT_255_1_234
10
5.2529807
20
28.9530935
40
0.5078633
50
188.6331305
51
202.5629587
0
ARC
8
DEFAULT_255_1_234
10
5.1275399
20
28.9026996
40
0.3726913
50
202.8081362
51
216.1193925
0
ARC
8
DEFAULT_255_1_234
10
5.0465969
20
28.8375676
40
0.2689577
50
215.0755913
51
264.6379694
0
ARC
8
DEFAULT_255_1_234
10
5.0592919
20
28.9206513
40
0.3528978
50
263.846392
51
270.0833719
0
ARC
8
DEFAULT_255_1_234
10
5.0634309
20
28.8948374
40
0.3271036
50
269.3649385
51
287.5152008
0
ARC
8
DEFAULT_255_1_234
10
5.0812467
20
28.8301238
40
0.2600406
50
288.0630309
51
323.8113348
0
ARC
8
DEFAULT_255_1_234
10
4.9941309
20
28.8951049
40
0.3687189
50
323.6547608
51
342.6590488
0
ARC
8
DEFAULT_255_1_234
10
4.7909924
20
28.9611952
40
0.5823286
50
342.4091907
51
353.6451149
0
ARC
8
DEFAULT_255_1_234
10
4.5078434
20
28.996419
40
0.8676442
50
353.4029884
51
359.4847795
0
LINE
8
DEFAULT_255_1_234
10
5.7971189
20
29.6223211
11
6.1296329
21
28.6577093
0
LINE
8
DEFAULT_255_1_234
10
6.1296329
20
28.6577093
11
6.4637532
21
29.6223211
0
LINE
8
DEFAULT_255_1_234
10
6.4637532
20
29.6223211
11
6.6324197
21
29.6223211
0
LINE
8
DEFAULT_255_1_234
10
6.6324197
20
29.6223211
11
6.1987059
21
28.4529
0
LINE
8
DEFAULT_255_1_234
10
6.1987059
20
28.4529
11
6.0621663
21
28.4529
0
LINE
8
DEFAULT_255_1_234
10
6.0621663
20
28.4529
11
5.6292556
21
29.6223211
0
LINE
8
DEFAULT_255_1_234
10
5.6292556
20
29.6223211
11
5.7971189
21
29.6223211
0
LINE
8
DEFAULT_255_1_234
10
4.781877
20
37.5598211
11
4.9368896
21
37.5598211
0
LINE
8
DEFAULT_255_1_234
10
4.9368896
20
37.5598211
11
4.9368896
21
36.764679
0
LINE
8
DEFAULT_255_1_234
10
4.5529725
20
36.3759429
11
4.5120106
21
36.3743365
0
LINE
8
DEFAULT_255_1_234
10
4.0903443
20
36.7630727
11
4.0903443
21
37.5598211
0
LINE
8
DEFAULT_255_1_234
10
4.0903443
20
37.5598211
11
4.2429474
21
37.5598211
0
LINE
8
DEFAULT_255_1_234
10
4.2429474
20
37.5598211
11
4.2429474
21
36.7678917
0
LINE
8
DEFAULT_255_1_234
10
4.781877
20
36.7670885
11
4.781877
21
37.5598211
0
ARC
8
DEFAULT_255_1_234
10
4.5015794
20
36.7626928
40
0.4353147
50
343.0898354
51
0.2614217
0
ARC
8
DEFAULT_255_1_234
10
4.5844195
20
36.7395837
40
0.3493402
50
315.3345598
51
342.7641223
0
ARC
8
DEFAULT_255_1_234
10
4.5620644
20
36.7627682
40
0.3815385
50
284.6606969
51
315.2182466
0
ARC
8
DEFAULT_255_1_234
10
4.5165357
20
36.9173755
40
0.5426573
50
273.8500273
51
285.1797701
0
ARC
8
DEFAULT_255_1_234
10
4.5077408
20
36.9515475
40
0.5772268
50
257.6317484
51
270.4238298
0
ARC
8
DEFAULT_255_1_234
10
4.4652606
20
36.7694198
40
0.3902347
50
230.6087562
51
257.9964012
0
ARC
8
DEFAULT_255_1_234
10
4.4520608
20
36.7487802
40
0.3659186
50
227.7440991
51
230.1551448
0
ARC
8
DEFAULT_255_1_234
10
4.4386439
20
36.7326471
40
0.3449568
50
189.2524587
51
227.5916061
0
ARC
8
DEFAULT_255_1_234
10
4.5908126
20
36.7654013
40
0.5004737
50
180.2665968
51
190.1525252
0
ARC
8
DEFAULT_255_1_234
10
4.6130146
20
36.7650918
40
0.3700778
50
179.5665184
51
191.9952995
0
ARC
8
DEFAULT_255_1_234
10
4.4902252
20
36.7377043
40
0.2442808
50
191.6974072
51
215.1404042
0
ARC
8
DEFAULT_255_1_234
10
4.4664167
20
36.7235108
40
0.2166522
50
215.6950207
51
224.8513522
0
ARC
8
DEFAULT_255_1_234
10
4.471991
20
36.7314697
40
0.2262237
50
225.2846858
51
255.0111758
0
ARC
8
DEFAULT_255_1_234
10
4.504387
20
36.8428455
40
0.3421979
50
254.5944985
51
267.9129803
0
ARC
8
DEFAULT_255_1_234
10
4.5118351
20
36.9512903
40
0.4508556
50
267.4689655
51
270.0223026
0
ARC
8
DEFAULT_255_1_234
10
4.5148496
20
36.8923849
40
0.3919604
50
269.5849941
51
281.1843768
0
ARC
8
DEFAULT_255_1_234
10
4.5427261
20
36.7571059
40
0.2538457
50
280.9344262
51
300.9743589
0
ARC
8
DEFAULT_255_1_234
10
4.5639866
20
36.7179688
40
0.2093566
50
301.4980046
51
315.1466847
0
ARC
8
DEFAULT_255_1_234
10
4.5495405
20
36.7298236
40
0.2279656
50
315.5952539
51
345.6678731
0
ARC
8
DEFAULT_255_1_234
10
4.4375921
20
36.7610009
40
0.3441564
50
345.2524969
51
358.6304371
0
ARC
8
DEFAULT_255_1_234
10
4.3358275
20
36.7669916
40
0.4460494
50
358.1735671
51
0.0124524
0
LINE
8
DEFAULT_255_1_234
10
6.0436631
20
36.972701
11
6.0436631
21
36.5438062
0
LINE
8
DEFAULT_255_1_234
10
5.1425021
20
36.9188884
11
5.1425021
21
37.0208915
0
LINE
8
DEFAULT_255_1_234
10
6.0436631
20
37.2168659
11
5.8894537
21
37.2168659
0
LINE
8
DEFAULT_255_1_234
10
5.2975146
20
37.0249073
11
5.2975146
21
36.9293296
0
LINE
8
DEFAULT_255_1_234
10
5.8902569
20
36.5847681
11
5.8902569
21
36.8474059
0
LINE
8
DEFAULT_255_1_234
10
5.8902569
20
36.8474059
11
5.6195873
21
36.8474059
0
LINE
8
DEFAULT_255_1_234
10
5.6195873
20
36.8474059
11
5.6195873
21
36.972701
0
LINE
8
DEFAULT_255_1_234
10
5.6195873
20
36.972701
11
6.0436631
21
36.972701
0
ARC
8
DEFAULT_255_1_234
10
5.7605137
20
36.7431396
40
0.3462765
50
295.8437914
51
324.8549609
0
ARC
8
DEFAULT_255_1_234
10
5.7189104
20
36.8184567
40
0.4322211
50
291.5695085
51
296.4549398
0
ARC
8
DEFAULT_255_1_234
10
5.6678356
20
36.9549275
40
0.5779178
50
278.6622409
51
291.3045483
0
ARC
8
DEFAULT_255_1_234
10
5.6338847
20
37.1697408
40
0.7953952
50
270.020006
51
278.7494541
0
ARC
8
DEFAULT_255_1_234
10
5.6300771
20
37.3014036
40
0.927067
50
269.9969998
51
270.2524872
0
ARC
8
DEFAULT_255_1_234
10
5.6262484
20
36.8930589
40
0.5187361
50
253.5786322
51
270.4175299
0
ARC
8
DEFAULT_255_1_234
10
5.608914
20
36.8259236
40
0.4494451
50
238.8203306
51
253.2788235
0
ARC
8
DEFAULT_255_1_234
10
5.6069514
20
36.8208231
40
0.4440665
50
206.7883783
51
238.6962764
0
ARC
8
DEFAULT_255_1_234
10
5.6843424
20
36.8672405
40
0.5341121
50
206.1129412
51
207.4916643
0
ARC
8
DEFAULT_255_1_234
10
5.7440339
20
36.8926488
40
0.5989041
50
188.6921119
51
205.7821245
0
ARC
8
DEFAULT_255_1_234
10
5.92967
20
36.924223
40
0.7871862
50
180.3882829
51
188.9219216
0
ARC
8
DEFAULT_255_1_234
10
6.0524515
20
37.0265464
40
0.909967
50
170.2024264
51
180.3560651
0
ARC
8
DEFAULT_255_1_234
10
5.7361032
20
37.0831237
40
0.5886083
50
154.2857445
51
170.3893044
0
ARC
8
DEFAULT_255_1_234
10
5.6079236
20
37.141795
40
0.4476743
50
139.8401567
51
153.9332699
0
ARC
8
DEFAULT_255_1_234
10
5.5719971
20
37.1705577
40
0.4016697
50
98.4190291
51
139.6707122
0
ARC
8
DEFAULT_255_1_234
10
5.6099489
20
36.9860328
40
0.5898566
50
89.7659205
51
99.4415478
0
ARC
8
DEFAULT_255_1_234
10
5.6164739
20
36.9925844
40
0.5833147
50
78.0551672
51
90.4042112
0
ARC
8
DEFAULT_255_1_234
10
5.6569249
20
37.1744644
40
0.3970055
50
54.6380464
51
78.3339173
0
ARC
8
DEFAULT_255_1_234
10
5.6759305
20
37.2064795
40
0.3599102
50
50.031736
51
54.1558201
0
ARC
8
DEFAULT_255_1_234
10
5.6652092
20
37.1968766
40
0.3741624
50
18.1092409
51
49.7180913
0
ARC
8
DEFAULT_255_1_234
10
5.5195292
20
37.1435089
40
0.5292424
50
7.9672797
51
18.6984571
0
ARC
8
DEFAULT_255_1_234
10
5.534577
20
37.1558504
40
0.3600838
50
9.7557294
51
27.3215714
0
ARC
8
DEFAULT_255_1_234
10
5.6473242
20
37.2121912
40
0.2340608
50
27.7361077
51
84.5257964
0
ARC
8
DEFAULT_255_1_234
10
5.6145629
20
37.047864
40
0.4011215
50
82.106034
51
90.2001166
0
ARC
8
DEFAULT_255_1_234
10
5.6095846
20
37.0986215
40
0.3503799
50
89.4150119
51
105.5823402
0
ARC
8
DEFAULT_255_1_234
10
5.5838844
20
37.1921867
40
0.2533503
50
105.6678618
51
144.2648758
0
ARC
8
DEFAULT_255_1_234
10
5.67321
20
37.1286289
40
0.3629787
50
144.3561283
51
162.8564086
0
ARC
8
DEFAULT_255_1_234
10
5.8816009
20
37.0617017
40
0.5818441
50
162.6076014
51
173.6780284
0
ARC
8
DEFAULT_255_1_234
10
6.1877152
20
37.024489
40
0.8902007
50
173.4670142
51
179.9730753
0
ARC
8
DEFAULT_255_1_234
10
5.9968824
20
36.925126
40
0.6993804
50
179.6556203
51
190.0080463
0
ARC
8
DEFAULT_255_1_234
10
5.7652652
20
36.8826375
40
0.4639066
50
189.8116607
51
206.6796816
0
ARC
8
DEFAULT_255_1_234
10
5.6807805
20
36.8432503
40
0.3707421
50
207.1031645
51
217.7074368
0
ARC
8
DEFAULT_255_1_234
10
5.6173493
20
36.7880559
40
0.2868417
50
216.7345547
51
265.6812148
0
ARC
8
DEFAULT_255_1_234
10
5.6304284
20
36.8784855
40
0.3780509
50
264.7366618
51
270.0611241
0
ARC
8
DEFAULT_255_1_234
10
5.6327548
20
37.1625111
40
0.662079
50
269.8335834
51
276.0539546
0
ARC
8
DEFAULT_255_1_234
10
5.6534552
20
36.972356
40
0.4708016
50
275.9894168
51
284.4615085
0
ARC
8
DEFAULT_255_1_234
10
5.6732559
20
36.8890663
40
0.3852094
50
284.7034461
51
286.4953897
0
ARC
8
DEFAULT_255_1_234
10
5.7139572
20
36.7579965
40
0.2479842
50
286.0770838
51
304.2625829
0
ARC
8
DEFAULT_255_1_234
10
5.7272986
20
36.7361594
40
0.2224291
50
304.5891602
51
317.1073298
0
LINE
8
DEFAULT_255_1_234
10
4.819077
20
45.4973211
11
4.9740896
21
45.4973211
0
LINE
8
DEFAULT_255_1_234
10
4.9740896
20
45.4973211
11
4.9740896
21
44.702179
0
LINE
8
DEFAULT_255_1_234
10
4.5901725
20
44.3134429
11
4.5492106
21
44.3118365
0
LINE
8
DEFAULT_255_1_234
10
4.1275443
20
44.7005727
11
4.1275443
21
45.4973211
0
LINE
8
DEFAULT_255_1_234
10
4.1275443
20
45.4973211
11
4.2801474
21
45.4973211
0
LINE
8
DEFAULT_255_1_234
10
4.2801474
20
45.4973211
11
4.2801474
21
44.7053917
0
LINE
8
DEFAULT_255_1_234
10
4.819077
20
44.7045885
11
4.819077
21
45.4973211
0
ARC
8
DEFAULT_255_1_234
10
4.5387794
20
44.7001928
40
0.4353147
50
343.0898354
51
0.2614217
0
ARC
8
DEFAULT_255_1_234
10
4.6216195
20
44.6770837
40
0.3493402
50
315.3345598
51
342.7641223
0
ARC
8
DEFAULT_255_1_234
10
4.5992644
20
44.7002682
40
0.3815385
50
284.6606969
51
315.2182466
0
ARC
8
DEFAULT_255_1_234
10
4.5537357
20
44.8548755
40
0.5426573
50
273.8500273
51
285.1797701
0
ARC
8
DEFAULT_255_1_234
10
4.5449408
20
44.8890475
40
0.5772268
50
257.6317484
51
270.4238298
0
ARC
8
DEFAULT_255_1_234
10
4.5024606
20
44.7069198
40
0.3902347
50
230.6087562
51
257.9964012
0
ARC
8
DEFAULT_255_1_234
10
4.4892608
20
44.6862802
40
0.3659186
50
227.7440991
51
230.1551448
0
ARC
8
DEFAULT_255_1_234
10
4.4758439
20
44.6701471
40
0.3449568
50
189.2524587
51
227.5916061
0
ARC
8
DEFAULT_255_1_234
10
4.6280126
20
44.7029013
40
0.5004737
50
180.2665968
51
190.1525252
0
ARC
8
DEFAULT_255_1_234
10
4.6502146
20
44.7025918
40
0.3700778
50
179.5665184
51
191.9952995
0
ARC
8
DEFAULT_255_1_234
10
4.5274252
20
44.6752043
40
0.2442808
50
191.6974072
51
215.1404042
0
ARC
8
DEFAULT_255_1_234
10
4.5036167
20
44.6610108
40
0.2166522
50
215.6950207
51
224.8513522
0
ARC
8
DEFAULT_255_1_234
10
4.509191
20
44.6689697
40
0.2262237
50
225.2846858
51
255.0111758
0
ARC
8
DEFAULT_255_1_234
10
4.541587
20
44.7803455
40
0.3421979
50
254.5944985
51
267.9129803
0
ARC
8
DEFAULT_255_1_234
10
4.5490351
20
44.8887903
40
0.4508556
50
267.4689655
51
270.0223026
0
ARC
8
DEFAULT_255_1_234
10
4.5520496
20
44.8298849
40
0.3919604
50
269.5849941
51
281.1843768
0
ARC
8
DEFAULT_255_1_234
10
4.5799261
20
44.6946059
40
0.2538457
50
280.9344262
51
300.9743589
0
ARC
8
DEFAULT_255_1_234
10
4.6011866
20
44.6554688
40
0.2093566
50
301.4980046
51
315.1466847
0
ARC
8
DEFAULT_255_1_234
10
4.5867405
20
44.6673236
40
0.2279656
50
315.5952539
51
345.6678731
0
ARC
8
DEFAULT_255_1_234
10
4.4747921
20
44.6985009
40
0.3441564
50
345.2524969
51
358.6304371
0
ARC
8
DEFAULT_255_1_234
10
4.3730275
20
44.7044916
40
0.4460494
50
358.1735671
51
0.0124524
0
LINE
8
DEFAULT_255_1_234
10
5.272067
20
45.4973211
11
5.604581
21
44.5327093
0
LINE
8
DEFAULT_255_1_234
10
5.604581
20
44.5327093
11
5.9387013
21
45.4973211
0
LINE
8
DEFAULT_255_1_234
10
5.9387013
20
45.4973211
11
6.1073678
21
45.4973211
0
LINE
8
DEFAULT_255_1_234
10
6.1073678
20
45.4973211
11
5.673654
21
44.3279
0
LINE
8
DEFAULT_255_1_234
10
5.673654
20
44.3279
11
5.5371144
21
44.3279
0
LINE
8
DEFAULT_255_1_234
10
5.5371144
20
44.3279
11
5.1042037
21
45.4973211
0
LINE
8
DEFAULT_255_1_234
10
5.1042037
20
45.4973211
11
5.272067
21
45.4973211
0
LINE
8
DEFAULT_255_1_234
10
23.1660817
20
52.9569327
11
23.1660817
21
52.7641709
0
LINE
8
DEFAULT_255_1_234
10
22.427965
20
52.7440916
11
22.427965
21
52.9424755
0
LINE
8
DEFAULT_255_1_234
10
23.0174946
20
52.7240123
11
23.0174946
21
52.9673739
0
LINE
8
DEFAULT_255_1_234
10
22.5765521
20
52.9786184
11
22.5765521
21
52.7408789
0
ARC
8
DEFAULT_255_1_234
10
21.9413707
20
52.7592805
40
1.2247208
50
353.8441951
51
0.2287902
0
ARC
8
DEFAULT_255_1_234
10
22.4053211
20
52.7074806
40
0.7578929
50
344.4934747
51
353.9765454
0
ARC
8
DEFAULT_255_1_234
10
22.7045801
20
52.6223981
40
0.4467846
50
329.2803592
51
344.7472793
0
ARC
8
DEFAULT_255_1_234
10
22.8038626
20
52.5679018
40
0.3336173
50
324.9352394
51
328.6160465
0
ARC
8
DEFAULT_255_1_234
10
22.8415734
20
52.5415427
40
0.2876076
50
280.580143
51
324.9173126
0
ARC
8
DEFAULT_255_1_234
10
22.8014527
20
52.7086099
40
0.4592847
50
269.5977311
51
281.6734359
0
ARC
8
DEFAULT_255_1_234
10
22.7942433
20
52.6966173
40
0.4472986
50
256.6228859
51
270.51044
0
ARC
8
DEFAULT_255_1_234
10
22.754041
20
52.5417877
40
0.2873874
50
215.8618325
51
257.2788573
0
ARC
8
DEFAULT_255_1_234
10
22.8561442
20
52.6102977
40
0.4102928
50
197.9693508
51
215.2623606
0
ARC
8
DEFAULT_255_1_234
10
23.1046558
20
52.6941709
40
0.6725652
50
187.8816417
51
198.2346507
0
ARC
8
DEFAULT_255_1_234
10
23.5004766
20
52.7513079
40
1.0724845
50
180.8976217
51
188.0055519
0
ARC
8
DEFAULT_255_1_234
10
23.7804954
20
52.7616777
40
1.3526448
50
180.7449369
51
181.1510016
0
ARC
8
DEFAULT_255_1_234
10
23.6227683
20
52.9473042
40
1.1948131
50
173.7675579
51
180.231553
0
ARC
8
DEFAULT_255_1_234
10
23.170983
20
52.9983666
40
0.7401564
50
164.3058563
51
173.9002247
0
ARC
8
DEFAULT_255_1_234
10
22.8797899
20
53.0822656
40
0.4371288
50
148.7922025
51
164.568378
0
ARC
8
DEFAULT_255_1_234
10
22.7846351
20
53.1353929
40
0.3282386
50
144.5883898
51
148.1176286
0
ARC
8
DEFAULT_255_1_234
10
22.7503249
20
53.1593315
40
0.2864044
50
101.6440918
51
144.514236
0
ARC
8
DEFAULT_255_1_234
10
22.7928315
20
52.9904069
40
0.4604934
50
89.5284041
51
102.5819763
0
ARC
8
DEFAULT_255_1_234
10
22.8007403
20
52.9865018
40
0.464401
50
77.0437873
51
90.5081339
0
ARC
8
DEFAULT_255_1_234
10
22.8409405
20
53.1507615
40
0.2953195
50
48.2778575
51
77.4994676
0
ARC
8
DEFAULT_255_1_234
10
22.8482036
20
53.1636746
40
0.2808655
50
36.3142134
51
47.6305865
0
ARC
8
DEFAULT_255_1_234
10
22.7613343
20
53.1051515
40
0.3855453
50
18.2931786
51
35.6769206
0
ARC
8
DEFAULT_255_1_234
10
22.5070102
20
53.0178593
40
0.654423
50
8.024666
51
18.5605216
0
ARC
8
DEFAULT_255_1_234
10
22.0907022
20
52.9563792
40
1.0752407
50
1.1274072
51
8.1718305
0
ARC
8
DEFAULT_255_1_234
10
21.7671213
20
52.9436885
40
1.3990231
50
0.5424119
51
1.3863029
0
ARC
8
DEFAULT_255_1_234
10
21.949259
20
52.9709342
40
1.0682415
50
359.8090433
51
4.9407866
0
ARC
8
DEFAULT_255_1_234
10
22.3702604
20
53.0085113
40
0.6455691
50
4.8362157
51
12.2904523
0
ARC
8
DEFAULT_255_1_234
10
22.6457719
20
53.0698965
40
0.3633074
50
12.0805627
51
23.8173984
0
ARC
8
DEFAULT_255_1_234
10
22.7631425
20
53.1195919
40
0.2358723
50
24.2871213
51
31.3935614
0
ARC
8
DEFAULT_255_1_234
10
22.8156122
20
53.1539233
40
0.1732111
50
30.7407893
51
82.4657128
0
ARC
8
DEFAULT_255_1_234
10
22.7976256
20
53.0655691
40
0.263235
50
81.1060089
51
90.2184952
0
ARC
8
DEFAULT_255_1_234
10
22.7940555
20
53.0913924
40
0.2374236
50
89.3806855
51
105.6762551
0
ARC
8
DEFAULT_255_1_234
10
22.7757186
20
53.1580567
40
0.1682847
50
105.7981136
51
149.7388061
0
ARC
8
DEFAULT_255_1_234
10
22.8821264
20
53.094095
40
0.2924306
50
149.4208916
51
163.6286378
0
ARC
8
DEFAULT_255_1_234
10
23.0912152
20
53.030325
40
0.5110213
50
163.3763315
51
172.1410975
0
ARC
8
DEFAULT_255_1_234
10
23.4212871
20
52.9830518
40
0.8444586
50
172.0259487
51
178.0703232
0
ARC
8
DEFAULT_255_1_234
10
23.724296
20
52.9686906
40
1.1477868
50
177.8631668
51
179.5044149
0
ARC
8
DEFAULT_255_1_234
10
23.6170365
20
52.7372389
40
1.0404907
50
179.7995573
51
185.2460446
0
ARC
8
DEFAULT_255_1_234
10
23.2127404
20
52.6989513
40
0.6343885
50
185.1411642
51
193.0079639
0
ARC
8
DEFAULT_255_1_234
10
22.9483877
20
52.6364641
40
0.3627568
50
192.7897626
51
205.2507664
0
ARC
8
DEFAULT_255_1_234
10
22.8437424
20
52.5897415
40
0.2481908
50
205.8005384
51
211.2537509
0
ARC
8
DEFAULT_255_1_234
10
22.7913864
20
52.554658
40
0.1852521
50
210.3789793
51
238.4008143
0
ARC
8
DEFAULT_255_1_234
10
22.7894386
20
52.5593376
40
0.1882621
50
239.6520629
51
265.9793761
0
ARC
8
DEFAULT_255_1_234
10
22.7979586
20
52.6265427
40
0.2559272
50
265.1315437
51
270.060332
0
ARC
8
DEFAULT_255_1_234
10
22.8008365
20
52.5941534
40
0.2235528
50
269.3314664
51
287.2178029
0
ARC
8
DEFAULT_255_1_234
10
22.8146217
20
52.5438279
40
0.1714108
50
287.7958004
51
329.080874
0
ARC
8
DEFAULT_255_1_234
10
22.7188674
20
52.603593
40
0.2842745
50
328.6634704
51
343.3325132
0
ARC
8
DEFAULT_255_1_234
10
22.5015694
20
52.6712863
40
0.5118644
50
343.0499468
51
351.9393422
0
ARC
8
DEFAULT_255_1_234
10
22.1548994
20
52.7223949
40
0.8622784
50
351.8069023
51
357.7959224
0
ARC
8
DEFAULT_255_1_234
10
21.831355
20
52.7391721
40
1.1862365
50
357.5871873
51
359.2677531
0
LINE
8
DEFAULT_255_1_234
10
23.4496021
20
53.4348211
11
23.7821161
21
52.4702093
0
LINE
8
DEFAULT_255_1_234
10
23.7821161
20
52.4702093
11
24.1162364
21
53.4348211
0
LINE
8
DEFAULT_255_1_234
10
24.1162364
20
53.4348211
11
24.2849029
21
53.4348211
0
LINE
8
DEFAULT_255_1_234
10
24.2849029
20
53.4348211
11
23.851189
21
52.2654
0
LINE
8
DEFAULT_255_1_234
10
23.851189
20
52.2654
11
23.7146495
21
52.2654
0
LINE
8
DEFAULT_255_1_234
10
23.7146495
20
52.2654
11
23.2817388
21
53.4348211
0
LINE
8
DEFAULT_255_1_234
10
23.2817388
20
53.4348211
11
23.4496021
21
53.4348211
0
LINE
8
DEFAULT_255_1_234
10
21.8630482
20
21.097701
11
21.8630482
21
20.6688062
0
LINE
8
DEFAULT_255_1_234
10
20.9618872
20
21.0438884
11
20.9618872
21
21.1458915
0
LINE
8
DEFAULT_255_1_234
10
21.8630482
20
21.3418659
11
21.7088389
21
21.3418659
0
LINE
8
DEFAULT_255_1_234
10
21.1168998
20
21.1499073
11
21.1168998
21
21.0543296
0
LINE
8
DEFAULT_255_1_234
10
21.709642
20
20.7097681
11
21.709642
21
20.9724059
0
LINE
8
DEFAULT_255_1_234
10
21.709642
20
20.9724059
11
21.4389725
21
20.9724059
0
LINE
8
DEFAULT_255_1_234
10
21.4389725
20
20.9724059
11
21.4389725
21
21.097701
0
LINE
8
DEFAULT_255_1_234
10
21.4389725
20
21.097701
11
21.8630482
21
21.097701
0
ARC
8
DEFAULT_255_1_234
10
21.5798989
20
20.8681396
40
0.3462765
50
295.8437914
51
324.8549609
0
ARC
8
DEFAULT_255_1_234
10
21.5382956
20
20.9434567
40
0.4322211
50
291.5695085
51
296.4549398
0
ARC
8
DEFAULT_255_1_234
10
21.4872207
20
21.0799275
40
0.5779178
50
278.6622409
51
291.3045483
0
ARC
8
DEFAULT_255_1_234
10
21.4532699
20
21.2947408
40
0.7953952
50
270.020006
51
278.7494541
0
ARC
8
DEFAULT_255_1_234
10
21.4494623
20
21.4264036
40
0.927067
50
269.9969998
51
270.2524872
0
ARC
8
DEFAULT_255_1_234
10
21.4456336
20
21.0180589
40
0.5187361
50
253.5786322
51
270.4175299
0
ARC
8
DEFAULT_255_1_234
10
21.4282992
20
20.9509236
40
0.4494451
50
238.8203306
51
253.2788235
0
ARC
8
DEFAULT_255_1_234
10
21.4263365
20
20.9458231
40
0.4440665
50
206.7883783
51
238.6962764
0
ARC
8
DEFAULT_255_1_234
10
21.5037275
20
20.9922405
40
0.5341121
50
206.1129412
51
207.4916643
0
ARC
8
DEFAULT_255_1_234
10
21.563419
20
21.0176488
40
0.5989041
50
188.6921119
51
205.7821245
0
ARC
8
DEFAULT_255_1_234
10
21.7490552
20
21.049223
40
0.7871862
50
180.3882829
51
188.9219216
0
ARC
8
DEFAULT_255_1_234
10
21.8718366
20
21.1515464
40
0.909967
50
170.2024264
51
180.3560651
0
ARC
8
DEFAULT_255_1_234
10
21.5554884
20
21.2081237
40
0.5886083
50
154.2857445
51
170.3893044
0
ARC
8
DEFAULT_255_1_234
10
21.4273087
20
21.266795
40
0.4476743
50
139.8401567
51
153.9332699
0
ARC
8
DEFAULT_255_1_234
10
21.3913823
20
21.2955577
40
0.4016697
50
98.4190291
51
139.6707122
0
ARC
8
DEFAULT_255_1_234
10
21.4293341
20
21.1110328
40
0.5898566
50
89.7659205
51
99.4415478
0
ARC
8
DEFAULT_255_1_234
10
21.435859
20
21.1175844
40
0.5833147
50
78.0551672
51
90.4042112
0
ARC
8
DEFAULT_255_1_234
10
21.47631
20
21.2994644
40
0.3970055
50
54.6380464
51
78.3339173
0
ARC
8
DEFAULT_255_1_234
10
21.4953156
20
21.3314795
40
0.3599102
50
50.031736
51
54.1558201
0
ARC
8
DEFAULT_255_1_234
10
21.4845944
20
21.3218766
40
0.3741624
50
18.1092409
51
49.7180913
0
ARC
8
DEFAULT_255_1_234
10
21.3389144
20
21.2685089
40
0.5292424
50
7.9672797
51
18.6984571
0
ARC
8
DEFAULT_255_1_234
10
21.3539622
20
21.2808504
40
0.3600838
50
9.7557294
51
27.3215714
0
ARC
8
DEFAULT_255_1_234
10
21.4667094
20
21.3371912
40
0.2340608
50
27.7361077
51
84.5257964
0
ARC
8
DEFAULT_255_1_234
10
21.4339481
20
21.172864
40
0.4011215
50
82.106034
51
90.2001166
0
ARC
8
DEFAULT_255_1_234
10
21.4289698
20
21.2236215
40
0.3503799
50
89.4150119
51
105.5823402
0
ARC
8
DEFAULT_255_1_234
10
21.4032696
20
21.3171867
40
0.2533503
50
105.6678618
51
144.2648758
0
ARC
8
DEFAULT_255_1_234
10
21.4925951
20
21.2536289
40
0.3629787
50
144.3561283
51
162.8564086
0
ARC
8
DEFAULT_255_1_234
10
21.700986
20
21.1867017
40
0.5818441
50
162.6076014
51
173.6780284
0
ARC
8
DEFAULT_255_1_234
10
22.0071004
20
21.149489
40
0.8902007
50
173.4670142
51
179.9730753
0
ARC
8
DEFAULT_255_1_234
10
21.8162675
20
21.050126
40
0.6993804
50
179.6556203
51
190.0080463
0
ARC
8
DEFAULT_255_1_234
10
21.5846504
20
21.0076375
40
0.4639066
50
189.8116607
51
206.6796816
0
ARC
8
DEFAULT_255_1_234
10
21.5001656
20
20.9682503
40
0.3707421
50
207.1031645
51
217.7074368
0
ARC
8
DEFAULT_255_1_234
10
21.4367345
20
20.9130559
40
0.2868417
50
216.7345547
51
265.6812148
0
ARC
8
DEFAULT_255_1_234
10
21.4498136
20
21.0034855
40
0.3780509
50
264.7366618
51
270.0611241
0
ARC
8
DEFAULT_255_1_234
10
21.4521399
20
21.2875111
40
0.662079
50
269.8335834
51
276.0539546
0
ARC
8
DEFAULT_255_1_234
10
21.4728404
20
21.097356
40
0.4708016
50
275.9894168
51
284.4615085
0
ARC
8
DEFAULT_255_1_234
10
21.4926411
20
21.0140663
40
0.3852094
50
284.7034461
51
286.4953897
0
ARC
8
DEFAULT_255_1_234
10
21.5333424
20
20.8829965
40
0.2479842
50
286.0770838
51
304.2625829
0
ARC
8
DEFAULT_255_1_234
10
21.5466838
20
20.8611594
40
0.2224291
50
304.5891602
51
317.1073298
0
LINE
8
DEFAULT_255_1_234
10
23.0188154
20
21.6848211
11
23.0188154
21
20.5154
0
LINE
8
DEFAULT_255_1_234
10
23.0188154
20
20.5154
11
22.8638028
21
20.5154
0
LINE
8
DEFAULT_255_1_234
10
22.8638028
20
20.5154
11
22.2750764
21
21.416561
0
LINE
8
DEFAULT_255_1_234
10
22.2750764
20
21.416561
11
22.2750764
21
20.5154
0
LINE
8
DEFAULT_255_1_234
10
22.2750764
20
20.5154
11
22.1200639
21
20.5154
0
LINE
8
DEFAULT_255_1_234
10
22.1200639
20
20.5154
11
22.1200639
21
21.6848211
0
LINE
8
DEFAULT_255_1_234
10
22.1200639
20
21.6848211
11
22.2750764
21
21.6848211
0
LINE
8
DEFAULT_255_1_234
10
22.2750764
20
21.6848211
11
22.8654092
21
20.7796442
0
LINE
8
DEFAULT_255_1_234
10
22.8654092
20
20.7796442
11
22.8654092
21
21.6848211
0
LINE
8
DEFAULT_255_1_234
10
22.8654092
20
21.6848211
11
23.0188154
21
21.6848211
0
LINE
8
DEFAULT_255_1_234
10
23.6163767
20
20.5154
11
23.2926977
21
20.5154
0
LINE
8
DEFAULT_255_1_234
10
23.2926977
20
20.5154
11
23.2926977
21
21.6848211
0
LINE
8
DEFAULT_255_1_234
10
23.2926977
20
21.6848211
11
23.6228021
21
21.6848211
0
LINE
8
DEFAULT_255_1_234
10
24.1384397
20
21.1394661
11
24.1384397
21
21.0647709
0
LINE
8
DEFAULT_255_1_234
10
23.626818
20
21.5579196
11
23.446907
21
21.5579196
0
LINE
8
DEFAULT_255_1_234
10
23.446907
20
21.5579196
11
23.446907
21
20.6414983
0
LINE
8
DEFAULT_255_1_234
10
23.446907
20
20.6414983
11
23.6091481
21
20.6414983
0
LINE
8
DEFAULT_255_1_234
10
23.9858367
20
21.0679836
11
23.9858367
21
21.1362534
0
ARC
8
DEFAULT_255_1_234
10
23.6266963
20
21.0982894
40
0.5865446
50
75.4101064
51
90.3804066
0
ARC
8
DEFAULT_255_1_234
10
23.6496477
20
21.1939492
40
0.4881916
50
60.145586
51
75.1888407
0
ARC
8
DEFAULT_255_1_234
10
23.6655252
20
21.2216199
40
0.4562893
50
26.5253612
51
60.1450928
0
ARC
8
DEFAULT_255_1_234
10
23.5535002
20
21.1622158
40
0.5830602
50
7.4030428
51
26.8320788
0
ARC
8
DEFAULT_255_1_234
10
23.3940758
20
21.1373804
40
0.7443669
50
0.1605367
51
7.7176192
0
ARC
8
DEFAULT_255_1_234
10
23.4104663
20
21.0609434
40
0.7279835
50
348.7289388
51
0.3012466
0
ARC
8
DEFAULT_255_1_234
10
23.5761093
20
21.0280386
40
0.559104
50
333.0706509
51
348.7181832
0
ARC
8
DEFAULT_255_1_234
10
23.6727851
20
20.9755319
40
0.4491417
50
299.2531685
51
333.4571258
0
ARC
8
DEFAULT_255_1_234
10
23.6366991
20
21.0440828
40
0.5265881
50
278.107187
51
299.0339503
0
ARC
8
DEFAULT_255_1_234
10
23.611107
20
21.1948216
40
0.679442
50
270.4443897
51
278.4511052
0
ARC
8
DEFAULT_255_1_234
10
23.61319
20
21.1019213
40
0.4604407
50
269.4970433
51
284.0205042
0
ARC
8
DEFAULT_255_1_234
10
23.6487201
20
20.9653978
40
0.3193797
50
283.7700273
51
318.1555492
0
ARC
8
DEFAULT_255_1_234
10
23.6149959
20
20.9906367
40
0.3613588
50
318.7415601
51
343.6873628
0
ARC
8
DEFAULT_255_1_234
10
23.4345982
20
21.0469832
40
0.5503313
50
343.3325091
51
355.8548958
0
ARC
8
DEFAULT_255_1_234
10
23.2247666
20
21.0669319
40
0.7610708
50
355.4988528
51
0.0791727
0
ARC
8
DEFAULT_255_1_234
10
23.3030289
20
21.140478
40
0.6828208
50
359.6455037
51
9.8607896
0
ARC
8
DEFAULT_255_1_234
10
23.5390987
20
21.1831099
40
0.4429406
50
9.6571907
51
26.1932807
0
ARC
8
DEFAULT_255_1_234
10
23.6318975
20
21.2262118
40
0.3406537
50
26.5777228
51
40.1532208
0
ARC
8
DEFAULT_255_1_234
10
23.6574702
20
21.2461619
40
0.308246
50
40.3840491
51
80.1431104
0
ARC
8
DEFAULT_255_1_234
10
23.624782
20
21.1012333
40
0.4566909
50
79.2152159
51
89.7445637
0
LINE
8
DEFAULT_255_1_234
10
21.9598902
20
29.6223211
11
21.9598902
21
28.4529
0
LINE
8
DEFAULT_255_1_234
10
21.9598902
20
28.4529
11
21.8056808
21
28.4529
0
LINE
8
DEFAULT_255_1_234
10
21.8056808
20
28.4529
11
21.8056808
21
29.6223211
0
LINE
8
DEFAULT_255_1_234
10
21.8056808
20
29.6223211
11
21.9598902
21
29.6223211
0
LINE
8
DEFAULT_255_1_234
10
23.1413589
20
29.0737534
11
23.1413589
21
28.9998614
0
LINE
8
DEFAULT_255_1_234
10
22.2008423
20
28.9894201
11
22.2008423
21
29.0737534
0
LINE
8
DEFAULT_255_1_234
10
22.9879527
20
28.9886169
11
22.9879527
21
29.0753597
0
LINE
8
DEFAULT_255_1_234
10
22.3542485
20
29.085801
11
22.3542485
21
28.9998614
0
ARC
8
DEFAULT_255_1_234
10
22.2771615
20
28.9959015
40
0.8642064
50
350.487711
51
0.2625388
0
ARC
8
DEFAULT_255_1_234
10
22.5064857
20
28.9564578
40
0.631518
50
336.0277639
51
350.5787438
0
ARC
8
DEFAULT_255_1_234
10
22.640968
20
28.8956892
40
0.4839466
50
319.8877444
51
336.1328423
0
ARC
8
DEFAULT_255_1_234
10
22.7012321
20
28.847458
40
0.4067874
50
302.4806467
51
319.6143626
0
ARC
8
DEFAULT_255_1_234
10
22.6897331
20
28.8696202
40
0.4316636
50
275.8195682
51
302.1884709
0
ARC
8
DEFAULT_255_1_234
10
22.6730964
20
28.9838665
40
0.5470306
50
269.9171439
51
276.3397983
0
ARC
8
DEFAULT_255_1_234
10
22.6686174
20
28.9152681
40
0.4784458
50
252.5219675
51
270.4416499
0
ARC
8
DEFAULT_255_1_234
10
22.6542433
20
28.8613592
40
0.422716
50
237.5352116
51
252.1857531
0
ARC
8
DEFAULT_255_1_234
10
22.6631629
20
28.8727363
40
0.4371052
50
209.063312
51
237.3492538
0
ARC
8
DEFAULT_255_1_234
10
22.7501477
20
28.9273685
40
0.5397041
50
205.1183774
51
209.6470015
0
ARC
8
DEFAULT_255_1_234
10
22.8298514
20
28.961183
40
0.6262326
50
188.7215458
51
204.8240747
0
ARC
8
DEFAULT_255_1_234
10
23.0296042
20
28.9948067
40
0.8287794
50
180.3723947
51
188.9252049
0
ARC
8
DEFAULT_255_1_234
10
23.0268794
20
29.0777402
40
0.8260467
50
169.5253763
51
180.2765336
0
ARC
8
DEFAULT_255_1_234
10
22.8366243
20
29.1127309
40
0.6326007
50
155.8315255
51
169.5089989
0
ARC
8
DEFAULT_255_1_234
10
22.7085744
20
29.1721348
40
0.4914567
50
139.6258461
51
156.0379525
0
ARC
8
DEFAULT_255_1_234
10
22.6496077
20
29.2195799
40
0.4158054
50
122.6416387
51
139.3430715
0
ARC
8
DEFAULT_255_1_234
10
22.6596697
20
29.2012451
40
0.4366739
50
93.0223692
51
122.455762
0
ARC
8
DEFAULT_255_1_234
10
22.6704694
20
29.1047709
40
0.5336137
50
89.975342
51
93.6341897
0
ARC
8
DEFAULT_255_1_234
10
22.6743473
20
29.1446242
40
0.4937738
50
73.746375
51
90.4233405
0
ARC
8
DEFAULT_255_1_234
10
22.6919052
20
29.2126287
40
0.4235786
50
57.662753
51
73.4518111
0
ARC
8
DEFAULT_255_1_234
10
22.6911058
20
29.2147832
40
0.4221899
50
29.1440151
51
57.414694
0
ARC
8
DEFAULT_255_1_234
10
22.5976253
20
29.1564005
40
0.5322966
50
24.0982783
51
29.7323517
0
ARC
8
DEFAULT_255_1_234
10
22.4942528
20
29.1135399
40
0.6441673
50
8.6655297
51
23.8241346
0
ARC
8
DEFAULT_255_1_234
10
22.2708266
20
29.0770854
40
0.8705386
50
359.7806941
51
8.8218784
0
ARC
8
DEFAULT_255_1_234
10
22.1561264
20
29.0796345
40
0.8318373
50
359.7055579
51
8.036044
0
ARC
8
DEFAULT_255_1_234
10
22.456127
20
29.1233239
40
0.5286768
50
7.8928306
51
20.2962107
0
ARC
8
DEFAULT_255_1_234
10
22.6188841
20
29.1833395
40
0.3552073
50
20.3231126
51
36.4992797
0
ARC
8
DEFAULT_255_1_234
10
22.6874387
20
29.2361402
40
0.2686974
50
36.1437156
51
85.6627023
0
ARC
8
DEFAULT_255_1_234
10
22.6711933
20
29.1321221
40
0.373739
50
84.3852322
51
90.0757696
0
ARC
8
DEFAULT_255_1_234
10
22.6669605
20
29.1981839
40
0.3076997
50
89.3038458
51
109.9045693
0
ARC
8
DEFAULT_255_1_234
10
22.6576996
20
29.2364062
40
0.2686424
50
110.8228367
51
143.9179474
0
ARC
8
DEFAULT_255_1_234
10
22.7510656
20
29.1651236
40
0.3860887
50
143.5289163
51
163.2980757
0
ARC
8
DEFAULT_255_1_234
10
22.9418477
20
29.1051433
40
0.5860659
50
163.0418846
51
174.3140048
0
ARC
8
DEFAULT_255_1_234
10
23.1822589
20
29.0773854
40
0.8280531
50
174.0509143
51
179.4176892
0
ARC
8
DEFAULT_255_1_234
10
23.1318328
20
28.9956954
40
0.7775954
50
179.6930361
51
188.7906598
0
ARC
8
DEFAULT_255_1_234
10
22.8654807
20
28.9530935
40
0.5078633
50
188.6331305
51
202.5629587
0
ARC
8
DEFAULT_255_1_234
10
22.7400399
20
28.9026996
40
0.3726913
50
202.8081362
51
216.1193925
0
ARC
8
DEFAULT_255_1_234
10
22.6590969
20
28.8375676
40
0.2689577
50
215.0755913
51
264.6379694
0
ARC
8
DEFAULT_255_1_234
10
22.6717919
20
28.9206513
40
0.3528978
50
263.846392
51
270.0833719
0
ARC
8
DEFAULT_255_1_234
10
22.6759309
20
28.8948374
40
0.3271036
50
269.3649385
51
287.5152008
0
ARC
8
DEFAULT_255_1_234
10
22.6937467
20
28.8301238
40
0.2600406
50
288.0630309
51
323.8113348
0
ARC
8
DEFAULT_255_1_234
10
22.6066309
20
28.8951049
40
0.3687189
50
323.6547608
51
342.6590488
0
ARC
8
DEFAULT_255_1_234
10
22.4034924
20
28.9611952
40
0.5823286
50
342.4091907
51
353.6451149
0
ARC
8
DEFAULT_255_1_234
10
22.1203434
20
28.996419
40
0.8676442
50
353.4029884
51
359.4847795
0
LINE
8
DEFAULT_255_1_234
10
23.4096189
20
29.6223211
11
23.7421329
21
28.6577093
0
LINE
8
DEFAULT_255_1_234
10
23.7421329
20
28.6577093
11
24.0762532
21
29.6223211
0
LINE
8
DEFAULT_255_1_234
10
24.0762532
20
29.6223211
11
24.2449197
21
29.6223211
0
LINE
8
DEFAULT_255_1_234
10
24.2449197
20
29.6223211
11
23.8112059
21
28.4529
0
LINE
8
DEFAULT_255_1_234
10
23.8112059
20
28.4529
11
23.6746663
21
28.4529
0
LINE
8
DEFAULT_255_1_234
10
23.6746663
20
28.4529
11
23.2417556
21
29.6223211
0
LINE
8
DEFAULT_255_1_234
10
23.2417556
20
29.6223211
11
23.4096189
21
29.6223211
0
LINE
8
DEFAULT_255_1_234
10
22.950577
20
37.5598211
11
23.1055896
21
37.5598211
0
LINE
8
DEFAULT_255_1_234
10
23.1055896
20
37.5598211
11
23.1055896
21
36.764679
0
LINE
8
DEFAULT_255_1_234
10
22.7216725
20
36.3759429
11
22.6807106
21
36.3743365
0
LINE
8
DEFAULT_255_1_234
10
22.2590443
20
36.7630727
11
22.2590443
21
37.5598211
0
LINE
8
DEFAULT_255_1_234
10
22.2590443
20
37.5598211
11
22.4116474
21
37.5598211
0
LINE
8
DEFAULT_255_1_234
10
22.4116474
20
37.5598211
11
22.4116474
21
36.7678917
0
LINE
8
DEFAULT_255_1_234
10
22.950577
20
36.7670885
11
22.950577
21
37.5598211
0
ARC
8
DEFAULT_255_1_234
10
22.6702794
20
36.7626928
40
0.4353147
50
343.0898354
51
0.2614217
0
ARC
8
DEFAULT_255_1_234
10
22.7531195
20
36.7395837
40
0.3493402
50
315.3345598
51
342.7641223
0
ARC
8
DEFAULT_255_1_234
10
22.7307644
20
36.7627682
40
0.3815385
50
284.6606969
51
315.2182466
0
ARC
8
DEFAULT_255_1_234
10
22.6852357
20
36.9173755
40
0.5426573
50
273.8500273
51
285.1797701
0
ARC
8
DEFAULT_255_1_234
10
22.6764408
20
36.9515475
40
0.5772268
50
257.6317484
51
270.4238298
0
ARC
8
DEFAULT_255_1_234
10
22.6339606
20
36.7694198
40
0.3902347
50
230.6087562
51
257.9964012
0
ARC
8
DEFAULT_255_1_234
10
22.6207608
20
36.7487802
40
0.3659186
50
227.7440991
51
230.1551448
0
ARC
8
DEFAULT_255_1_234
10
22.6073439
20
36.7326471
40
0.3449568
50
189.2524587
51
227.5916061
0
ARC
8
DEFAULT_255_1_234
10
22.7595126
20
36.7654013
40
0.5004737
50
180.2665968
51
190.1525252
0
ARC
8
DEFAULT_255_1_234
10
22.7817146
20
36.7650918
40
0.3700778
50
179.5665184
51
191.9952995
0
ARC
8
DEFAULT_255_1_234
10
22.6589252
20
36.7377043
40
0.2442808
50
191.6974072
51
215.1404042
0
ARC
8
DEFAULT_255_1_234
10
22.6351167
20
36.7235108
40
0.2166522
50
215.6950207
51
224.8513522
0
ARC
8
DEFAULT_255_1_234
10
22.640691
20
36.7314697
40
0.2262237
50
225.2846858
51
255.0111758
0
ARC
8
DEFAULT_255_1_234
10
22.673087
20
36.8428455
40
0.3421979
50
254.5944985
51
267.9129803
0
ARC
8
DEFAULT_255_1_234
10
22.6805351
20
36.9512903
40
0.4508556
50
267.4689655
51
270.0223026
0
ARC
8
DEFAULT_255_1_234
10
22.6835496
20
36.8923849
40
0.3919604
50
269.5849941
51
281.1843768
0
ARC
8
DEFAULT_255_1_234
10
22.7114261
20
36.7571059
40
0.2538457
50
280.9344262
51
300.9743589
0
ARC
8
DEFAULT_255_1_234
10
22.7326866
20
36.7179688
40
0.2093566
50
301.4980046
51
315.1466847
0
ARC
8
DEFAULT_255_1_234
10
22.7182405
20
36.7298236
40
0.2279656
50
315.5952539
51
345.6678731
0
ARC
8
DEFAULT_255_1_234
10
22.6062921
20
36.7610009
40
0.3441564
50
345.2524969
51
358.6304371
0
ARC
8
DEFAULT_255_1_234
10
22.5045275
20
36.7669916
40
0.4460494
50
358.1735671
51
0.0124524
0
LINE
8
DEFAULT_255_1_234
10
24.2123631
20
36.972701
11
24.2123631
21
36.5438062
0
LINE
8
DEFAULT_255_1_234
10
23.3112021
20
36.9188884
11
23.3112021
21
37.0208915
0
LINE
8
DEFAULT_255_1_234
10
24.2123631
20
37.2168659
11
24.0581537
21
37.2168659
0
LINE
8
DEFAULT_255_1_234
10
23.4662146
20
37.0249073
11
23.4662146
21
36.9293296
0
LINE
8
DEFAULT_255_1_234
10
24.0589569
20
36.5847681
11
24.0589569
21
36.8474059
0
LINE
8
DEFAULT_255_1_234
10
24.0589569
20
36.8474059
11
23.7882873
21
36.8474059
0
LINE
8
DEFAULT_255_1_234
10
23.7882873
20
36.8474059
11
23.7882873
21
36.972701
0
LINE
8
DEFAULT_255_1_234
10
23.7882873
20
36.972701
11
24.2123631
21
36.972701
0
ARC
8
DEFAULT_255_1_234
10
23.9292137
20
36.7431396
40
0.3462765
50
295.8437914
51
324.8549609
0
ARC
8
DEFAULT_255_1_234
10
23.8876104
20
36.8184567
40
0.4322211
50
291.5695085
51
296.4549398
0
ARC
8
DEFAULT_255_1_234
10
23.8365356
20
36.9549275
40
0.5779178
50
278.6622409
51
291.3045483
0
ARC
8
DEFAULT_255_1_234
10
23.8025847
20
37.1697408
40
0.7953952
50
270.020006
51
278.7494541
0
ARC
8
DEFAULT_255_1_234
10
23.7987771
20
37.3014036
40
0.927067
50
269.9969998
51
270.2524872
0
ARC
8
DEFAULT_255_1_234
10
23.7949484
20
36.8930589
40
0.5187361
50
253.5786322
51
270.4175299
0
ARC
8
DEFAULT_255_1_234
10
23.777614
20
36.8259236
40
0.4494451
50
238.8203306
51
253.2788235
0
ARC
8
DEFAULT_255_1_234
10
23.7756514
20
36.8208231
40
0.4440665
50
206.7883783
51
238.6962764
0
ARC
8
DEFAULT_255_1_234
10
23.8530424
20
36.8672405
40
0.5341121
50
206.1129412
51
207.4916643
0
ARC
8
DEFAULT_255_1_234
10
23.9127339
20
36.8926488
40
0.5989041
50
188.6921119
51
205.7821245
0
ARC
8
DEFAULT_255_1_234
10
24.09837
20
36.924223
40
0.7871862
50
180.3882829
51
188.9219216
0
ARC
8
DEFAULT_255_1_234
10
24.2211515
20
37.0265464
40
0.909967
50
170.2024264
51
180.3560651
0
ARC
8
DEFAULT_255_1_234
10
23.9048032
20
37.0831237
40
0.5886083
50
154.2857445
51
170.3893044
0
ARC
8
DEFAULT_255_1_234
10
23.7766236
20
37.141795
40
0.4476743
50
139.8401567
51
153.9332699
0
ARC
8
DEFAULT_255_1_234
10
23.7406971
20
37.1705577
40
0.4016697
50
98.4190291
51
139.6707122
0
ARC
8
DEFAULT_255_1_234
10
23.7786489
20
36.9860328
40
0.5898566
50
89.7659205
51
99.4415478
0
ARC
8
DEFAULT_255_1_234
10
23.7851739
20
36.9925844
40
0.5833147
50
78.0551672
51
90.4042112
0
ARC
8
DEFAULT_255_1_234
10
23.8256249
20
37.1744644
40
0.3970055
50
54.6380464
51
78.3339173
0
ARC
8
DEFAULT_255_1_234
10
23.8446305
20
37.2064795
40
0.3599102
50
50.031736
51
54.1558201
0
ARC
8
DEFAULT_255_1_234
10
23.8339092
20
37.1968766
40
0.3741624
50
18.1092409
51
49.7180913
0
ARC
8
DEFAULT_255_1_234
10
23.6882292
20
37.1435089
40
0.5292424
50
7.9672797
51
18.6984571
0
ARC
8
DEFAULT_255_1_234
10
23.703277
20
37.1558504
40
0.3600838
50
9.7557294
51
27.3215714
0
ARC
8
DEFAULT_255_1_234
10
23.8160242
20
37.2121912
40
0.2340608
50
27.7361077
51
84.5257964
0
ARC
8
DEFAULT_255_1_234
10
23.7832629
20
37.047864
40
0.4011215
50
82.106034
51
90.2001166
0
ARC
8
DEFAULT_255_1_234
10
23.7782846
20
37.0986215
40
0.3503799
50
89.4150119
51
105.5823402
0
ARC
8
DEFAULT_255_1_234
10
23.7525844
20
37.1921867
40
0.2533503
50
105.6678618
51
144.2648758
0
ARC
8
DEFAULT_255_1_234
10
23.84191
20
37.1286289
40
0.3629787
50
144.3561283
51
162.8564086
0
ARC
8
DEFAULT_255_1_234
10
24.0503009
20
37.0617017
40
0.5818441
50
162.6076014
51
173.6780284
0
ARC
8
DEFAULT_255_1_234
10
24.3564152
20
37.024489
40
0.8902007
50
173.4670142
51
179.9730753
0
ARC
8
DEFAULT_255_1_234
10
24.1655824
20
36.925126
40
0.6993804
50
179.6556203
51
190.0080463
0
ARC
8
DEFAULT_255_1_234
10
23.9339652
20
36.8826375
40
0.4639066
50
189.8116607
51
206.6796816
0
ARC
8
DEFAULT_255_1_234
10
23.8494805
20
36.8432503
40
0.3707421
50
207.1031645
51
217.7074368
0
ARC
8
DEFAULT_255_1_234
10
23.7860493
20
36.7880559
40
0.2868417
50
216.7345547
51
265.6812148
0
ARC
8
DEFAULT_255_1_234
10
23.7991284
20
36.8784855
40
0.3780509
50
264.7366618
51
270.0611241
0
ARC
8
DEFAULT_255_1_234
10
23.8014548
20
37.1625111
40
0.662079
50
269.8335834
51
276.0539546
0
ARC
8
DEFAULT_255_1_234
10
23.8221552
20
36.972356
40
0.4708016
50
275.9894168
51
284.4615085
0
ARC
8
DEFAULT_255_1_234
10
23.8419559
20
36.8890663
40
0.3852094
50
284.7034461
51
286.4953897
0
ARC
8
DEFAULT_255_1_234
10
23.8826572
20
36.7579965
40
0.2479842
50
286.0770838
51
304.2625829
0
ARC
8
DEFAULT_255_1_234
10
23.8959986
20
36.7361594
40
0.2224291
50
304.5891602
51
317.1073298
0
LINE
8
DEFAULT_255_1_234
10
22.987777
20
45.4973211
11
23.1427896
21
45.4973211
0
LINE
8
DEFAULT_255_1_234
10
23.1427896
20
45.4973211
11
23.1427896
21
44.702179
0
LINE
8
DEFAULT_255_1_234
10
22.7588725
20
44.3134429
11
22.7179106
21
44.3118365
0
LINE
8
DEFAULT_255_1_234
10
22.2962443
20
44.7005727
11
22.2962443
21
45.4973211
0
LINE
8
DEFAULT_255_1_234
10
22.2962443
20
45.4973211
11
22.4488474
21
45.4973211
0
LINE
8
DEFAULT_255_1_234
10
22.4488474
20
45.4973211
11
22.4488474
21
44.7053917
0
LINE
8
DEFAULT_255_1_234
10
22.987777
20
44.7045885
11
22.987777
21
45.4973211
0
ARC
8
DEFAULT_255_1_234
10
22.7074794
20
44.7001928
40
0.4353147
50
343.0898354
51
0.2614217
0
ARC
8
DEFAULT_255_1_234
10
22.7903195
20
44.6770837
40
0.3493402
50
315.3345598
51
342.7641223
0
ARC
8
DEFAULT_255_1_234
10
22.7679644
20
44.7002682
40
0.3815385
50
284.6606969
51
315.2182466
0
ARC
8
DEFAULT_255_1_234
10
22.7224357
20
44.8548755
40
0.5426573
50
273.8500273
51
285.1797701
0
ARC
8
DEFAULT_255_1_234
10
22.7136408
20
44.8890475
40
0.5772268
50
257.6317484
51
270.4238298
0
ARC
8
DEFAULT_255_1_234
10
22.6711606
20
44.7069198
40
0.3902347
50
230.6087562
51
257.9964012
0
ARC
8
DEFAULT_255_1_234
10
22.6579608
20
44.6862802
40
0.3659186
50
227.7440991
51
230.1551448
0
ARC
8
DEFAULT_255_1_234
10
22.6445439
20
44.6701471
40
0.3449568
50
189.2524587
51
227.5916061
0
ARC
8
DEFAULT_255_1_234
10
22.7967126
20
44.7029013
40
0.5004737
50
180.2665968
51
190.1525252
0
ARC
8
DEFAULT_255_1_234
10
22.8189146
20
44.7025918
40
0.3700778
50
179.5665184
51
191.9952995
0
ARC
8
DEFAULT_255_1_234
10
22.6961252
20
44.6752043
40
0.2442808
50
191.6974072
51
215.1404042
0
ARC
8
DEFAULT_255_1_234
10
22.6723167
20
44.6610108
40
0.2166522
50
215.6950207
51
224.8513522
0
ARC
8
DEFAULT_255_1_234
10
22.677891
20
44.6689697
40
0.2262237
50
225.2846858
51
255.0111758
0
ARC
8
DEFAULT_255_1_234
10
22.710287
20
44.7803455
40
0.3421979
50
254.5944985
51
267.9129803
0
ARC
8
DEFAULT_255_1_234
10
22.7177351
20
44.8887903
40
0.4508556
50
267.4689655
51
270.0223026
0
ARC
8
DEFAULT_255_1_234
10
22.7207496
20
44.8298849
40
0.3919604
50
269.5849941
51
281.1843768
0
ARC
8
DEFAULT_255_1_234
10
22.7486261
20
44.6946059
40
0.2538457
50
280.9344262
51
300.9743589
0
ARC
8
DEFAULT_255_1_234
10
22.7698866
20
44.6554688
40
0.2093566
50
301.4980046
51
315.1466847
0
ARC
8
DEFAULT_255_1_234
10
22.7554405
20
44.6673236
40
0.2279656
50
315.5952539
51
345.6678731
0
ARC
8
DEFAULT_255_1_234
10
22.6434921
20
44.6985009
40
0.3441564
50
345.2524969
51
358.6304371
0
ARC
8
DEFAULT_255_1_234
10
22.5417275
20
44.7044916
40
0.4460494
50
358.1735671
51
0.0124524
0
LINE
8
DEFAULT_255_1_234
10
23.440767
20
45.4973211
11
23.773281
21
44.5327093
0
LINE
8
DEFAULT_255_1_234
10
23.773281
20
44.5327093
11
24.1074013
21
45.4973211
0
LINE
8
DEFAULT_255_1_234
10
24.1074013
20
45.4973211
11
24.2760678
21
45.4973211
0
LINE
8
DEFAULT_255_1_234
10
24.2760678
20
45.4973211
11
23.842354
21
44.3279
0
LINE
8
DEFAULT_255_1_234
10
23.842354
20
44.3279
11
23.7058144
21
44.3279
0
LINE
8
DEFAULT_255_1_234
10
23.7058144
20
44.3279
11
23.2729037
21
45.4973211
0
LINE
8
DEFAULT_255_1_234
10
23.2729037
20
45.4973211
11
23.440767
21
45.4973211
0
ENDSEC
0
EOF