0
SECTION
2
HEADER
9
$MEASUREMENT
70
1
0
ENDSEC
0
SECTION
2
TABLES
0
TABLE
2
LTYPE
0
LTYPE
72
65
70
64
2
CONTINUOUS
3
______
73
0
40
0
0
ENDTAB
0
TABLE
2
LAYER
0
LAYER
2
DEFAULT_255_2_778
70
0
62
255
6
CONTINUOUS
0
ENDTAB
0
ENDSEC
0
SECTION
2
ENTITIES
0
LINE
8
DEFAULT_255_2_778
10
10.7259293
20
101.3187166
11
10.7259293
21
104.3188166
0
LINE
8
DEFAULT_255_2_778
10
10.7259293
20
104.3188166
11
9.2260293
21
105.8187166
0
LINE
8
DEFAULT_255_2_778
10
9.2260293
20
105.8187166
11
4.2259293
21
105.8187166
0
LINE
8
DEFAULT_255_2_778
10
4.2259293
20
105.8187166
11
2.7260293
21
104.3188166
0
LINE
8
DEFAULT_255_2_778
10
2.7260293
20
104.3188166
11
2.7260293
21
101.3187166
0
LINE
8
DEFAULT_255_2_778
10
10.5259
20
3.3189698
11
10.5259
21
4.1478698
0
LINE
8
DEFAULT_255_2_778
10
8.5259334
20
4.1479
11
12.2258334
21
4.1479
0
LINE
8
DEFAULT_255_2_778
10
1.0260584
20
4.1479
11
4.3259584
21
4.1479
0
LINE
8
DEFAULT_255_2_778
10
0.2259439
20
5.7478
11
12.2258439
21
5.7478
0
LINE
8
DEFAULT_255_2_778
10
1.0260127
20
5.7478705
11
1.0260127
21
2.2778705
0
LINE
8
DEFAULT_255_2_778
10
1.0260127
20
2.2778705
11
0.2259127
21
2.2778705
0
LINE
8
DEFAULT_255_2_778
10
0.2259127
20
2.2778705
11
0.2259127
21
99.1687705
0
LINE
8
DEFAULT_255_2_778
10
0.2259127
20
99.1687705
11
1.1760127
21
99.1687705
0
LINE
8
DEFAULT_255_2_778
10
1.1760127
20
99.1687705
11
1.1760127
21
97.6188705
0
LINE
8
DEFAULT_255_2_778
10
1.1760127
20
97.6188705
11
2.5259127
21
97.6188705
0
LINE
8
DEFAULT_255_2_778
10
2.5259127
20
97.6188705
11
2.5259127
21
101.3187705
0
LINE
8
DEFAULT_255_2_778
10
2.5259127
20
101.3187705
11
14.3258127
21
101.3187705
0
LINE
8
DEFAULT_255_2_778
10
14.3258127
20
101.3187705
11
14.3258127
21
97.8688705
0
LINE
8
DEFAULT_255_2_778
10
14.3258127
20
97.8688705
11
13.3259127
21
97.8688705
0
LINE
8
DEFAULT_255_2_778
10
13.3259127
20
97.8688705
11
13.3259127
21
99.3687705
0
LINE
8
DEFAULT_255_2_778
10
13.3259127
20
99.3687705
11
12.2261127
21
99.3687705
0
LINE
8
DEFAULT_255_2_778
10
12.2261127
20
99.3687705
11
12.2261127
21
1.7690705
0
LINE
8
DEFAULT_255_2_778
10
12.2261127
20
1.7690705
11
14.3261127
21
1.7690705
0
LINE
8
DEFAULT_255_2_778
10
6.7759636
20
1.1426875
11
6.7759636
21
-0.1813125
0
LINE
8
DEFAULT_255_2_778
10
6.7759636
20
-0.1813125
11
7.8758636
21
-0.1813125
0
LINE
8
DEFAULT_255_2_778
10
7.8758636
20
-0.1813125
11
7.8758636
21
1.1426875
0
LINE
8
DEFAULT_255_2_778
10
11.8760636
20
1.3186614
11
11.8760636
21
-0.1812386
0
LINE
8
DEFAULT_255_2_778
10
11.8760636
20
-0.1812386
11
12.9759636
21
-0.1812386
0
LINE
8
DEFAULT_255_2_778
10
12.9759636
20
-0.1812386
11
12.9759636
21
1.3186614
0
LINE
8
DEFAULT_255_2_778
10
12.2258345
20
2.2688208
11
13.3257345
21
2.2688208
0
LINE
8
DEFAULT_255_2_778
10
13.3257345
20
2.2688208
11
13.3257345
21
3.7687208
0
LINE
8
DEFAULT_255_2_778
10
13.3257345
20
3.7687208
11
14.3258345
21
3.7687208
0
LINE
8
DEFAULT_255_2_778
10
14.3258345
20
3.7687208
11
14.3258345
21
1.3187208
0
LINE
8
DEFAULT_255_2_778
10
14.3258345
20
1.3187208
11
8.5259345
21
1.3187208
0
LINE
8
DEFAULT_255_2_778
10
2.5260198
20
4.1478625
11
2.5260198
21
1.3189625
0
LINE
8
DEFAULT_255_2_778
10
2.5260198
20
1.3189625
11
4.3260198
21
1.3189625
0
LINE
8
DEFAULT_255_2_778
10
1.1760906
20
4.1478229
11
1.1760906
21
2.4688229
0
LINE
8
DEFAULT_255_2_778
10
1.1760906
20
2.4688229
11
1.0260906
21
2.4688229
0
LINE
8
DEFAULT_255_2_778
10
10.7259
20
1.3189625
11
10.7259
21
4.1478625
0
LINE
8
DEFAULT_255_2_778
10
12.9759636
20
101.3187614
11
12.9759636
21
102.8186614
0
LINE
8
DEFAULT_255_2_778
10
12.9759636
20
102.8186614
11
11.8760636
21
102.8186614
0
LINE
8
DEFAULT_255_2_778
10
11.8760636
20
102.8186614
11
11.8760636
21
101.3187614
0
LINE
8
DEFAULT_255_2_778
10
0.2259439
20
96.8187
11
12.2258439
21
96.8187
0
LINE
8
DEFAULT_255_2_778
10
2.0258813
20
75.5187
11
1.7258813
21
75.5187
0
LINE
8
DEFAULT_255_2_778
10
2.326
20
72.5275364
11
2.326
21
73.6274364
0
LINE
8
DEFAULT_255_2_778
10
2.0259573
20
79.1929
11
3.2258573
21
79.1929
0
LINE
8
DEFAULT_255_2_778
10
3.2261
20
80.4428854
11
3.2261
21
76.1126854
0
LINE
8
DEFAULT_255_2_778
10
10.1259
20
72.5275364
11
10.1259
21
73.6274364
0
LINE
8
DEFAULT_255_2_778
10
10.9259698
20
79.5769
11
11.9258698
21
79.5769
0
LINE
8
DEFAULT_255_2_778
10
10.7259875
20
79.1929
11
10.9259875
21
79.1929
0
LINE
8
DEFAULT_255_2_778
10
10.7259
20
76.1126854
11
10.7259
21
80.4428854
0
LINE
8
DEFAULT_255_2_778
10
9.9258573
20
88.7187552
11
9.9258573
21
90.1186552
0
LINE
8
DEFAULT_255_2_778
10
9.9258573
20
90.1186552
11
8.7259573
21
90.1186552
0
LINE
8
DEFAULT_255_2_778
10
8.7259573
20
90.1186552
11
8.7259573
21
88.7187552
0
LINE
8
DEFAULT_255_2_778
10
8.7259573
20
88.7187552
11
9.9258573
21
88.7187552
0
LINE
8
DEFAULT_255_2_778
10
9.9258573
20
86.4187552
11
9.9258573
21
87.8186552
0
LINE
8
DEFAULT_255_2_778
10
9.9258573
20
87.8186552
11
8.7259573
21
87.8186552
0
LINE
8
DEFAULT_255_2_778
10
8.7259573
20
87.8186552
11
8.7259573
21
86.4187552
0
LINE
8
DEFAULT_255_2_778
10
8.7259573
20
86.4187552
11
9.9258573
21
86.4187552
0
LINE
8
DEFAULT_255_2_778
10
8.7259573
20
92.9187552
11
8.7259573
21
91.5188552
0
LINE
8
DEFAULT_255_2_778
10
8.7259573
20
91.5188552
11
9.9258573
21
91.5188552
0
LINE
8
DEFAULT_255_2_778
10
9.9258573
20
91.5188552
11
9.9258573
21
92.9187552
0
LINE
8
DEFAULT_255_2_778
10
9.9258573
20
92.9187552
11
8.7259573
21
92.9187552
0
LINE
8
DEFAULT_255_2_778
10
8.7259573
20
92.9187552
11
8.7259573
21
91.5188552
0
LINE
8
DEFAULT_255_2_778
10
8.7259573
20
91.5188552
11
9.9258573
21
91.5188552
0
LINE
8
DEFAULT_255_2_778
10
9.9258573
20
91.5188552
11
9.9258573
21
92.9187552
0
LINE
8
DEFAULT_255_2_778
10
9.9258573
20
92.9187552
11
8.7259573
21
92.9187552
0
LINE
8
DEFAULT_255_2_778
10
4.3259021
20
1.8978
11
8.5259021
21
1.8978
0
LINE
8
DEFAULT_255_2_778
10
4.3259021
20
3.2276
11
8.5259021
21
3.2276
0
LINE
8
DEFAULT_255_2_778
10
8.5259021
20
5.7478364
11
8.5259021
21
1.1427364
0
LINE
8
DEFAULT_255_2_778
10
8.5259021
20
1.1427364
11
4.3259021
21
1.1427364
0
LINE
8
DEFAULT_255_2_778
10
4.3259021
20
1.1427364
11
4.3259021
21
5.7478364
0
LINE
8
DEFAULT_255_2_778
10
10.7258948
20
3.3187
11
8.5258948
21
3.3187
0
LINE
8
DEFAULT_255_2_778
10
8.5258948
20
2.3188
11
10.7258948
21
2.3188
0
LINE
8
DEFAULT_255_2_778
10
6.7759636
20
101.3187614
11
6.7759636
21
102.8186614
0
LINE
8
DEFAULT_255_2_778
10
6.7759636
20
102.8186614
11
7.8758636
21
102.8186614
0
LINE
8
DEFAULT_255_2_778
10
7.8758636
20
102.8186614
11
7.8758636
21
101.3187614
0
LINE
8
DEFAULT_255_2_778
10
11.0759282
20
100.8364135
11
3.5758282
21
100.8364135
0
LINE
8
DEFAULT_255_2_778
10
3.5758282
20
100.8364135
11
3.5758282
21
97.3008135
0
LINE
8
DEFAULT_255_2_778
10
3.5758282
20
97.3008135
11
11.0759282
21
97.3008135
0
LINE
8
DEFAULT_255_2_778
10
11.0759282
20
97.3008135
11
11.0759282
21
100.8364135
0
LINE
8
DEFAULT_255_2_778
10
11.0759282
20
100.8364135
11
3.5758282
21
100.8364135
0
LINE
8
DEFAULT_255_2_778
10
3.5758282
20
100.8364135
11
3.5758282
21
97.3008135
0
LINE
8
DEFAULT_255_2_778
10
3.5758282
20
97.3008135
11
11.0759282
21
97.3008135
0
LINE
8
DEFAULT_255_2_778
10
11.0759282
20
97.3008135
11
11.0759282
21
100.8364135
0
LINE
8
DEFAULT_255_2_778
10
11.9257813
20
74.3188
11
12.2257813
21
74.3188
0
LINE
8
DEFAULT_255_2_778
10
12.2257813
20
74.1278
11
11.9257813
21
74.1278
0
LINE
8
DEFAULT_255_2_778
10
0.2259198
20
74.3185354
11
1.7258198
21
74.3185354
0
LINE
8
DEFAULT_255_2_778
10
1.7258198
20
74.3185354
11
1.7258198
21
77.5184354
0
LINE
8
DEFAULT_255_2_778
10
1.7258198
20
77.5184354
11
2.0259198
21
77.5184354
0
LINE
8
DEFAULT_255_2_778
10
2.0259198
20
74.1278
11
0.2259198
21
74.1278
0
LINE
8
DEFAULT_255_2_778
10
10.1258418
20
72.9512
11
2.3259418
21
72.9512
0
LINE
8
DEFAULT_255_2_778
10
2.1259168
20
73.6277364
11
2.1259168
21
72.5278364
0
LINE
8
DEFAULT_255_2_778
10
2.1259168
20
72.5278364
11
10.3259168
21
72.5278364
0
LINE
8
DEFAULT_255_2_778
10
10.3259168
20
72.5278364
11
10.3259168
21
73.6277364
0
LINE
8
DEFAULT_255_2_778
10
11.9258428
20
76.1126906
11
3.0260428
21
76.1126906
0
LINE
8
DEFAULT_255_2_778
10
3.0260428
20
76.1126906
11
3.0260428
21
76.9786906
0
LINE
8
DEFAULT_255_2_778
10
3.0260428
20
76.9786906
11
2.0259428
21
76.9786906
0
LINE
8
DEFAULT_255_2_778
10
2.0259428
20
80.4428687
11
10.9260428
21
80.4428687
0
LINE
8
DEFAULT_255_2_778
10
10.9260428
20
80.4428687
11
10.9260428
21
78.3267687
0
LINE
8
DEFAULT_255_2_778
10
10.9260428
20
78.3267687
11
11.9258428
21
78.3267687
0
LINE
8
DEFAULT_255_2_778
10
11.9258428
20
73.6277582
11
11.9258428
21
81.4276582
0
LINE
8
DEFAULT_255_2_778
10
11.9258428
20
81.4276582
11
2.0259428
21
81.4276582
0
LINE
8
DEFAULT_255_2_778
10
2.0259428
20
81.4276582
11
2.0259428
21
73.6277582
0
LINE
8
DEFAULT_255_2_778
10
2.0259428
20
73.6277582
11
11.9258428
21
73.6277582
0
LINE
8
DEFAULT_255_2_778
10
11.9258428
20
75.1276
11
2.0259428
21
75.1276
0
ARC
8
DEFAULT_255_2_778
10
3.7260098
20
14.6178193
40
1.4098555
50
37.0755236
51
90.0064508
0
ARC
8
DEFAULT_255_2_778
10
3.7257638
20
14.6176759
40
1.4099991
50
89.9964539
51
142.9215758
0
LINE
8
DEFAULT_255_2_778
10
2.2759511
20
15.467775
11
2.2759511
21
13.887775
0
LINE
8
DEFAULT_255_2_778
10
2.2759511
20
13.887775
11
5.1760511
21
13.887775
0
LINE
8
DEFAULT_255_2_778
10
5.1760511
20
13.887775
11
5.1760511
21
15.467775
0
LINE
8
DEFAULT_255_2_778
10
5.1760511
20
15.467775
11
4.8508511
21
15.467775
0
LINE
8
DEFAULT_255_2_778
10
2.6008511
20
15.467775
11
2.2759511
21
15.467775
0
ARC
8
DEFAULT_255_2_778
10
3.7240107
20
11.4905488
40
1.6230195
50
179.9962003
51
180.1026273
0
ARC
8
DEFAULT_255_2_778
10
3.7233961
20
11.4907166
40
1.6224051
50
135.009422
51
180.0021282
0
ARC
8
DEFAULT_255_2_778
10
3.7230188
20
11.4903393
40
1.6224051
50
89.9978718
51
134.990578
0
ARC
8
DEFAULT_255_2_778
10
3.7231867
20
11.4897247
40
1.6230197
50
89.8973727
51
90.0037997
0
ARC
8
DEFAULT_255_2_778
10
3.7285596
20
11.4950211
40
1.6177224
50
61.8422222
51
90.0873324
0
ARC
8
DEFAULT_255_2_778
10
3.7249158
20
11.4871392
40
1.6263911
50
8.5995563
51
61.8600801
0
ARC
8
DEFAULT_255_2_778
10
3.7131386
20
11.4883647
40
1.6378552
50
359.9817031
51
8.4955638
0
ARC
8
DEFAULT_255_2_778
10
3.7329728
20
11.4853814
40
1.6180229
50
332.1931218
51
0.087118
0
ARC
8
DEFAULT_255_2_778
10
3.7253506
20
11.488951
40
1.6264303
50
278.6485674
51
332.2071531
0
ARC
8
DEFAULT_255_2_778
10
3.7266183
20
11.5006254
40
1.6377839
50
269.981651
51
278.5433085
0
ARC
8
DEFAULT_255_2_778
10
3.7231867
20
11.4858585
40
1.6230195
50
269.9962003
51
270.1026273
0
ARC
8
DEFAULT_255_2_778
10
3.7229849
20
11.4849207
40
1.6220819
50
224.9996985
51
270.0033242
0
ARC
8
DEFAULT_255_2_778
10
3.7229901
20
11.4847985
40
1.6219991
50
179.9954647
51
224.9965162
0
ARC
8
DEFAULT_255_2_778
10
3.7240107
20
11.4850345
40
1.6230197
50
179.8973727
51
180.0037997
0
LINE
8
DEFAULT_255_2_778
10
2.1009938
20
11.4879416
11
2.1009938
21
11.4876416
0
ARC
8
DEFAULT_255_2_778
10
8.7262676
20
14.617534
40
1.410141
50
37.0812903
51
90.0006706
0
ARC
8
DEFAULT_255_2_778
10
8.7261638
20
14.6176759
40
1.4099991
50
89.9964539
51
142.9215758
0
LINE
8
DEFAULT_255_2_778
10
7.2760511
20
15.467775
11
7.2760511
21
13.887775
0
LINE
8
DEFAULT_255_2_778
10
7.2760511
20
13.887775
11
10.1761511
21
13.887775
0
LINE
8
DEFAULT_255_2_778
10
10.1761511
20
13.887775
11
10.1761511
21
15.467775
0
LINE
8
DEFAULT_255_2_778
10
10.1761511
20
15.467775
11
9.8512511
21
15.467775
0
LINE
8
DEFAULT_255_2_778
10
7.6012511
20
15.467775
11
7.2763511
21
15.467775
0
ARC
8
DEFAULT_255_2_778
10
8.718882
20
11.4902043
40
1.6177224
50
151.8422222
51
180.0873324
0
ARC
8
DEFAULT_255_2_778
10
8.726764
20
11.4865605
40
1.6263911
50
98.5995563
51
151.8600801
0
ARC
8
DEFAULT_255_2_778
10
8.7255385
20
11.4747833
40
1.6378552
50
89.9817031
51
98.4955638
0
ARC
8
DEFAULT_255_2_778
10
8.7285217
20
11.4946175
40
1.6180229
50
62.1931218
51
90.087118
0
ARC
8
DEFAULT_255_2_778
10
8.7249521
20
11.4869953
40
1.6264303
50
8.6485674
51
62.2071531
0
ARC
8
DEFAULT_255_2_778
10
8.7132778
20
11.488263
40
1.6377839
50
359.981651
51
8.5433085
0
ARC
8
DEFAULT_255_2_778
10
8.7330735
20
11.485275
40
1.6179899
50
332.1926321
51
0.0872357
0
ARC
8
DEFAULT_255_2_778
10
8.7253932
20
11.4888999
40
1.6264743
50
278.6465625
51
332.205897
0
ARC
8
DEFAULT_255_2_778
10
8.7265871
20
11.5008451
40
1.6381067
50
269.981616
51
278.5424654
0
ARC
8
DEFAULT_255_2_778
10
8.7235933
20
11.4804269
40
1.6176903
50
241.8417123
51
270.0874202
0
ARC
8
DEFAULT_255_2_778
10
8.7272929
20
11.4883669
40
1.6264365
50
188.5975683
51
241.8588041
0
ARC
8
DEFAULT_255_2_778
10
8.7393404
20
11.4872144
40
1.6381789
50
179.9816683
51
188.4947209
0
LINE
8
DEFAULT_255_2_778
10
7.1011615
20
11.4877385
11
7.1011615
21
11.4877385
0
ARC
8
DEFAULT_255_2_778
10
3.7260098
20
22.1177193
40
1.4098555
50
37.0755236
51
90.0064508
0
ARC
8
DEFAULT_255_2_778
10
3.7257638
20
22.1175759
40
1.4099991
50
89.9964539
51
142.9215758
0
LINE
8
DEFAULT_255_2_778
10
2.6008511
20
22.967675
11
2.2759511
21
22.967675
0
LINE
8
DEFAULT_255_2_778
10
2.2759511
20
22.967675
11
2.2759511
21
21.387675
0
LINE
8
DEFAULT_255_2_778
10
2.2759511
20
21.387675
11
5.1760511
21
21.387675
0
LINE
8
DEFAULT_255_2_778
10
5.1760511
20
21.387675
11
5.1760511
21
22.967675
0
LINE
8
DEFAULT_255_2_778
10
5.1760511
20
22.967675
11
4.8508511
21
22.967675
0
ARC
8
DEFAULT_255_2_778
10
3.7240107
20
18.9906488
40
1.6230195
50
179.9962003
51
180.1026273
0
ARC
8
DEFAULT_255_2_778
10
3.7233961
20
18.9908166
40
1.6224051
50
135.009422
51
180.0021282
0
ARC
8
DEFAULT_255_2_778
10
3.7230188
20
18.9904393
40
1.6224051
50
89.9978718
51
134.990578
0
ARC
8
DEFAULT_255_2_778
10
3.7231867
20
18.9898247
40
1.6230197
50
89.8973727
51
90.0037997
0
ARC
8
DEFAULT_255_2_778
10
3.7285596
20
18.9951211
40
1.6177224
50
61.8422222
51
90.0873324
0
ARC
8
DEFAULT_255_2_778
10
3.7249158
20
18.9872392
40
1.6263911
50
8.5995563
51
61.8600801
0
ARC
8
DEFAULT_255_2_778
10
3.7131386
20
18.9884647
40
1.6378552
50
359.9817031
51
8.4955638
0
ARC
8
DEFAULT_255_2_778
10
3.7329728
20
18.9854814
40
1.6180229
50
332.1931218
51
0.087118
0
ARC
8
DEFAULT_255_2_778
10
3.7253506
20
18.989051
40
1.6264303
50
278.6485674
51
332.2071531
0
ARC
8
DEFAULT_255_2_778
10
3.7266183
20
19.0007254
40
1.6377839
50
269.981651
51
278.5433085
0
ARC
8
DEFAULT_255_2_778
10
3.7231867
20
18.9859585
40
1.6230195
50
269.9962003
51
270.1026273
0
ARC
8
DEFAULT_255_2_778
10
3.7229849
20
18.9850207
40
1.6220819
50
224.9996985
51
270.0033242
0
ARC
8
DEFAULT_255_2_778
10
3.7229901
20
18.9848985
40
1.6219991
50
179.9954647
51
224.9965162
0
ARC
8
DEFAULT_255_2_778
10
3.7240107
20
18.9851345
40
1.6230197
50
179.8973727
51
180.0037997
0
LINE
8
DEFAULT_255_2_778
10
2.1009938
20
18.9880416
11
2.1009938
21
18.9877416
0
ARC
8
DEFAULT_255_2_778
10
8.7262676
20
22.117434
40
1.410141
50
37.0812903
51
90.0006706
0
ARC
8
DEFAULT_255_2_778
10
8.7261638
20
22.1175759
40
1.4099991
50
89.9964539
51
142.9215758
0
LINE
8
DEFAULT_255_2_778
10
7.2760511
20
22.967675
11
7.2760511
21
21.387675
0
LINE
8
DEFAULT_255_2_778
10
7.2760511
20
21.387675
11
10.1761511
21
21.387675
0
LINE
8
DEFAULT_255_2_778
10
10.1761511
20
21.387675
11
10.1761511
21
22.967675
0
LINE
8
DEFAULT_255_2_778
10
10.1761511
20
22.967675
11
9.8512511
21
22.967675
0
LINE
8
DEFAULT_255_2_778
10
7.6012511
20
22.967675
11
7.2763511
21
22.967675
0
ARC
8
DEFAULT_255_2_778
10
8.718882
20
18.9903043
40
1.6177224
50
151.8422222
51
180.0873324
0
ARC
8
DEFAULT_255_2_778
10
8.726764
20
18.9866605
40
1.6263911
50
98.5995563
51
151.8600801
0
ARC
8
DEFAULT_255_2_778
10
8.7255385
20
18.9748833
40
1.6378552
50
89.9817031
51
98.4955638
0
ARC
8
DEFAULT_255_2_778
10
8.7285217
20
18.9947175
40
1.6180229
50
62.1931218
51
90.087118
0
ARC
8
DEFAULT_255_2_778
10
8.7249521
20
18.9870953
40
1.6264303
50
8.6485674
51
62.2071531
0
ARC
8
DEFAULT_255_2_778
10
8.7132778
20
18.988363
40
1.6377839
50
359.981651
51
8.5433085
0
ARC
8
DEFAULT_255_2_778
10
8.7330735
20
18.985375
40
1.6179899
50
332.1926321
51
0.0872357
0
ARC
8
DEFAULT_255_2_778
10
8.7253932
20
18.9889999
40
1.6264743
50
278.6465625
51
332.205897
0
ARC
8
DEFAULT_255_2_778
10
8.7265871
20
19.0009451
40
1.6381067
50
269.981616
51
278.5424654
0
ARC
8
DEFAULT_255_2_778
10
8.7235933
20
18.9805269
40
1.6176903
50
241.8417123
51
270.0874202
0
ARC
8
DEFAULT_255_2_778
10
8.7272929
20
18.9884669
40
1.6264365
50
188.5975683
51
241.8588041
0
ARC
8
DEFAULT_255_2_778
10
8.7393404
20
18.9873144
40
1.6381789
50
179.9816683
51
188.4947209
0
LINE
8
DEFAULT_255_2_778
10
7.1011615
20
18.9878385
11
7.1011615
21
18.9878385
0
ARC
8
DEFAULT_255_2_778
10
3.7260098
20
29.6178193
40
1.4098555
50
37.0755236
51
90.0064508
0
ARC
8
DEFAULT_255_2_778
10
3.7257638
20
29.6176759
40
1.4099991
50
89.9964539
51
142.9215758
0
LINE
8
DEFAULT_255_2_778
10
2.2759511
20
30.467775
11
2.2759511
21
28.887775
0
LINE
8
DEFAULT_255_2_778
10
2.2759511
20
28.887775
11
5.1760511
21
28.887775
0
LINE
8
DEFAULT_255_2_778
10
5.1760511
20
28.887775
11
5.1760511
21
30.467775
0
LINE
8
DEFAULT_255_2_778
10
5.1760511
20
30.467775
11
4.8508511
21
30.467775
0
LINE
8
DEFAULT_255_2_778
10
2.6008511
20
30.467775
11
2.2759511
21
30.467775
0
ARC
8
DEFAULT_255_2_778
10
3.7240107
20
26.4905488
40
1.6230195
50
179.9962003
51
180.1026273
0
ARC
8
DEFAULT_255_2_778
10
3.7233961
20
26.4907166
40
1.6224051
50
135.009422
51
180.0021282
0
ARC
8
DEFAULT_255_2_778
10
3.7230188
20
26.4903393
40
1.6224051
50
89.9978718
51
134.990578
0
ARC
8
DEFAULT_255_2_778
10
3.7231867
20
26.4897247
40
1.6230197
50
89.8973727
51
90.0037997
0
ARC
8
DEFAULT_255_2_778
10
3.7285596
20
26.4950211
40
1.6177224
50
61.8422222
51
90.0873324
0
ARC
8
DEFAULT_255_2_778
10
3.7249158
20
26.4871392
40
1.6263911
50
8.5995563
51
61.8600801
0
ARC
8
DEFAULT_255_2_778
10
3.7131386
20
26.4883647
40
1.6378552
50
359.9817031
51
8.4955638
0
ARC
8
DEFAULT_255_2_778
10
3.7329728
20
26.4853814
40
1.6180229
50
332.1931218
51
0.087118
0
ARC
8
DEFAULT_255_2_778
10
3.7253506
20
26.488951
40
1.6264303
50
278.6485674
51
332.2071531
0
ARC
8
DEFAULT_255_2_778
10
3.7266183
20
26.5006254
40
1.6377839
50
269.981651
51
278.5433085
0
ARC
8
DEFAULT_255_2_778
10
3.7231867
20
26.4858585
40
1.6230195
50
269.9962003
51
270.1026273
0
ARC
8
DEFAULT_255_2_778
10
3.7229849
20
26.4849207
40
1.6220819
50
224.9996985
51
270.0033242
0
ARC
8
DEFAULT_255_2_778
10
3.7229901
20
26.4847985
40
1.6219991
50
179.9954647
51
224.9965162
0
ARC
8
DEFAULT_255_2_778
10
3.7240107
20
26.4850345
40
1.6230197
50
179.8973727
51
180.0037997
0
LINE
8
DEFAULT_255_2_778
10
2.1009938
20
26.4879416
11
2.1009938
21
26.4876416
0
ARC
8
DEFAULT_255_2_778
10
8.7262676
20
29.617534
40
1.410141
50
37.0812903
51
90.0006706
0
ARC
8
DEFAULT_255_2_778
10
8.7261638
20
29.6176759
40
1.4099991
50
89.9964539
51
142.9215758
0
LINE
8
DEFAULT_255_2_778
10
7.2760511
20
30.467775
11
7.2760511
21
28.887775
0
LINE
8
DEFAULT_255_2_778
10
7.2760511
20
28.887775
11
10.1761511
21
28.887775
0
LINE
8
DEFAULT_255_2_778
10
10.1761511
20
28.887775
11
10.1761511
21
30.467775
0
LINE
8
DEFAULT_255_2_778
10
10.1761511
20
30.467775
11
9.8512511
21
30.467775
0
LINE
8
DEFAULT_255_2_778
10
7.6012511
20
30.467775
11
7.2763511
21
30.467775
0
ARC
8
DEFAULT_255_2_778
10
8.718882
20
26.4902043
40
1.6177224
50
151.8422222
51
180.0873324
0
ARC
8
DEFAULT_255_2_778
10
8.726764
20
26.4865605
40
1.6263911
50
98.5995563
51
151.8600801
0
ARC
8
DEFAULT_255_2_778
10
8.7255385
20
26.4747833
40
1.6378552
50
89.9817031
51
98.4955638
0
ARC
8
DEFAULT_255_2_778
10
8.7285217
20
26.4946175
40
1.6180229
50
62.1931218
51
90.087118
0
ARC
8
DEFAULT_255_2_778
10
8.7249521
20
26.4869953
40
1.6264303
50
8.6485674
51
62.2071531
0
ARC
8
DEFAULT_255_2_778
10
8.7132778
20
26.488263
40
1.6377839
50
359.981651
51
8.5433085
0
ARC
8
DEFAULT_255_2_778
10
8.7330735
20
26.485275
40
1.6179899
50
332.1926321
51
0.0872357
0
ARC
8
DEFAULT_255_2_778
10
8.7253932
20
26.4888999
40
1.6264743
50
278.6465625
51
332.205897
0
ARC
8
DEFAULT_255_2_778
10
8.7265871
20
26.5008451
40
1.6381067
50
269.981616
51
278.5424654
0
ARC
8
DEFAULT_255_2_778
10
8.7235933
20
26.4804269
40
1.6176903
50
241.8417123
51
270.0874202
0
ARC
8
DEFAULT_255_2_778
10
8.7272929
20
26.4883669
40
1.6264365
50
188.5975683
51
241.8588041
0
ARC
8
DEFAULT_255_2_778
10
8.7393404
20
26.4872144
40
1.6381789
50
179.9816683
51
188.4947209
0
LINE
8
DEFAULT_255_2_778
10
7.1011615
20
26.4877385
11
7.1011615
21
26.4877385
0
ARC
8
DEFAULT_255_2_778
10
3.7260098
20
37.1177193
40
1.4098555
50
37.0755236
51
90.0064508
0
ARC
8
DEFAULT_255_2_778
10
3.7257638
20
37.1175759
40
1.4099991
50
89.9964539
51
142.9215758
0
LINE
8
DEFAULT_255_2_778
10
2.2759511
20
37.967675
11
2.2759511
21
36.387675
0
LINE
8
DEFAULT_255_2_778
10
2.2759511
20
36.387675
11
5.1760511
21
36.387675
0
LINE
8
DEFAULT_255_2_778
10
5.1760511
20
36.387675
11
5.1760511
21
37.967675
0
LINE
8
DEFAULT_255_2_778
10
5.1760511
20
37.967675
11
4.8508511
21
37.967675
0
LINE
8
DEFAULT_255_2_778
10
2.6008511
20
37.967675
11
2.2759511
21
37.967675
0
ARC
8
DEFAULT_255_2_778
10
3.7240107
20
33.9907488
40
1.6230195
50
179.9962003
51
180.1026273
0
ARC
8
DEFAULT_255_2_778
10
3.7233961
20
33.9909166
40
1.6224051
50
135.009422
51
180.0021282
0
ARC
8
DEFAULT_255_2_778
10
3.7230188
20
33.9905393
40
1.6224051
50
89.9978718
51
134.990578
0
ARC
8
DEFAULT_255_2_778
10
3.7231867
20
33.9899247
40
1.6230197
50
89.8973727
51
90.0037997
0
ARC
8
DEFAULT_255_2_778
10
3.7285596
20
33.9952211
40
1.6177224
50
61.8422222
51
90.0873324
0
ARC
8
DEFAULT_255_2_778
10
3.7249158
20
33.9873392
40
1.6263911
50
8.5995563
51
61.8600801
0
ARC
8
DEFAULT_255_2_778
10
3.7131386
20
33.9885647
40
1.6378552
50
359.9817031
51
8.4955638
0
ARC
8
DEFAULT_255_2_778
10
3.7329728
20
33.9855814
40
1.6180229
50
332.1931218
51
0.087118
0
ARC
8
DEFAULT_255_2_778
10
3.7253506
20
33.989151
40
1.6264303
50
278.6485674
51
332.2071531
0
ARC
8
DEFAULT_255_2_778
10
3.7266183
20
34.0008254
40
1.6377839
50
269.981651
51
278.5433085
0
ARC
8
DEFAULT_255_2_778
10
3.7231867
20
33.9860585
40
1.6230195
50
269.9962003
51
270.1026273
0
ARC
8
DEFAULT_255_2_778
10
3.7229849
20
33.9851207
40
1.6220819
50
224.9996985
51
270.0033242
0
ARC
8
DEFAULT_255_2_778
10
3.7229901
20
33.9849985
40
1.6219991
50
179.9954647
51
224.9965162
0
ARC
8
DEFAULT_255_2_778
10
3.7240107
20
33.9852345
40
1.6230197
50
179.8973727
51
180.0037997
0
LINE
8
DEFAULT_255_2_778
10
2.1009938
20
33.9881416
11
2.1009938
21
33.9878416
0
ARC
8
DEFAULT_255_2_778
10
8.7262676
20
37.117734
40
1.410141
50
37.0812903
51
90.0006706
0
ARC
8
DEFAULT_255_2_778
10
8.7261638
20
37.1178759
40
1.4099991
50
89.9964539
51
142.9215758
0
LINE
8
DEFAULT_255_2_778
10
7.2760511
20
36.387975
11
10.1761511
21
36.387975
0
LINE
8
DEFAULT_255_2_778
10
10.1761511
20
36.387975
11
10.1761511
21
37.967975
0
LINE
8
DEFAULT_255_2_778
10
10.1761511
20
37.967975
11
9.8512511
21
37.967975
0
LINE
8
DEFAULT_255_2_778
10
7.6012511
20
37.967975
11
7.2763511
21
37.967975
0
LINE
8
DEFAULT_255_2_778
10
7.2763511
20
37.967975
11
7.2763511
21
36.387975
0
ARC
8
DEFAULT_255_2_778
10
8.718882
20
33.9903043
40
1.6177224
50
151.8422222
51
180.0873324
0
ARC
8
DEFAULT_255_2_778
10
8.726764
20
33.9866605
40
1.6263911
50
98.5995563
51
151.8600801
0
ARC
8
DEFAULT_255_2_778
10
8.7255385
20
33.9748833
40
1.6378552
50
89.9817031
51
98.4955638
0
ARC
8
DEFAULT_255_2_778
10
8.7285217
20
33.9947175
40
1.6180229
50
62.1931218
51
90.087118
0
ARC
8
DEFAULT_255_2_778
10
8.7249521
20
33.9870953
40
1.6264303
50
8.6485674
51
62.2071531
0
ARC
8
DEFAULT_255_2_778
10
8.7132778
20
33.988363
40
1.6377839
50
359.981651
51
8.5433085
0
ARC
8
DEFAULT_255_2_778
10
8.7330735
20
33.985375
40
1.6179899
50
332.1926321
51
0.0872357
0
ARC
8
DEFAULT_255_2_778
10
8.7253932
20
33.9889999
40
1.6264743
50
278.6465625
51
332.205897
0
ARC
8
DEFAULT_255_2_778
10
8.7265871
20
34.0009451
40
1.6381067
50
269.981616
51
278.5424654
0
ARC
8
DEFAULT_255_2_778
10
8.7235933
20
33.9805269
40
1.6176903
50
241.8417123
51
270.0874202
0
ARC
8
DEFAULT_255_2_778
10
8.7272929
20
33.9884669
40
1.6264365
50
188.5975683
51
241.8588041
0
ARC
8
DEFAULT_255_2_778
10
8.7393404
20
33.9873144
40
1.6381789
50
179.9816683
51
188.4947209
0
LINE
8
DEFAULT_255_2_778
10
7.1011615
20
33.9878385
11
7.1011615
21
33.9878385
0
ARC
8
DEFAULT_255_2_778
10
3.7260098
20
44.6181193
40
1.4098555
50
37.0755236
51
90.0064508
0
ARC
8
DEFAULT_255_2_778
10
3.7257638
20
44.6179759
40
1.4099991
50
89.9964539
51
142.9215758
0
LINE
8
DEFAULT_255_2_778
10
5.1760511
20
43.888075
11
5.1760511
21
45.468075
0
LINE
8
DEFAULT_255_2_778
10
5.1760511
20
45.468075
11
4.8508511
21
45.468075
0
LINE
8
DEFAULT_255_2_778
10
2.6008511
20
45.468075
11
2.2759511
21
45.468075
0
LINE
8
DEFAULT_255_2_778
10
2.2759511
20
45.468075
11
2.2759511
21
43.888075
0
LINE
8
DEFAULT_255_2_778
10
2.2759511
20
43.888075
11
5.1760511
21
43.888075
0
ARC
8
DEFAULT_255_2_778
10
3.7240107
20
41.4905488
40
1.6230195
50
179.9962003
51
180.1026273
0
ARC
8
DEFAULT_255_2_778
10
3.7233961
20
41.4907166
40
1.6224051
50
135.009422
51
180.0021282
0
ARC
8
DEFAULT_255_2_778
10
3.7230188
20
41.4903393
40
1.6224051
50
89.9978718
51
134.990578
0
ARC
8
DEFAULT_255_2_778
10
3.7231867
20
41.4897247
40
1.6230197
50
89.8973727
51
90.0037997
0
ARC
8
DEFAULT_255_2_778
10
3.7285596
20
41.4950211
40
1.6177224
50
61.8422222
51
90.0873324
0
ARC
8
DEFAULT_255_2_778
10
3.7249158
20
41.4871392
40
1.6263911
50
8.5995563
51
61.8600801
0
ARC
8
DEFAULT_255_2_778
10
3.7131386
20
41.4883647
40
1.6378552
50
359.9817031
51
8.4955638
0
ARC
8
DEFAULT_255_2_778
10
3.7329728
20
41.4853814
40
1.6180229
50
332.1931218
51
0.087118
0
ARC
8
DEFAULT_255_2_778
10
3.7253506
20
41.488951
40
1.6264303
50
278.6485674
51
332.2071531
0
ARC
8
DEFAULT_255_2_778
10
3.7266183
20
41.5006254
40
1.6377839
50
269.981651
51
278.5433085
0
ARC
8
DEFAULT_255_2_778
10
3.7231867
20
41.4858585
40
1.6230195
50
269.9962003
51
270.1026273
0
ARC
8
DEFAULT_255_2_778
10
3.7229849
20
41.4849207
40
1.6220819
50
224.9996985
51
270.0033242
0
ARC
8
DEFAULT_255_2_778
10
3.7229901
20
41.4847985
40
1.6219991
50
179.9954647
51
224.9965162
0
ARC
8
DEFAULT_255_2_778
10
3.7240107
20
41.4850345
40
1.6230197
50
179.8973727
51
180.0037997
0
LINE
8
DEFAULT_255_2_778
10
2.1009938
20
41.4879416
11
2.1009938
21
41.4876416
0
ARC
8
DEFAULT_255_2_778
10
8.7262676
20
44.6175472
40
1.410141
50
37.0812903
51
90.0006706
0
ARC
8
DEFAULT_255_2_778
10
8.7261638
20
44.6176891
40
1.4099991
50
89.9964539
51
142.9215758
0
LINE
8
DEFAULT_255_2_778
10
7.2760511
20
45.4677882
11
7.2760511
21
43.8876882
0
LINE
8
DEFAULT_255_2_778
10
7.2760511
20
43.8876882
11
10.1761511
21
43.8876882
0
LINE
8
DEFAULT_255_2_778
10
10.1761511
20
43.8876882
11
10.1761511
21
45.4677882
0
LINE
8
DEFAULT_255_2_778
10
10.1761511
20
45.4677882
11
9.8512511
21
45.4677882
0
LINE
8
DEFAULT_255_2_778
10
7.6012511
20
45.4677882
11
7.2763511
21
45.4677882
0
ARC
8
DEFAULT_255_2_778
10
8.718882
20
41.4902043
40
1.6177224
50
151.8422222
51
180.0873324
0
ARC
8
DEFAULT_255_2_778
10
8.726764
20
41.4865605
40
1.6263911
50
98.5995563
51
151.8600801
0
ARC
8
DEFAULT_255_2_778
10
8.7255385
20
41.4747833
40
1.6378552
50
89.9817031
51
98.4955638
0
ARC
8
DEFAULT_255_2_778
10
8.7285217
20
41.4946175
40
1.6180229
50
62.1931218
51
90.087118
0
ARC
8
DEFAULT_255_2_778
10
8.7249521
20
41.4869953
40
1.6264303
50
8.6485674
51
62.2071531
0
ARC
8
DEFAULT_255_2_778
10
8.7132778
20
41.488263
40
1.6377839
50
359.981651
51
8.5433085
0
ARC
8
DEFAULT_255_2_778
10
8.7330735
20
41.485275
40
1.6179899
50
332.1926321
51
0.0872357
0
ARC
8
DEFAULT_255_2_778
10
8.7253932
20
41.4888999
40
1.6264743
50
278.6465625
51
332.205897
0
ARC
8
DEFAULT_255_2_778
10
8.7265871
20
41.5008451
40
1.6381067
50
269.981616
51
278.5424654
0
ARC
8
DEFAULT_255_2_778
10
8.7235933
20
41.4804269
40
1.6176903
50
241.8417123
51
270.0874202
0
ARC
8
DEFAULT_255_2_778
10
8.7272929
20
41.4883669
40
1.6264365
50
188.5975683
51
241.8588041
0
ARC
8
DEFAULT_255_2_778
10
8.7393404
20
41.4872144
40
1.6381789
50
179.9816683
51
188.4947209
0
LINE
8
DEFAULT_255_2_778
10
7.1011615
20
41.4877385
11
7.1011615
21
41.4877385
0
ARC
8
DEFAULT_255_2_778
10
3.7260098
20
52.1177193
40
1.4098555
50
37.0755236
51
90.0064508
0
ARC
8
DEFAULT_255_2_778
10
3.7257638
20
52.1175759
40
1.4099991
50
89.9964539
51
142.9215758
0
LINE
8
DEFAULT_255_2_778
10
2.2759511
20
52.967675
11
2.2759511
21
51.387675
0
LINE
8
DEFAULT_255_2_778
10
2.2759511
20
51.387675
11
5.1760511
21
51.387675
0
LINE
8
DEFAULT_255_2_778
10
5.1760511
20
51.387675
11
5.1760511
21
52.967675
0
LINE
8
DEFAULT_255_2_778
10
5.1760511
20
52.967675
11
4.8508511
21
52.967675
0
LINE
8
DEFAULT_255_2_778
10
2.6008511
20
52.967675
11
2.2759511
21
52.967675
0
ARC
8
DEFAULT_255_2_778
10
3.7240107
20
48.9907488
40
1.6230195
50
179.9962003
51
180.1026273
0
ARC
8
DEFAULT_255_2_778
10
3.7233961
20
48.9909166
40
1.6224051
50
135.009422
51
180.0021282
0
ARC
8
DEFAULT_255_2_778
10
3.7230188
20
48.9905393
40
1.6224051
50
89.9978718
51
134.990578
0
ARC
8
DEFAULT_255_2_778
10
3.7231867
20
48.9899247
40
1.6230197
50
89.8973727
51
90.0037997
0
ARC
8
DEFAULT_255_2_778
10
3.7285596
20
48.9952211
40
1.6177224
50
61.8422222
51
90.0873324
0
ARC
8
DEFAULT_255_2_778
10
3.7249158
20
48.9873392
40
1.6263911
50
8.5995563
51
61.8600801
0
ARC
8
DEFAULT_255_2_778
10
3.7131386
20
48.9885647
40
1.6378552
50
359.9817031
51
8.4955638
0
ARC
8
DEFAULT_255_2_778
10
3.7329728
20
48.9855814
40
1.6180229
50
332.1931218
51
0.087118
0
ARC
8
DEFAULT_255_2_778
10
3.7253506
20
48.989151
40
1.6264303
50
278.6485674
51
332.2071531
0
ARC
8
DEFAULT_255_2_778
10
3.7266183
20
49.0008254
40
1.6377839
50
269.981651
51
278.5433085
0
ARC
8
DEFAULT_255_2_778
10
3.7231867
20
48.9860585
40
1.6230195
50
269.9962003
51
270.1026273
0
ARC
8
DEFAULT_255_2_778
10
3.7229849
20
48.9851207
40
1.6220819
50
224.9996985
51
270.0033242
0
ARC
8
DEFAULT_255_2_778
10
3.7229901
20
48.9849985
40
1.6219991
50
179.9954647
51
224.9965162
0
ARC
8
DEFAULT_255_2_778
10
3.7240107
20
48.9852345
40
1.6230197
50
179.8973727
51
180.0037997
0
LINE
8
DEFAULT_255_2_778
10
2.1009938
20
48.9881416
11
2.1009938
21
48.9878416
0
ARC
8
DEFAULT_255_2_778
10
8.7262676
20
52.117434
40
1.410141
50
37.0812903
51
90.0006706
0
ARC
8
DEFAULT_255_2_778
10
8.7261638
20
52.1175759
40
1.4099991
50
89.9964539
51
142.9215758
0
LINE
8
DEFAULT_255_2_778
10
7.2760511
20
52.967675
11
7.2760511
21
51.387675
0
LINE
8
DEFAULT_255_2_778
10
7.2760511
20
51.387675
11
10.1761511
21
51.387675
0
LINE
8
DEFAULT_255_2_778
10
10.1761511
20
51.387675
11
10.1761511
21
52.967675
0
LINE
8
DEFAULT_255_2_778
10
10.1761511
20
52.967675
11
9.8512511
21
52.967675
0
LINE
8
DEFAULT_255_2_778
10
7.6012511
20
52.967675
11
7.2763511
21
52.967675
0
ARC
8
DEFAULT_255_2_778
10
8.718882
20
48.9903043
40
1.6177224
50
151.8422222
51
180.0873324
0
ARC
8
DEFAULT_255_2_778
10
8.726764
20
48.9866605
40
1.6263911
50
98.5995563
51
151.8600801
0
ARC
8
DEFAULT_255_2_778
10
8.7255385
20
48.9748833
40
1.6378552
50
89.9817031
51
98.4955638
0
ARC
8
DEFAULT_255_2_778
10
8.7285217
20
48.9947175
40
1.6180229
50
62.1931218
51
90.087118
0
ARC
8
DEFAULT_255_2_778
10
8.7249521
20
48.9870953
40
1.6264303
50
8.6485674
51
62.2071531
0
ARC
8
DEFAULT_255_2_778
10
8.7132778
20
48.988363
40
1.6377839
50
359.981651
51
8.5433085
0
ARC
8
DEFAULT_255_2_778
10
8.7330735
20
48.985375
40
1.6179899
50
332.1926321
51
0.0872357
0
ARC
8
DEFAULT_255_2_778
10
8.7253932
20
48.9889999
40
1.6264743
50
278.6465625
51
332.205897
0
ARC
8
DEFAULT_255_2_778
10
8.7265871
20
49.0009451
40
1.6381067
50
269.981616
51
278.5424654
0
ARC
8
DEFAULT_255_2_778
10
8.7235933
20
48.9805269
40
1.6176903
50
241.8417123
51
270.0874202
0
ARC
8
DEFAULT_255_2_778
10
8.7272929
20
48.9884669
40
1.6264365
50
188.5975683
51
241.8588041
0
ARC
8
DEFAULT_255_2_778
10
8.7393404
20
48.9873144
40
1.6381789
50
179.9816683
51
188.4947209
0
LINE
8
DEFAULT_255_2_778
10
7.1011615
20
48.9878385
11
7.1011615
21
48.9878385
0
ARC
8
DEFAULT_255_2_778
10
3.7260098
20
59.6178326
40
1.4098555
50
37.0755236
51
90.0064508
0
ARC
8
DEFAULT_255_2_778
10
3.7257638
20
59.6176891
40
1.4099991
50
89.9964539
51
142.9215758
0
LINE
8
DEFAULT_255_2_778
10
2.6008511
20
60.4677882
11
2.2759511
21
60.4677882
0
LINE
8
DEFAULT_255_2_778
10
2.2759511
20
60.4677882
11
2.2759511
21
58.8876882
0
LINE
8
DEFAULT_255_2_778
10
2.2759511
20
58.8876882
11
5.1760511
21
58.8876882
0
LINE
8
DEFAULT_255_2_778
10
5.1760511
20
58.8876882
11
5.1760511
21
60.4677882
0
LINE
8
DEFAULT_255_2_778
10
5.1760511
20
60.4677882
11
4.8508511
21
60.4677882
0
ARC
8
DEFAULT_255_2_778
10
3.7240107
20
56.4906488
40
1.6230195
50
179.9962003
51
180.1026273
0
ARC
8
DEFAULT_255_2_778
10
3.7233961
20
56.4908166
40
1.6224051
50
135.009422
51
180.0021282
0
ARC
8
DEFAULT_255_2_778
10
3.7230188
20
56.4904393
40
1.6224051
50
89.9978718
51
134.990578
0
ARC
8
DEFAULT_255_2_778
10
3.7231867
20
56.4898247
40
1.6230197
50
89.8973727
51
90.0037997
0
ARC
8
DEFAULT_255_2_778
10
3.7285596
20
56.4951211
40
1.6177224
50
61.8422222
51
90.0873324
0
ARC
8
DEFAULT_255_2_778
10
3.7249158
20
56.4872392
40
1.6263911
50
8.5995563
51
61.8600801
0
ARC
8
DEFAULT_255_2_778
10
3.7131386
20
56.4884647
40
1.6378552
50
359.9817031
51
8.4955638
0
ARC
8
DEFAULT_255_2_778
10
3.7329728
20
56.4854814
40
1.6180229
50
332.1931218
51
0.087118
0
ARC
8
DEFAULT_255_2_778
10
3.7253506
20
56.489051
40
1.6264303
50
278.6485674
51
332.2071531
0
ARC
8
DEFAULT_255_2_778
10
3.7266183
20
56.5007254
40
1.6377839
50
269.981651
51
278.5433085
0
ARC
8
DEFAULT_255_2_778
10
3.7231867
20
56.4859585
40
1.6230195
50
269.9962003
51
270.1026273
0
ARC
8
DEFAULT_255_2_778
10
3.7229849
20
56.4850207
40
1.6220819
50
224.9996985
51
270.0033242
0
ARC
8
DEFAULT_255_2_778
10
3.7229901
20
56.4848985
40
1.6219991
50
179.9954647
51
224.9965162
0
ARC
8
DEFAULT_255_2_778
10
3.7240107
20
56.4851345
40
1.6230197
50
179.8973727
51
180.0037997
0
LINE
8
DEFAULT_255_2_778
10
2.1009938
20
56.4880416
11
2.1009938
21
56.4877416
0
ARC
8
DEFAULT_255_2_778
10
8.7262676
20
59.6175472
40
1.410141
50
37.0812903
51
90.0006706
0
ARC
8
DEFAULT_255_2_778
10
8.7261638
20
59.6176891
40
1.4099991
50
89.9964539
51
142.9215758
0
LINE
8
DEFAULT_255_2_778
10
7.2760511
20
60.4677882
11
7.2760511
21
58.8876882
0
LINE
8
DEFAULT_255_2_778
10
7.2760511
20
58.8876882
11
10.1761511
21
58.8876882
0
LINE
8
DEFAULT_255_2_778
10
10.1761511
20
58.8876882
11
10.1761511
21
60.4677882
0
LINE
8
DEFAULT_255_2_778
10
10.1761511
20
60.4677882
11
9.8512511
21
60.4677882
0
LINE
8
DEFAULT_255_2_778
10
7.6012511
20
60.4677882
11
7.2763511
21
60.4677882
0
ARC
8
DEFAULT_255_2_778
10
8.718882
20
56.4902043
40
1.6177224
50
151.8422222
51
180.0873324
0
ARC
8
DEFAULT_255_2_778
10
8.726764
20
56.4865605
40
1.6263911
50
98.5995563
51
151.8600801
0
ARC
8
DEFAULT_255_2_778
10
8.7255385
20
56.4747833
40
1.6378552
50
89.9817031
51
98.4955638
0
ARC
8
DEFAULT_255_2_778
10
8.7285217
20
56.4946175
40
1.6180229
50
62.1931218
51
90.087118
0
ARC
8
DEFAULT_255_2_778
10
8.7249521
20
56.4869953
40
1.6264303
50
8.6485674
51
62.2071531
0
ARC
8
DEFAULT_255_2_778
10
8.7132778
20
56.488263
40
1.6377839
50
359.981651
51
8.5433085
0
ARC
8
DEFAULT_255_2_778
10
8.7330735
20
56.485275
40
1.6179899
50
332.1926321
51
0.0872357
0
ARC
8
DEFAULT_255_2_778
10
8.7253932
20
56.4888999
40
1.6264743
50
278.6465625
51
332.205897
0
ARC
8
DEFAULT_255_2_778
10
8.7265871
20
56.5008451
40
1.6381067
50
269.981616
51
278.5424654
0
ARC
8
DEFAULT_255_2_778
10
8.7235933
20
56.4804269
40
1.6176903
50
241.8417123
51
270.0874202
0
ARC
8
DEFAULT_255_2_778
10
8.7272929
20
56.4883669
40
1.6264365
50
188.5975683
51
241.8588041
0
ARC
8
DEFAULT_255_2_778
10
8.7393404
20
56.4872144
40
1.6381789
50
179.9816683
51
188.4947209
0
LINE
8
DEFAULT_255_2_778
10
7.1011615
20
56.4877385
11
7.1011615
21
56.4877385
0
ARC
8
DEFAULT_255_2_778
10
8.718882
20
63.9904043
40
1.6177224
50
151.8422222
51
180.0873324
0
ARC
8
DEFAULT_255_2_778
10
8.726764
20
63.9867605
40
1.6263911
50
98.5995563
51
151.8600801
0
ARC
8
DEFAULT_255_2_778
10
8.7255385
20
63.9749833
40
1.6378552
50
89.9817031
51
98.4955638
0
ARC
8
DEFAULT_255_2_778
10
8.7285217
20
63.9948175
40
1.6180229
50
62.1931218
51
90.087118
0
ARC
8
DEFAULT_255_2_778
10
8.7249521
20
63.9871953
40
1.6264303
50
8.6485674
51
62.2071531
0
ARC
8
DEFAULT_255_2_778
10
8.7132778
20
63.988463
40
1.6377839
50
359.981651
51
8.5433085
0
ARC
8
DEFAULT_255_2_778
10
8.7330735
20
63.985475
40
1.6179899
50
332.1926321
51
0.0872357
0
ARC
8
DEFAULT_255_2_778
10
8.7253932
20
63.9890999
40
1.6264743
50
278.6465625
51
332.205897
0
ARC
8
DEFAULT_255_2_778
10
8.7265871
20
64.0010451
40
1.6381067
50
269.981616
51
278.5424654
0
ARC
8
DEFAULT_255_2_778
10
8.7235933
20
63.9806269
40
1.6176903
50
241.8417123
51
270.0874202
0
ARC
8
DEFAULT_255_2_778
10
8.7272929
20
63.9885669
40
1.6264365
50
188.5975683
51
241.8588041
0
ARC
8
DEFAULT_255_2_778
10
8.7393404
20
63.9874144
40
1.6381789
50
179.9816683
51
188.4947209
0
LINE
8
DEFAULT_255_2_778
10
7.1011615
20
63.9879385
11
7.1011615
21
63.9879385
0
ARC
8
DEFAULT_255_2_778
10
8.7262676
20
67.1174472
40
1.410141
50
37.0812903
51
90.0006706
0
ARC
8
DEFAULT_255_2_778
10
8.7261638
20
67.1175891
40
1.4099991
50
89.9964539
51
142.9215758
0
LINE
8
DEFAULT_255_2_778
10
7.6009511
20
67.9676882
11
7.2760511
21
67.9676882
0
LINE
8
DEFAULT_255_2_778
10
7.2760511
20
67.9676882
11
7.2760511
21
66.3875882
0
LINE
8
DEFAULT_255_2_778
10
7.2760511
20
66.3875882
11
10.1761511
21
66.3875882
0
LINE
8
DEFAULT_255_2_778
10
10.1761511
20
66.3875882
11
10.1761511
21
67.9676882
0
LINE
8
DEFAULT_255_2_778
10
10.1761511
20
67.9676882
11
9.8512511
21
67.9676882
0
ARC
8
DEFAULT_255_2_778
10
3.7240107
20
63.9907488
40
1.6230195
50
179.9962003
51
180.1026273
0
ARC
8
DEFAULT_255_2_778
10
3.7233961
20
63.9909166
40
1.6224051
50
135.009422
51
180.0021282
0
ARC
8
DEFAULT_255_2_778
10
3.7230188
20
63.9905393
40
1.6224051
50
89.9978718
51
134.990578
0
ARC
8
DEFAULT_255_2_778
10
3.7231867
20
63.9899247
40
1.6230197
50
89.8973727
51
90.0037997
0
ARC
8
DEFAULT_255_2_778
10
3.7285596
20
63.9952211
40
1.6177224
50
61.8422222
51
90.0873324
0
ARC
8
DEFAULT_255_2_778
10
3.7249158
20
63.9873392
40
1.6263911
50
8.5995563
51
61.8600801
0
ARC
8
DEFAULT_255_2_778
10
3.7131386
20
63.9885647
40
1.6378552
50
359.9817031
51
8.4955638
0
ARC
8
DEFAULT_255_2_778
10
3.7329728
20
63.9855814
40
1.6180229
50
332.1931218
51
0.087118
0
ARC
8
DEFAULT_255_2_778
10
3.7253506
20
63.989151
40
1.6264303
50
278.6485674
51
332.2071531
0
ARC
8
DEFAULT_255_2_778
10
3.7266183
20
64.0008254
40
1.6377839
50
269.981651
51
278.5433085
0
ARC
8
DEFAULT_255_2_778
10
3.7231867
20
63.9860585
40
1.6230195
50
269.9962003
51
270.1026273
0
ARC
8
DEFAULT_255_2_778
10
3.7229849
20
63.9851207
40
1.6220819
50
224.9996985
51
270.0033242
0
ARC
8
DEFAULT_255_2_778
10
3.7229901
20
63.9849985
40
1.6219991
50
179.9954647
51
224.9965162
0
ARC
8
DEFAULT_255_2_778
10
3.7240107
20
63.9852345
40
1.6230197
50
179.8973727
51
180.0037997
0
LINE
8
DEFAULT_255_2_778
10
2.1009938
20
63.9881416
11
2.1009938
21
63.9878416
0
ARC
8
DEFAULT_255_2_778
10
3.7260098
20
67.1177326
40
1.4098555
50
37.0755236
51
90.0064508
0
ARC
8
DEFAULT_255_2_778
10
3.7257638
20
67.1175891
40
1.4099991
50
89.9964539
51
142.9215758
0
LINE
8
DEFAULT_255_2_778
10
2.2759511
20
67.9676882
11
2.2759511
21
66.3875882
0
LINE
8
DEFAULT_255_2_778
10
2.2759511
20
66.3875882
11
5.1760511
21
66.3875882
0
LINE
8
DEFAULT_255_2_778
10
5.1760511
20
66.3875882
11
5.1760511
21
67.9676882
0
LINE
8
DEFAULT_255_2_778
10
5.1760511
20
67.9676882
11
4.8508511
21
67.9676882
0
LINE
8
DEFAULT_255_2_778
10
2.6008511
20
67.9676882
11
2.2759511
21
67.9676882
0
ENDSEC
0
EOF