0
SECTION
2
HEADER
9
$MEASUREMENT
70
1
0
ENDSEC
0
SECTION
2
TABLES
0
TABLE
2
LTYPE
0
LTYPE
72
65
70
64
2
CONTINUOUS
3
______
73
0
40
0
0
ENDTAB
0
TABLE
2
LAYER
0
LAYER
2
DEFAULT_255_2_778
70
0
62
255
6
CONTINUOUS
0
ENDTAB
0
ENDSEC
0
SECTION
2
ENTITIES
0
LINE
8
DEFAULT_255_2_778
10
8.4791555
20
1.3186624
11
16.2790555
21
1.3186624
0
LINE
8
DEFAULT_255_2_778
10
0.1791555
20
5.7477624
11
24.1792555
21
5.7477624
0
LINE
8
DEFAULT_255_2_778
10
1.1292555
20
4.1478624
11
1.1292555
21
2.4687624
0
LINE
8
DEFAULT_255_2_778
10
1.1292555
20
2.4687624
11
0.9792555
21
2.4687624
0
LINE
8
DEFAULT_255_2_778
10
10.6790889
20
4.1479143
11
10.6790889
21
1.3189143
0
LINE
8
DEFAULT_255_2_778
10
4.2790889
20
1.3189143
11
2.4790889
21
1.3189143
0
LINE
8
DEFAULT_255_2_778
10
2.4790889
20
1.3189143
11
2.4790889
21
4.1479143
0
LINE
8
DEFAULT_255_2_778
10
22.6789889
20
1.3189143
11
22.6789889
21
4.1479143
0
LINE
8
DEFAULT_255_2_778
10
20.4789889
20
1.3187143
11
26.2788889
21
1.3187143
0
LINE
8
DEFAULT_255_2_778
10
26.2788889
20
1.3187143
11
26.2788889
21
3.7687143
0
LINE
8
DEFAULT_255_2_778
10
26.2788889
20
3.7687143
11
25.2787889
21
3.7687143
0
LINE
8
DEFAULT_255_2_778
10
25.2787889
20
3.7687143
11
25.2787889
21
2.2688143
0
LINE
8
DEFAULT_255_2_778
10
25.2787889
20
2.2688143
11
24.1788889
21
2.2688143
0
LINE
8
DEFAULT_255_2_778
10
12.1789889
20
2.2778143
11
12.1789889
21
74.1278143
0
LINE
8
DEFAULT_255_2_778
10
12.1789889
20
74.1278143
11
12.1789889
21
2.2778143
0
LINE
8
DEFAULT_255_2_778
10
12.1789889
20
2.2778143
11
12.9790889
21
2.2778143
0
LINE
8
DEFAULT_255_2_778
10
12.9790889
20
2.2778143
11
12.9790889
21
5.7478143
0
LINE
8
DEFAULT_255_2_778
10
0.1790889
20
96.8187143
11
24.1791889
21
96.8187143
0
LINE
8
DEFAULT_255_2_778
10
2.2790889
20
72.5278143
11
2.2790889
21
73.6277143
0
LINE
8
DEFAULT_255_2_778
10
1.9790889
20
75.5187143
11
1.6789889
21
75.5187143
0
LINE
8
DEFAULT_255_2_778
10
0.9792566
20
5.7477923
11
0.9792566
21
2.2777923
0
LINE
8
DEFAULT_255_2_778
10
0.9792566
20
2.2777923
11
0.1791566
21
2.2777923
0
LINE
8
DEFAULT_255_2_778
10
0.1791566
20
2.2777923
11
0.1791566
21
99.1686923
0
LINE
8
DEFAULT_255_2_778
10
0.1791566
20
99.1686923
11
1.1292566
21
99.1686923
0
LINE
8
DEFAULT_255_2_778
10
1.1292566
20
99.1686923
11
1.1292566
21
97.6187923
0
LINE
8
DEFAULT_255_2_778
10
1.1292566
20
97.6187923
11
2.4791566
21
97.6187923
0
LINE
8
DEFAULT_255_2_778
10
2.4791566
20
97.6187923
11
2.4791566
21
101.3186923
0
LINE
8
DEFAULT_255_2_778
10
2.4791566
20
101.3186923
11
26.2792566
21
101.3186923
0
LINE
8
DEFAULT_255_2_778
10
26.2792566
20
101.3186923
11
26.2792566
21
97.8687923
0
LINE
8
DEFAULT_255_2_778
10
26.2792566
20
97.8687923
11
25.2791566
21
97.8687923
0
LINE
8
DEFAULT_255_2_778
10
25.2791566
20
97.8687923
11
25.2791566
21
99.3686923
0
LINE
8
DEFAULT_255_2_778
10
25.2791566
20
99.3686923
11
24.1792566
21
99.3686923
0
LINE
8
DEFAULT_255_2_778
10
24.1792566
20
99.3686923
11
24.1792566
21
1.7689923
0
LINE
8
DEFAULT_255_2_778
10
24.1792566
20
1.7689923
11
26.2792566
21
1.7689923
0
LINE
8
DEFAULT_255_2_778
10
22.0792566
20
72.5277923
11
22.0792566
21
73.6276923
0
LINE
8
DEFAULT_255_2_778
10
0.9792566
20
4.1477923
11
4.2791566
21
4.1477923
0
LINE
8
DEFAULT_255_2_778
10
7.8290566
20
1.1426923
11
7.8290566
21
-0.1813077
0
LINE
8
DEFAULT_255_2_778
10
7.8290566
20
-0.1813077
11
6.7291566
21
-0.1813077
0
LINE
8
DEFAULT_255_2_778
10
6.7291566
20
-0.1813077
11
6.7291566
21
1.1426923
0
LINE
8
DEFAULT_255_2_778
10
8.4791566
20
5.7477923
11
8.4791566
21
1.1426923
0
LINE
8
DEFAULT_255_2_778
10
8.4791566
20
1.1426923
11
4.2791566
21
1.1426923
0
LINE
8
DEFAULT_255_2_778
10
4.2791566
20
1.1426923
11
4.2791566
21
5.7477923
0
LINE
8
DEFAULT_255_2_778
10
8.4791566
20
4.1477923
11
12.1790566
21
4.1477923
0
LINE
8
DEFAULT_255_2_778
10
4.2791326
20
3.2278562
11
8.4791326
21
3.2278562
0
LINE
8
DEFAULT_255_2_778
10
4.2791326
20
1.8978562
11
8.4791326
21
1.8978562
0
LINE
8
DEFAULT_255_2_778
10
11.8292326
20
1.3186562
11
11.8292326
21
-0.1812438
0
LINE
8
DEFAULT_255_2_778
10
11.8292326
20
-0.1812438
11
12.9291326
21
-0.1812438
0
LINE
8
DEFAULT_255_2_778
10
12.9291326
20
-0.1812438
11
12.9291326
21
1.3186562
0
LINE
8
DEFAULT_255_2_778
10
10.4791326
20
3.3189562
11
10.4791326
21
4.1478562
0
LINE
8
DEFAULT_255_2_778
10
10.6791326
20
3.3186562
11
8.4791326
21
3.3186562
0
LINE
8
DEFAULT_255_2_778
10
8.4791326
20
2.3187562
11
10.6791326
21
2.3187562
0
LINE
8
DEFAULT_255_2_778
10
23.8292326
20
1.3186562
11
23.8292326
21
-0.1812438
0
LINE
8
DEFAULT_255_2_778
10
23.8292326
20
-0.1812438
11
24.9290326
21
-0.1812438
0
LINE
8
DEFAULT_255_2_778
10
24.9290326
20
-0.1812438
11
24.9290326
21
1.3186562
0
LINE
8
DEFAULT_255_2_778
10
22.4790326
20
3.3189562
11
22.4790326
21
4.1478562
0
LINE
8
DEFAULT_255_2_778
10
22.6790326
20
3.3186562
11
20.4790326
21
3.3186562
0
LINE
8
DEFAULT_255_2_778
10
20.4790326
20
2.3187562
11
22.6790326
21
2.3187562
0
LINE
8
DEFAULT_255_2_778
10
16.2790326
20
3.2278562
11
20.4790326
21
3.2278562
0
LINE
8
DEFAULT_255_2_778
10
16.2790326
20
1.8978562
11
20.4790326
21
1.8978562
0
LINE
8
DEFAULT_255_2_778
10
12.9791326
20
4.1478562
11
16.2790326
21
4.1478562
0
LINE
8
DEFAULT_255_2_778
10
19.8289326
20
1.1427562
11
19.8289326
21
-0.1812438
0
LINE
8
DEFAULT_255_2_778
10
19.8289326
20
-0.1812438
11
18.7291326
21
-0.1812438
0
LINE
8
DEFAULT_255_2_778
10
18.7291326
20
-0.1812438
11
18.7291326
21
1.1427562
0
LINE
8
DEFAULT_255_2_778
10
20.4789878
20
5.7477145
11
20.4789878
21
1.1427145
0
LINE
8
DEFAULT_255_2_778
10
20.4789878
20
1.1427145
11
16.2789878
21
1.1427145
0
LINE
8
DEFAULT_255_2_778
10
16.2789878
20
1.1427145
11
16.2789878
21
5.7477145
0
LINE
8
DEFAULT_255_2_778
10
20.4789878
20
4.1478145
11
24.1788878
21
4.1478145
0
LINE
8
DEFAULT_255_2_778
10
1.9790878
20
74.1277145
11
0.1790878
21
74.1277145
0
LINE
8
DEFAULT_255_2_778
10
0.1790878
20
74.3187145
11
1.6789878
21
74.3187145
0
LINE
8
DEFAULT_255_2_778
10
1.6789878
20
74.3187145
11
1.6789878
21
77.5186145
0
LINE
8
DEFAULT_255_2_778
10
1.6789878
20
77.5186145
11
1.9790878
21
77.5186145
0
LINE
8
DEFAULT_255_2_778
10
1.9790878
20
79.1929145
11
3.1788878
21
79.1929145
0
LINE
8
DEFAULT_255_2_778
10
2.0790878
20
73.6277145
11
2.0790878
21
72.5278145
0
LINE
8
DEFAULT_255_2_778
10
2.0790878
20
72.5278145
11
10.2789878
21
72.5278145
0
LINE
8
DEFAULT_255_2_778
10
10.2789878
20
72.5278145
11
10.2789878
21
73.6277145
0
LINE
8
DEFAULT_255_2_778
10
10.0791106
20
72.9511384
11
2.2791106
21
72.9511384
0
LINE
8
DEFAULT_255_2_778
10
11.8790106
20
75.1279384
11
1.9791106
21
75.1279384
0
LINE
8
DEFAULT_255_2_778
10
3.1792106
20
80.4428384
11
3.1792106
21
76.1126384
0
LINE
8
DEFAULT_255_2_778
10
1.9791106
20
80.4428384
11
10.8792106
21
80.4428384
0
LINE
8
DEFAULT_255_2_778
10
10.8792106
20
80.4428384
11
10.8792106
21
78.3267384
0
LINE
8
DEFAULT_255_2_778
10
10.8792106
20
78.3267384
11
11.8793106
21
78.3267384
0
LINE
8
DEFAULT_255_2_778
10
11.8789428
20
73.6279582
11
11.8789428
21
81.4278582
0
LINE
8
DEFAULT_255_2_778
10
11.8789428
20
81.4278582
11
1.9790428
21
81.4278582
0
LINE
8
DEFAULT_255_2_778
10
1.9790428
20
81.4278582
11
1.9790428
21
73.6279582
0
LINE
8
DEFAULT_255_2_778
10
1.9790428
20
73.6279582
11
11.8789428
21
73.6279582
0
LINE
8
DEFAULT_255_2_778
10
1.9790428
20
76.9786395
11
2.9791428
21
76.9786395
0
LINE
8
DEFAULT_255_2_778
10
2.9791428
20
76.9786395
11
2.9791428
21
76.1126395
0
LINE
8
DEFAULT_255_2_778
10
2.9791428
20
76.1126395
11
11.8789428
21
76.1126395
0
LINE
8
DEFAULT_255_2_778
10
10.6790428
20
79.1929395
11
10.8791428
21
79.1929395
0
LINE
8
DEFAULT_255_2_778
10
10.6790689
20
76.1126662
11
10.6790689
21
80.4428662
0
LINE
8
DEFAULT_255_2_778
10
10.8791689
20
79.5768662
11
11.8792689
21
79.5768662
0
LINE
8
DEFAULT_255_2_778
10
11.0288689
20
97.3010662
11
11.0288689
21
100.8366662
0
LINE
8
DEFAULT_255_2_778
10
11.0288689
20
100.8366662
11
11.0288689
21
97.3010662
0
LINE
8
DEFAULT_255_2_778
10
11.0288689
20
97.3010662
11
3.5289689
21
97.3010662
0
LINE
8
DEFAULT_255_2_778
10
3.5289689
20
97.3010662
11
11.0288689
21
97.3010662
0
LINE
8
DEFAULT_255_2_778
10
3.5289689
20
100.8366662
11
3.5289689
21
97.3010662
0
LINE
8
DEFAULT_255_2_778
10
3.5289689
20
97.3010662
11
3.5289689
21
100.8366662
0
LINE
8
DEFAULT_255_2_778
10
3.5289689
20
100.8366662
11
11.0288689
21
100.8366662
0
LINE
8
DEFAULT_255_2_778
10
10.6790689
20
101.3187662
11
10.6790689
21
104.3188662
0
LINE
8
DEFAULT_255_2_778
10
10.6790689
20
104.3188662
11
9.1791689
21
105.8187662
0
LINE
8
DEFAULT_255_2_778
10
9.1791689
20
105.8187662
11
4.1790689
21
105.8187662
0
LINE
8
DEFAULT_255_2_778
10
4.1790689
20
105.8187662
11
2.6791689
21
104.3188662
0
LINE
8
DEFAULT_255_2_778
10
2.6791689
20
104.3188662
11
2.6791689
21
101.3187662
0
LINE
8
DEFAULT_255_2_778
10
14.2790689
20
72.5278662
11
14.2790689
21
73.6276662
0
LINE
8
DEFAULT_255_2_778
10
10.0790689
20
72.5278662
11
10.0790689
21
73.6276662
0
LINE
8
DEFAULT_255_2_778
10
13.9789689
20
74.1277662
11
11.8789689
21
74.1277662
0
LINE
8
DEFAULT_255_2_778
10
11.8790116
20
77.5186593
11
13.9790116
21
77.5186593
0
LINE
8
DEFAULT_255_2_778
10
13.9790116
20
75.5186593
11
11.8790116
21
75.5186593
0
LINE
8
DEFAULT_255_2_778
10
13.9793116
20
79.1929593
11
15.1791116
21
79.1929593
0
LINE
8
DEFAULT_255_2_778
10
14.0790116
20
73.6277593
11
14.0790116
21
72.5278593
0
LINE
8
DEFAULT_255_2_778
10
14.0790116
20
72.5278593
11
22.2790116
21
72.5278593
0
LINE
8
DEFAULT_255_2_778
10
22.2790116
20
72.5278593
11
22.2790116
21
73.6277593
0
LINE
8
DEFAULT_255_2_778
10
22.0789106
20
72.9511384
11
14.2790106
21
72.9511384
0
LINE
8
DEFAULT_255_2_778
10
23.8791106
20
75.1279384
11
13.9792106
21
75.1279384
0
LINE
8
DEFAULT_255_2_778
10
15.1791106
20
80.4428384
11
15.1791106
21
76.1126384
0
LINE
8
DEFAULT_255_2_778
10
13.9792106
20
80.4428384
11
22.8793106
21
80.4428384
0
LINE
8
DEFAULT_255_2_778
10
22.8793106
20
80.4428384
11
22.8793106
21
78.3267384
0
LINE
8
DEFAULT_255_2_778
10
22.8793106
20
78.3267384
11
23.8794106
21
78.3267384
0
LINE
8
DEFAULT_255_2_778
10
23.8791106
20
76.1126384
11
14.9793106
21
76.1126384
0
LINE
8
DEFAULT_255_2_778
10
14.9793106
20
76.1126384
11
14.9793106
21
76.9786384
0
LINE
8
DEFAULT_255_2_778
10
14.9793106
20
76.9786384
11
13.9792106
21
76.9786384
0
LINE
8
DEFAULT_255_2_778
10
13.9792241
20
81.4278582
11
23.8791241
21
81.4278582
0
LINE
8
DEFAULT_255_2_778
10
23.8791241
20
81.4278582
11
23.8791241
21
73.6279582
0
LINE
8
DEFAULT_255_2_778
10
23.8791241
20
73.6279582
11
13.9792241
21
73.6279582
0
LINE
8
DEFAULT_255_2_778
10
13.9792241
20
73.6279582
11
13.9792241
21
81.4278582
0
LINE
8
DEFAULT_255_2_778
10
24.1792241
20
74.1277582
11
23.8791241
21
74.1277582
0
LINE
8
DEFAULT_255_2_778
10
23.8791534
20
74.3187839
11
24.1792534
21
74.3187839
0
LINE
8
DEFAULT_255_2_778
10
22.6790534
20
79.1929839
11
22.8790534
21
79.1929839
0
LINE
8
DEFAULT_255_2_778
10
22.6790534
20
76.1126839
11
22.6790534
21
80.4428839
0
LINE
8
DEFAULT_255_2_778
10
22.8790534
20
79.5768839
11
23.8791534
21
79.5768839
0
LINE
8
DEFAULT_255_2_778
10
23.0290534
20
97.3010839
11
23.0290534
21
100.8366839
0
LINE
8
DEFAULT_255_2_778
10
23.0290534
20
100.8366839
11
23.0290534
21
97.3010839
0
LINE
8
DEFAULT_255_2_778
10
23.0290534
20
97.3010839
11
15.5291534
21
97.3010839
0
LINE
8
DEFAULT_255_2_778
10
15.5291534
20
97.3010839
11
23.0290534
21
97.3010839
0
LINE
8
DEFAULT_255_2_778
10
15.5291534
20
100.8366839
11
15.5291534
21
97.3010839
0
LINE
8
DEFAULT_255_2_778
10
15.5291534
20
97.3010839
11
15.5291534
21
100.8366839
0
LINE
8
DEFAULT_255_2_778
10
15.5291534
20
100.8366839
11
23.0290534
21
100.8366839
0
LINE
8
DEFAULT_255_2_778
10
22.6790534
20
101.3187839
11
22.6790534
21
104.3188839
0
LINE
8
DEFAULT_255_2_778
10
22.6790534
20
104.3188839
11
21.1791534
21
105.8187839
0
LINE
8
DEFAULT_255_2_778
10
21.1791534
20
105.8187839
11
16.1790534
21
105.8187839
0
LINE
8
DEFAULT_255_2_778
10
16.1790534
20
105.8187839
11
14.6790534
21
104.3188839
0
LINE
8
DEFAULT_255_2_778
10
14.6790534
20
104.3188839
11
14.6790534
21
101.3187839
0
LINE
8
DEFAULT_255_2_778
10
11.8292534
20
101.3187839
11
11.8292534
21
102.8186839
0
LINE
8
DEFAULT_255_2_778
10
11.8292534
20
102.8186839
11
12.9291534
21
102.8186839
0
LINE
8
DEFAULT_255_2_778
10
12.9291534
20
102.8186839
11
12.9291534
21
101.3187839
0
LINE
8
DEFAULT_255_2_778
10
6.7291534
20
101.3187839
11
6.7291534
21
102.8186839
0
LINE
8
DEFAULT_255_2_778
10
6.7291534
20
102.8186839
11
7.8290534
21
102.8186839
0
LINE
8
DEFAULT_255_2_778
10
7.8290534
20
102.8186839
11
7.8290534
21
101.3187839
0
LINE
8
DEFAULT_255_2_778
10
23.8291534
20
101.3187839
11
23.8291534
21
102.8186839
0
LINE
8
DEFAULT_255_2_778
10
23.8291534
20
102.8186839
11
24.9290534
21
102.8186839
0
LINE
8
DEFAULT_255_2_778
10
24.9290534
20
102.8186839
11
24.9290534
21
101.3187839
0
LINE
8
DEFAULT_255_2_778
10
18.7290731
20
101.3187341
11
18.7290731
21
102.8186341
0
LINE
8
DEFAULT_255_2_778
10
18.7290731
20
102.8186341
11
19.8289731
21
102.8186341
0
LINE
8
DEFAULT_255_2_778
10
19.8289731
20
102.8186341
11
19.8289731
21
101.3187341
0
LINE
8
DEFAULT_255_2_778
10
6.1790731
20
86.4189341
11
7.3789731
21
86.4189341
0
LINE
8
DEFAULT_255_2_778
10
7.3789731
20
86.4189341
11
7.3789731
21
87.8188341
0
LINE
8
DEFAULT_255_2_778
10
7.3789731
20
87.8188341
11
6.1790731
21
87.8188341
0
LINE
8
DEFAULT_255_2_778
10
6.1790731
20
87.8188341
11
6.1790731
21
86.4189341
0
LINE
8
DEFAULT_255_2_778
10
6.1790731
20
88.7187341
11
7.3789731
21
88.7187341
0
LINE
8
DEFAULT_255_2_778
10
7.3789731
20
88.7187341
11
7.3789731
21
90.1186341
0
LINE
8
DEFAULT_255_2_778
10
7.3789731
20
90.1186341
11
6.1790731
21
90.1186341
0
LINE
8
DEFAULT_255_2_778
10
6.1790731
20
90.1186341
11
6.1790731
21
88.7187341
0
LINE
8
DEFAULT_255_2_778
10
8.6790731
20
86.4189341
11
9.8789731
21
86.4189341
0
LINE
8
DEFAULT_255_2_778
10
9.8789731
20
86.4189341
11
9.8789731
21
87.8188341
0
LINE
8
DEFAULT_255_2_778
10
9.8789731
20
87.8188341
11
8.6790731
21
87.8188341
0
LINE
8
DEFAULT_255_2_778
10
8.6790731
20
87.8188341
11
8.6790731
21
86.4189341
0
LINE
8
DEFAULT_255_2_778
10
9.8789731
20
88.7187341
11
9.8789731
21
90.1186341
0
LINE
8
DEFAULT_255_2_778
10
9.8789731
20
90.1186341
11
8.6790731
21
90.1186341
0
LINE
8
DEFAULT_255_2_778
10
8.6790731
20
90.1186341
11
8.6790731
21
88.7187341
0
LINE
8
DEFAULT_255_2_778
10
8.6790731
20
88.7187341
11
9.8789731
21
88.7187341
0
LINE
8
DEFAULT_255_2_778
10
9.8789731
20
92.9187341
11
8.6790731
21
92.9187341
0
LINE
8
DEFAULT_255_2_778
10
8.6790731
20
92.9187341
11
8.6790731
21
91.5188341
0
LINE
8
DEFAULT_255_2_778
10
8.6790731
20
91.5188341
11
9.8789731
21
91.5188341
0
LINE
8
DEFAULT_255_2_778
10
9.8789731
20
91.5188341
11
9.8789731
21
92.9187341
0
ARC
8
DEFAULT_255_2_778
10
3.678993
20
33.9890311
40
1.6240524
50
59.4604005
51
75.2953186
0
ARC
8
DEFAULT_255_2_778
10
3.6806677
20
33.9930659
40
1.6197247
50
75.3163888
51
87.4352383
0
ARC
8
DEFAULT_255_2_778
10
3.6802232
20
33.9868684
40
1.625936
50
87.4293632
51
90.0004281
0
ARC
8
DEFAULT_255_2_778
10
3.6794414
20
33.9872655
40
1.6255392
50
89.9728715
51
130.1846954
0
ARC
8
DEFAULT_255_2_778
10
3.6836702
20
33.9847542
40
1.6301871
50
130.2412916
51
139.8496325
0
ARC
8
DEFAULT_255_2_778
10
3.6769878
20
33.9884789
40
1.6226783
50
139.7980186
51
159.578985
0
ARC
8
DEFAULT_255_2_778
10
3.681368
20
33.9877815
40
1.6270268
50
159.609788
51
180.0066751
0
LINE
8
DEFAULT_255_2_778
10
2.0543413
20
33.9875919
11
2.0543413
21
33.9874278
0
ARC
8
DEFAULT_255_2_778
10
3.6768233
20
33.9864732
40
1.6224823
50
179.9662915
51
210.1920761
0
ARC
8
DEFAULT_255_2_778
10
3.6821864
20
33.9908141
40
1.6293011
50
210.2291714
51
220.1943436
0
ARC
8
DEFAULT_255_2_778
10
3.6775625
20
33.9846822
40
1.6218127
50
220.1342943
51
243.1235424
0
ARC
8
DEFAULT_255_2_778
10
3.6802683
20
33.9918768
40
1.6294535
50
243.1530428
51
270.0001598
0
ARC
8
DEFAULT_255_2_778
10
3.6802761
20
33.9884659
40
1.6260426
50
269.9998847
51
272.5696081
0
ARC
8
DEFAULT_255_2_778
10
3.6809222
20
33.9807251
40
1.6182807
50
272.5590431
51
292.5243529
0
ARC
8
DEFAULT_255_2_778
10
3.6750944
20
33.9942652
40
1.6330205
50
292.5312423
51
300.5127798
0
LINE
8
DEFAULT_255_2_778
10
8.7793397
20
32.5876427
11
8.7793397
21
35.3877427
0
LINE
8
DEFAULT_255_2_778
10
8.7793397
20
35.3877427
11
3.5792397
21
35.3877427
0
LINE
8
DEFAULT_255_2_778
10
3.5792397
20
35.3877427
11
3.5792397
21
32.5876427
0
LINE
8
DEFAULT_255_2_778
10
3.5792397
20
32.5876427
11
8.7793397
21
32.5876427
0
ARC
8
DEFAULT_255_2_778
10
8.6793395
20
33.9858661
40
1.6233345
50
239.4485442
51
267.178427
0
ARC
8
DEFAULT_255_2_778
10
8.6797058
20
33.9888849
40
1.6263677
50
267.1707717
51
270.0000721
0
ARC
8
DEFAULT_255_2_778
10
8.6798141
20
33.9414525
40
1.5789353
50
269.9961464
51
270.104048
0
ARC
8
DEFAULT_255_2_778
10
8.6799778
20
33.9859793
40
1.6234616
50
270.0954138
51
298.8030376
0
ARC
8
DEFAULT_255_2_778
10
8.6766703
20
33.9924229
40
1.6307016
50
298.7957931
51
299.738984
0
ARC
8
DEFAULT_255_2_778
10
8.6798025
20
33.9869284
40
1.624377
50
299.7391926
51
0.0009316
0
ARC
8
DEFAULT_255_2_778
10
9.4232329
20
33.9871647
40
0.8809464
50
359.9863519
51
0.0409453
0
ARC
8
DEFAULT_255_2_778
10
9.4078122
20
33.9884293
40
0.8963671
50
359.9594028
51
0.0135321
0
ARC
8
DEFAULT_255_2_778
10
8.6798609
20
33.9886671
40
1.6243185
50
359.9990816
51
59.7488213
0
ARC
8
DEFAULT_255_2_778
10
8.679957
20
33.9899074
40
1.6231987
50
59.7296954
51
88.1397468
0
ARC
8
DEFAULT_255_2_778
10
8.6795995
20
33.9867043
40
1.6264118
50
88.1308231
51
89.9998156
0
ARC
8
DEFAULT_255_2_778
10
8.6796048
20
33.9477243
40
1.6653916
50
90.0000001
51
90.1123171
0
ARC
8
DEFAULT_255_2_778
10
8.6793449
20
33.9896125
40
1.6235029
50
90.1060438
51
118.5853086
0
ARC
8
DEFAULT_255_2_778
10
8.6832305
20
33.9821077
40
1.631952
50
118.579031
51
119.5137065
0
ARC
8
DEFAULT_255_2_778
10
9.7792801
20
33.9877699
40
0.1999449
50
269.9842058
51
0.0157942
0
ARC
8
DEFAULT_255_2_778
10
9.779408
20
33.9880079
40
0.1998171
50
359.947541
51
90.052459
0
LINE
8
DEFAULT_255_2_778
10
8.779125
20
33.787825
11
9.779225
21
33.787825
0
LINE
8
DEFAULT_255_2_778
10
9.779225
20
34.187825
11
8.779125
21
34.187825
0
ARC
8
DEFAULT_255_2_778
10
2.5788339
20
33.987816
40
0.200009
50
90.0025382
51
179.9974272
0
ARC
8
DEFAULT_255_2_778
10
2.5786421
20
33.987642
40
0.1998171
50
179.947541
51
270.052459
0
LINE
8
DEFAULT_255_2_778
10
3.578925
20
34.187825
11
2.578825
21
34.187825
0
LINE
8
DEFAULT_255_2_778
10
2.578825
20
33.787825
11
3.578925
21
33.787825
0
ARC
8
DEFAULT_255_2_778
10
3.6792098
20
29.6181193
40
1.4098555
50
37.0755236
51
90.0064508
0
ARC
8
DEFAULT_255_2_778
10
3.6789638
20
29.6179759
40
1.4099991
50
89.9964539
51
142.9215758
0
LINE
8
DEFAULT_255_2_778
10
2.2291511
20
28.888075
11
5.1292511
21
28.888075
0
LINE
8
DEFAULT_255_2_778
10
5.1292511
20
28.888075
11
5.1292511
21
30.468075
0
LINE
8
DEFAULT_255_2_778
10
5.1292511
20
30.468075
11
4.8040511
21
30.468075
0
LINE
8
DEFAULT_255_2_778
10
2.5540511
20
30.468075
11
2.2291511
21
30.468075
0
LINE
8
DEFAULT_255_2_778
10
2.2291511
20
30.468075
11
2.2291511
21
28.888075
0
ARC
8
DEFAULT_255_2_778
10
3.6772107
20
26.4905488
40
1.6230195
50
179.9962003
51
180.1026273
0
ARC
8
DEFAULT_255_2_778
10
3.6761901
20
26.4907848
40
1.6219991
50
135.0034838
51
180.0045353
0
ARC
8
DEFAULT_255_2_778
10
3.6761849
20
26.4906626
40
1.6220819
50
89.9966758
51
135.0003015
0
ARC
8
DEFAULT_255_2_778
10
3.6763867
20
26.4897247
40
1.6230197
50
89.8973727
51
90.0037997
0
ARC
8
DEFAULT_255_2_778
10
3.6817596
20
26.4950211
40
1.6177224
50
61.8422222
51
90.0873324
0
ARC
8
DEFAULT_255_2_778
10
3.6781158
20
26.4871392
40
1.6263911
50
8.5995563
51
61.8600801
0
ARC
8
DEFAULT_255_2_778
10
3.6663386
20
26.4883647
40
1.6378552
50
359.9817031
51
8.4955638
0
ARC
8
DEFAULT_255_2_778
10
3.6861728
20
26.4853814
40
1.6180229
50
332.1931218
51
0.087118
0
ARC
8
DEFAULT_255_2_778
10
3.6785506
20
26.488951
40
1.6264303
50
278.6485674
51
332.2071531
0
ARC
8
DEFAULT_255_2_778
10
3.6798183
20
26.5006254
40
1.6377839
50
269.981651
51
278.5433085
0
ARC
8
DEFAULT_255_2_778
10
3.6763867
20
26.4858585
40
1.6230195
50
269.9962003
51
270.1026273
0
ARC
8
DEFAULT_255_2_778
10
3.6761849
20
26.4849207
40
1.6220819
50
224.9996985
51
270.0033242
0
ARC
8
DEFAULT_255_2_778
10
3.6761901
20
26.4847985
40
1.6219991
50
179.9954647
51
224.9965162
0
ARC
8
DEFAULT_255_2_778
10
3.6772107
20
26.4850345
40
1.6230197
50
179.8973727
51
180.0037997
0
LINE
8
DEFAULT_255_2_778
10
2.0541938
20
26.4879416
11
2.0541938
21
26.4876416
0
ARC
8
DEFAULT_255_2_778
10
8.6794385
20
29.6179767
40
1.4099984
50
37.0784003
51
90.0035516
0
ARC
8
DEFAULT_255_2_778
10
8.6792638
20
29.6179759
40
1.4099991
50
89.9964539
51
142.9215758
0
LINE
8
DEFAULT_255_2_778
10
10.1292511
20
28.888075
11
10.1292511
21
30.468075
0
LINE
8
DEFAULT_255_2_778
10
10.1292511
20
30.468075
11
9.8043511
21
30.468075
0
LINE
8
DEFAULT_255_2_778
10
7.5543511
20
30.468075
11
7.2294511
21
30.468075
0
LINE
8
DEFAULT_255_2_778
10
7.2294511
20
30.468075
11
7.2294511
21
28.888075
0
LINE
8
DEFAULT_255_2_778
10
7.2294511
20
28.888075
11
10.1295511
21
28.888075
0
ARC
8
DEFAULT_255_2_778
10
8.6794676
20
22.1176472
40
1.410141
50
37.0812903
51
90.0006706
0
ARC
8
DEFAULT_255_2_778
10
8.6793638
20
22.1177891
40
1.4099991
50
89.9964539
51
142.9215758
0
LINE
8
DEFAULT_255_2_778
10
7.2292511
20
21.3877882
11
10.1293511
21
21.3877882
0
LINE
8
DEFAULT_255_2_778
10
10.1293511
20
21.3877882
11
10.1293511
21
22.9678882
0
LINE
8
DEFAULT_255_2_778
10
10.1293511
20
22.9678882
11
9.8044511
21
22.9678882
0
LINE
8
DEFAULT_255_2_778
10
7.5544511
20
22.9678882
11
7.2295511
21
22.9678882
0
LINE
8
DEFAULT_255_2_778
10
7.2295511
20
22.9678882
11
7.2295511
21
21.3877882
0
ARC
8
DEFAULT_255_2_778
10
8.672082
20
26.4902043
40
1.6177224
50
151.8422222
51
180.0873324
0
ARC
8
DEFAULT_255_2_778
10
8.679964
20
26.4865605
40
1.6263911
50
98.5995563
51
151.8600801
0
ARC
8
DEFAULT_255_2_778
10
8.6787385
20
26.4747833
40
1.6378552
50
89.9817031
51
98.4955638
0
ARC
8
DEFAULT_255_2_778
10
8.6817217
20
26.4946175
40
1.6180229
50
62.1931218
51
90.087118
0
ARC
8
DEFAULT_255_2_778
10
8.6781521
20
26.4869953
40
1.6264303
50
8.6485674
51
62.2071531
0
ARC
8
DEFAULT_255_2_778
10
8.6664778
20
26.488263
40
1.6377839
50
359.981651
51
8.5433085
0
ARC
8
DEFAULT_255_2_778
10
8.6862735
20
26.485275
40
1.6179899
50
332.1926321
51
0.0872357
0
ARC
8
DEFAULT_255_2_778
10
8.6785932
20
26.4888999
40
1.6264743
50
278.6465625
51
332.205897
0
ARC
8
DEFAULT_255_2_778
10
8.6797871
20
26.5008451
40
1.6381067
50
269.981616
51
278.5424654
0
ARC
8
DEFAULT_255_2_778
10
8.6767933
20
26.4804269
40
1.6176903
50
241.8417123
51
270.0874202
0
ARC
8
DEFAULT_255_2_778
10
8.6804929
20
26.4883669
40
1.6264365
50
188.5975683
51
241.8588041
0
ARC
8
DEFAULT_255_2_778
10
8.6925404
20
26.4872144
40
1.6381789
50
179.9816683
51
188.4947209
0
LINE
8
DEFAULT_255_2_778
10
7.0543615
20
26.4877385
11
7.0543615
21
26.4877385
0
ARC
8
DEFAULT_255_2_778
10
3.6772107
20
18.9906488
40
1.6230195
50
179.9962003
51
180.1026273
0
ARC
8
DEFAULT_255_2_778
10
3.6761901
20
18.9908848
40
1.6219991
50
135.0034838
51
180.0045353
0
ARC
8
DEFAULT_255_2_778
10
3.6761849
20
18.9907626
40
1.6220819
50
89.9966758
51
135.0003015
0
ARC
8
DEFAULT_255_2_778
10
3.6763867
20
18.9898247
40
1.6230197
50
89.8973727
51
90.0037997
0
ARC
8
DEFAULT_255_2_778
10
3.6817596
20
18.9951211
40
1.6177224
50
61.8422222
51
90.0873324
0
ARC
8
DEFAULT_255_2_778
10
3.6781158
20
18.9872392
40
1.6263911
50
8.5995563
51
61.8600801
0
ARC
8
DEFAULT_255_2_778
10
3.6663386
20
18.9884647
40
1.6378552
50
359.9817031
51
8.4955638
0
ARC
8
DEFAULT_255_2_778
10
3.6861728
20
18.9854814
40
1.6180229
50
332.1931218
51
0.087118
0
ARC
8
DEFAULT_255_2_778
10
3.6785506
20
18.989051
40
1.6264303
50
278.6485674
51
332.2071531
0
ARC
8
DEFAULT_255_2_778
10
3.6798183
20
19.0007254
40
1.6377839
50
269.981651
51
278.5433085
0
ARC
8
DEFAULT_255_2_778
10
3.6763867
20
18.9859585
40
1.6230195
50
269.9962003
51
270.1026273
0
ARC
8
DEFAULT_255_2_778
10
3.6761849
20
18.9850207
40
1.6220819
50
224.9996985
51
270.0033242
0
ARC
8
DEFAULT_255_2_778
10
3.6761901
20
18.9848985
40
1.6219991
50
179.9954647
51
224.9965162
0
ARC
8
DEFAULT_255_2_778
10
3.6772107
20
18.9851345
40
1.6230197
50
179.8973727
51
180.0037997
0
LINE
8
DEFAULT_255_2_778
10
2.0541938
20
18.9880416
11
2.0541938
21
18.9877416
0
ARC
8
DEFAULT_255_2_778
10
3.6792098
20
22.1177193
40
1.4098555
50
37.0755236
51
90.0064508
0
ARC
8
DEFAULT_255_2_778
10
3.6789638
20
22.1175759
40
1.4099991
50
89.9964539
51
142.9215758
0
LINE
8
DEFAULT_255_2_778
10
2.2291511
20
22.967675
11
2.2291511
21
21.387675
0
LINE
8
DEFAULT_255_2_778
10
2.2291511
20
21.387675
11
5.1292511
21
21.387675
0
LINE
8
DEFAULT_255_2_778
10
5.1292511
20
21.387675
11
5.1292511
21
22.967675
0
LINE
8
DEFAULT_255_2_778
10
5.1292511
20
22.967675
11
4.8040511
21
22.967675
0
LINE
8
DEFAULT_255_2_778
10
2.5540511
20
22.967675
11
2.2291511
21
22.967675
0
ARC
8
DEFAULT_255_2_778
10
8.672082
20
11.4902043
40
1.6177224
50
151.8422222
51
180.0873324
0
ARC
8
DEFAULT_255_2_778
10
8.679964
20
11.4865605
40
1.6263911
50
98.5995563
51
151.8600801
0
ARC
8
DEFAULT_255_2_778
10
8.6787385
20
11.4747833
40
1.6378552
50
89.9817031
51
98.4955638
0
ARC
8
DEFAULT_255_2_778
10
8.6817217
20
11.4946175
40
1.6180229
50
62.1931218
51
90.087118
0
ARC
8
DEFAULT_255_2_778
10
8.6781521
20
11.4869953
40
1.6264303
50
8.6485674
51
62.2071531
0
ARC
8
DEFAULT_255_2_778
10
8.6664778
20
11.488263
40
1.6377839
50
359.981651
51
8.5433085
0
ARC
8
DEFAULT_255_2_778
10
8.6862735
20
11.485275
40
1.6179899
50
332.1926321
51
0.0872357
0
ARC
8
DEFAULT_255_2_778
10
8.6785932
20
11.4888999
40
1.6264743
50
278.6465625
51
332.205897
0
ARC
8
DEFAULT_255_2_778
10
8.6797871
20
11.5008451
40
1.6381067
50
269.981616
51
278.5424654
0
ARC
8
DEFAULT_255_2_778
10
8.6767933
20
11.4804269
40
1.6176903
50
241.8417123
51
270.0874202
0
ARC
8
DEFAULT_255_2_778
10
8.6804929
20
11.4883669
40
1.6264365
50
188.5975683
51
241.8588041
0
ARC
8
DEFAULT_255_2_778
10
8.6925404
20
11.4872144
40
1.6381789
50
179.9816683
51
188.4947209
0
LINE
8
DEFAULT_255_2_778
10
7.0543615
20
11.4877385
11
7.0543615
21
11.4877385
0
ARC
8
DEFAULT_255_2_778
10
3.6772107
20
11.4905488
40
1.6230195
50
179.9962003
51
180.1026273
0
ARC
8
DEFAULT_255_2_778
10
3.6761901
20
11.4907848
40
1.6219991
50
135.0034838
51
180.0045353
0
ARC
8
DEFAULT_255_2_778
10
3.6761849
20
11.4906626
40
1.6220819
50
89.9966758
51
135.0003015
0
ARC
8
DEFAULT_255_2_778
10
3.6763867
20
11.4897247
40
1.6230197
50
89.8973727
51
90.0037997
0
ARC
8
DEFAULT_255_2_778
10
3.6817596
20
11.4950211
40
1.6177224
50
61.8422222
51
90.0873324
0
ARC
8
DEFAULT_255_2_778
10
3.6781158
20
11.4871392
40
1.6263911
50
8.5995563
51
61.8600801
0
ARC
8
DEFAULT_255_2_778
10
3.6663386
20
11.4883647
40
1.6378552
50
359.9817031
51
8.4955638
0
ARC
8
DEFAULT_255_2_778
10
3.6861728
20
11.4853814
40
1.6180229
50
332.1931218
51
0.087118
0
ARC
8
DEFAULT_255_2_778
10
3.6785506
20
11.488951
40
1.6264303
50
278.6485674
51
332.2071531
0
ARC
8
DEFAULT_255_2_778
10
3.6798183
20
11.5006254
40
1.6377839
50
269.981651
51
278.5433085
0
ARC
8
DEFAULT_255_2_778
10
3.6763867
20
11.4858585
40
1.6230195
50
269.9962003
51
270.1026273
0
ARC
8
DEFAULT_255_2_778
10
3.6761849
20
11.4849207
40
1.6220819
50
224.9996985
51
270.0033242
0
ARC
8
DEFAULT_255_2_778
10
3.6761901
20
11.4847985
40
1.6219991
50
179.9954647
51
224.9965162
0
ARC
8
DEFAULT_255_2_778
10
3.6772107
20
11.4850345
40
1.6230197
50
179.8973727
51
180.0037997
0
LINE
8
DEFAULT_255_2_778
10
2.0541938
20
11.4879416
11
2.0541938
21
11.4876416
0
ARC
8
DEFAULT_255_2_778
10
3.6792098
20
14.6181193
40
1.4098555
50
37.0755236
51
90.0064508
0
ARC
8
DEFAULT_255_2_778
10
3.6789638
20
14.6179759
40
1.4099991
50
89.9964539
51
142.9215758
0
LINE
8
DEFAULT_255_2_778
10
2.2291511
20
13.888075
11
5.1292511
21
13.888075
0
LINE
8
DEFAULT_255_2_778
10
5.1292511
20
13.888075
11
5.1292511
21
15.468075
0
LINE
8
DEFAULT_255_2_778
10
5.1292511
20
15.468075
11
4.8040511
21
15.468075
0
LINE
8
DEFAULT_255_2_778
10
2.5540511
20
15.468075
11
2.2291511
21
15.468075
0
LINE
8
DEFAULT_255_2_778
10
2.2291511
20
15.468075
11
2.2291511
21
13.888075
0
ARC
8
DEFAULT_255_2_778
10
8.672082
20
63.9904043
40
1.6177224
50
151.8422222
51
180.0873324
0
ARC
8
DEFAULT_255_2_778
10
8.679964
20
63.9867605
40
1.6263911
50
98.5995563
51
151.8600801
0
ARC
8
DEFAULT_255_2_778
10
8.6787385
20
63.9749833
40
1.6378552
50
89.9817031
51
98.4955638
0
ARC
8
DEFAULT_255_2_778
10
8.6817217
20
63.9948175
40
1.6180229
50
62.1931218
51
90.087118
0
ARC
8
DEFAULT_255_2_778
10
8.6781521
20
63.9871953
40
1.6264303
50
8.6485674
51
62.2071531
0
ARC
8
DEFAULT_255_2_778
10
8.6664778
20
63.988463
40
1.6377839
50
359.981651
51
8.5433085
0
ARC
8
DEFAULT_255_2_778
10
8.6862735
20
63.985475
40
1.6179899
50
332.1926321
51
0.0872357
0
ARC
8
DEFAULT_255_2_778
10
8.6785932
20
63.9890999
40
1.6264743
50
278.6465625
51
332.205897
0
ARC
8
DEFAULT_255_2_778
10
8.6797871
20
64.0010451
40
1.6381067
50
269.981616
51
278.5424654
0
ARC
8
DEFAULT_255_2_778
10
8.6767933
20
63.9806269
40
1.6176903
50
241.8417123
51
270.0874202
0
ARC
8
DEFAULT_255_2_778
10
8.6804929
20
63.9885669
40
1.6264365
50
188.5975683
51
241.8588041
0
ARC
8
DEFAULT_255_2_778
10
8.6925404
20
63.9874144
40
1.6381789
50
179.9816683
51
188.4947209
0
LINE
8
DEFAULT_255_2_778
10
7.0543615
20
63.9879385
11
7.0543615
21
63.9879385
0
ARC
8
DEFAULT_255_2_778
10
8.6794676
20
67.1177472
40
1.410141
50
37.0812903
51
90.0006706
0
ARC
8
DEFAULT_255_2_778
10
8.6793638
20
67.1178891
40
1.4099991
50
89.9964539
51
142.9215758
0
LINE
8
DEFAULT_255_2_778
10
7.2292511
20
66.3878882
11
10.1293511
21
66.3878882
0
LINE
8
DEFAULT_255_2_778
10
10.1293511
20
66.3878882
11
10.1293511
21
67.9679882
0
LINE
8
DEFAULT_255_2_778
10
10.1293511
20
67.9679882
11
9.8044511
21
67.9679882
0
LINE
8
DEFAULT_255_2_778
10
7.5544511
20
67.9679882
11
7.2295511
21
67.9679882
0
LINE
8
DEFAULT_255_2_778
10
7.2295511
20
67.9679882
11
7.2295511
21
66.3878882
0
ARC
8
DEFAULT_255_2_778
10
3.6772107
20
63.9907488
40
1.6230195
50
179.9962003
51
180.1026273
0
ARC
8
DEFAULT_255_2_778
10
3.6761901
20
63.9909848
40
1.6219991
50
135.0034838
51
180.0045353
0
ARC
8
DEFAULT_255_2_778
10
3.6761849
20
63.9908626
40
1.6220819
50
89.9966758
51
135.0003015
0
ARC
8
DEFAULT_255_2_778
10
3.6763867
20
63.9899247
40
1.6230197
50
89.8973727
51
90.0037997
0
ARC
8
DEFAULT_255_2_778
10
3.6817596
20
63.9952211
40
1.6177224
50
61.8422222
51
90.0873324
0
ARC
8
DEFAULT_255_2_778
10
3.6781158
20
63.9873392
40
1.6263911
50
8.5995563
51
61.8600801
0
ARC
8
DEFAULT_255_2_778
10
3.6663386
20
63.9885647
40
1.6378552
50
359.9817031
51
8.4955638
0
ARC
8
DEFAULT_255_2_778
10
3.6861728
20
63.9855814
40
1.6180229
50
332.1931218
51
0.087118
0
ARC
8
DEFAULT_255_2_778
10
3.6785506
20
63.989151
40
1.6264303
50
278.6485674
51
332.2071531
0
ARC
8
DEFAULT_255_2_778
10
3.6798183
20
64.0008254
40
1.6377839
50
269.981651
51
278.5433085
0
ARC
8
DEFAULT_255_2_778
10
3.6763867
20
63.9860585
40
1.6230195
50
269.9962003
51
270.1026273
0
ARC
8
DEFAULT_255_2_778
10
3.6761849
20
63.9851207
40
1.6220819
50
224.9996985
51
270.0033242
0
ARC
8
DEFAULT_255_2_778
10
3.6761901
20
63.9849985
40
1.6219991
50
179.9954647
51
224.9965162
0
ARC
8
DEFAULT_255_2_778
10
3.6772107
20
63.9852345
40
1.6230197
50
179.8973727
51
180.0037997
0
LINE
8
DEFAULT_255_2_778
10
2.0541938
20
63.9881416
11
2.0541938
21
63.9878416
0
ARC
8
DEFAULT_255_2_778
10
3.6792098
20
59.6179193
40
1.4098555
50
37.0755236
51
90.0064508
0
ARC
8
DEFAULT_255_2_778
10
3.6789638
20
59.6177759
40
1.4099991
50
89.9964539
51
142.9215758
0
LINE
8
DEFAULT_255_2_778
10
2.2291511
20
60.467875
11
2.2291511
21
58.887875
0
LINE
8
DEFAULT_255_2_778
10
2.2291511
20
58.887875
11
5.1292511
21
58.887875
0
LINE
8
DEFAULT_255_2_778
10
5.1292511
20
58.887875
11
5.1292511
21
60.467875
0
LINE
8
DEFAULT_255_2_778
10
5.1292511
20
60.467875
11
4.8040511
21
60.467875
0
LINE
8
DEFAULT_255_2_778
10
2.5540511
20
60.467875
11
2.2291511
21
60.467875
0
ARC
8
DEFAULT_255_2_778
10
3.6792098
20
67.1180193
40
1.4098555
50
37.0755236
51
90.0064508
0
ARC
8
DEFAULT_255_2_778
10
3.6789638
20
67.1178759
40
1.4099991
50
89.9964539
51
142.9215758
0
LINE
8
DEFAULT_255_2_778
10
2.2291511
20
66.387975
11
5.1292511
21
66.387975
0
LINE
8
DEFAULT_255_2_778
10
5.1292511
20
66.387975
11
5.1292511
21
67.967975
0
LINE
8
DEFAULT_255_2_778
10
5.1292511
20
67.967975
11
4.8040511
21
67.967975
0
LINE
8
DEFAULT_255_2_778
10
2.5540511
20
67.967975
11
2.2291511
21
67.967975
0
LINE
8
DEFAULT_255_2_778
10
2.2291511
20
67.967975
11
2.2291511
21
66.387975
0
ARC
8
DEFAULT_255_2_778
10
8.6794676
20
14.6177472
40
1.410141
50
37.0812903
51
90.0006706
0
ARC
8
DEFAULT_255_2_778
10
8.6793638
20
14.6178891
40
1.4099991
50
89.9964539
51
142.9215758
0
LINE
8
DEFAULT_255_2_778
10
7.2292511
20
13.8878882
11
10.1293511
21
13.8878882
0
LINE
8
DEFAULT_255_2_778
10
10.1293511
20
13.8878882
11
10.1293511
21
15.4679882
0
LINE
8
DEFAULT_255_2_778
10
10.1293511
20
15.4679882
11
9.8044511
21
15.4679882
0
LINE
8
DEFAULT_255_2_778
10
7.5544511
20
15.4679882
11
7.2295511
21
15.4679882
0
LINE
8
DEFAULT_255_2_778
10
7.2295511
20
15.4679882
11
7.2295511
21
13.8878882
0
ARC
8
DEFAULT_255_2_778
10
8.672082
20
18.9903043
40
1.6177224
50
151.8422222
51
180.0873324
0
ARC
8
DEFAULT_255_2_778
10
8.679964
20
18.9866605
40
1.6263911
50
98.5995563
51
151.8600801
0
ARC
8
DEFAULT_255_2_778
10
8.6787385
20
18.9748833
40
1.6378552
50
89.9817031
51
98.4955638
0
ARC
8
DEFAULT_255_2_778
10
8.6817217
20
18.9947175
40
1.6180229
50
62.1931218
51
90.087118
0
ARC
8
DEFAULT_255_2_778
10
8.6781521
20
18.9870953
40
1.6264303
50
8.6485674
51
62.2071531
0
ARC
8
DEFAULT_255_2_778
10
8.6664778
20
18.988363
40
1.6377839
50
359.981651
51
8.5433085
0
ARC
8
DEFAULT_255_2_778
10
8.6862735
20
18.985375
40
1.6179899
50
332.1926321
51
0.0872357
0
ARC
8
DEFAULT_255_2_778
10
8.6785932
20
18.9889999
40
1.6264743
50
278.6465625
51
332.205897
0
ARC
8
DEFAULT_255_2_778
10
8.6797871
20
19.0009451
40
1.6381067
50
269.981616
51
278.5424654
0
ARC
8
DEFAULT_255_2_778
10
8.6767933
20
18.9805269
40
1.6176903
50
241.8417123
51
270.0874202
0
ARC
8
DEFAULT_255_2_778
10
8.6804929
20
18.9884669
40
1.6264365
50
188.5975683
51
241.8588041
0
ARC
8
DEFAULT_255_2_778
10
8.6925404
20
18.9873144
40
1.6381789
50
179.9816683
51
188.4947209
0
LINE
8
DEFAULT_255_2_778
10
7.0543615
20
18.9878385
11
7.0543615
21
18.9878385
0
ARC
8
DEFAULT_255_2_778
10
8.672082
20
56.4902043
40
1.6177224
50
151.8422222
51
180.0873324
0
ARC
8
DEFAULT_255_2_778
10
8.679964
20
56.4865605
40
1.6263911
50
98.5995563
51
151.8600801
0
ARC
8
DEFAULT_255_2_778
10
8.6787385
20
56.4747833
40
1.6378552
50
89.9817031
51
98.4955638
0
ARC
8
DEFAULT_255_2_778
10
8.6817217
20
56.4946175
40
1.6180229
50
62.1931218
51
90.087118
0
ARC
8
DEFAULT_255_2_778
10
8.6781521
20
56.4869953
40
1.6264303
50
8.6485674
51
62.2071531
0
ARC
8
DEFAULT_255_2_778
10
8.6664778
20
56.488263
40
1.6377839
50
359.981651
51
8.5433085
0
ARC
8
DEFAULT_255_2_778
10
8.6862735
20
56.485275
40
1.6179899
50
332.1926321
51
0.0872357
0
ARC
8
DEFAULT_255_2_778
10
8.6785932
20
56.4888999
40
1.6264743
50
278.6465625
51
332.205897
0
ARC
8
DEFAULT_255_2_778
10
8.6797871
20
56.5008451
40
1.6381067
50
269.981616
51
278.5424654
0
ARC
8
DEFAULT_255_2_778
10
8.6767933
20
56.4804269
40
1.6176903
50
241.8417123
51
270.0874202
0
ARC
8
DEFAULT_255_2_778
10
8.6804929
20
56.4883669
40
1.6264365
50
188.5975683
51
241.8588041
0
ARC
8
DEFAULT_255_2_778
10
8.6925404
20
56.4872144
40
1.6381789
50
179.9816683
51
188.4947209
0
LINE
8
DEFAULT_255_2_778
10
7.0543615
20
56.4877385
11
7.0543615
21
56.4877385
0
ARC
8
DEFAULT_255_2_778
10
8.6794385
20
52.1175899
40
1.4099984
50
37.0784003
51
90.0035516
0
ARC
8
DEFAULT_255_2_778
10
8.6792638
20
52.1175891
40
1.4099991
50
89.9964539
51
142.9215758
0
LINE
8
DEFAULT_255_2_778
10
10.1292511
20
52.9676882
11
9.8043511
21
52.9676882
0
LINE
8
DEFAULT_255_2_778
10
7.5543511
20
52.9676882
11
7.2294511
21
52.9676882
0
LINE
8
DEFAULT_255_2_778
10
7.2294511
20
52.9676882
11
7.2294511
21
51.3875882
0
LINE
8
DEFAULT_255_2_778
10
7.2294511
20
51.3875882
11
10.1295511
21
51.3875882
0
LINE
8
DEFAULT_255_2_778
10
10.1295511
20
51.3875882
11
10.1295511
21
52.9676882
0
ARC
8
DEFAULT_255_2_778
10
8.6794676
20
59.6175472
40
1.410141
50
37.0812903
51
90.0006706
0
ARC
8
DEFAULT_255_2_778
10
8.6793638
20
59.6176891
40
1.4099991
50
89.9964539
51
142.9215758
0
LINE
8
DEFAULT_255_2_778
10
7.2292511
20
60.4677882
11
7.2292511
21
58.8876882
0
LINE
8
DEFAULT_255_2_778
10
7.2292511
20
58.8876882
11
10.1293511
21
58.8876882
0
LINE
8
DEFAULT_255_2_778
10
10.1293511
20
58.8876882
11
10.1293511
21
60.4677882
0
LINE
8
DEFAULT_255_2_778
10
10.1293511
20
60.4677882
11
9.8044511
21
60.4677882
0
LINE
8
DEFAULT_255_2_778
10
7.5544511
20
60.4677882
11
7.2295511
21
60.4677882
0
ARC
8
DEFAULT_255_2_778
10
3.6772107
20
56.4906488
40
1.6230195
50
179.9962003
51
180.1026273
0
ARC
8
DEFAULT_255_2_778
10
3.6761901
20
56.4908848
40
1.6219991
50
135.0034838
51
180.0045353
0
ARC
8
DEFAULT_255_2_778
10
3.6761849
20
56.4907626
40
1.6220819
50
89.9966758
51
135.0003015
0
ARC
8
DEFAULT_255_2_778
10
3.6763867
20
56.4898247
40
1.6230197
50
89.8973727
51
90.0037997
0
ARC
8
DEFAULT_255_2_778
10
3.681762
20
56.4951532
40
1.6176903
50
61.8417123
51
90.0874202
0
ARC
8
DEFAULT_255_2_778
10
3.6780624
20
56.4872133
40
1.6264365
50
8.5975683
51
61.8588041
0
ARC
8
DEFAULT_255_2_778
10
3.6660149
20
56.4883658
40
1.6381789
50
359.9816683
51
8.4947209
0
ARC
8
DEFAULT_255_2_778
10
3.6864733
20
56.4853758
40
1.6177224
50
331.8422222
51
0.0873324
0
ARC
8
DEFAULT_255_2_778
10
3.6785913
20
56.4890197
40
1.6263911
50
278.5995563
51
331.8600801
0
ARC
8
DEFAULT_255_2_778
10
3.6798168
20
56.5007968
40
1.6378552
50
269.9817031
51
278.4955638
0
ARC
8
DEFAULT_255_2_778
10
3.6763867
20
56.4859585
40
1.6230195
50
269.9962003
51
270.1026273
0
ARC
8
DEFAULT_255_2_778
10
3.6761849
20
56.4850207
40
1.6220819
50
224.9996985
51
270.0033242
0
ARC
8
DEFAULT_255_2_778
10
3.6761901
20
56.4848985
40
1.6219991
50
179.9954647
51
224.9965162
0
ARC
8
DEFAULT_255_2_778
10
3.6772107
20
56.4851345
40
1.6230197
50
179.8973727
51
180.0037997
0
LINE
8
DEFAULT_255_2_778
10
2.0541938
20
56.4880416
11
2.0541938
21
56.4877416
0
ARC
8
DEFAULT_255_2_778
10
3.6792098
20
52.1180193
40
1.4098555
50
37.0755236
51
90.0064508
0
ARC
8
DEFAULT_255_2_778
10
3.6789638
20
52.1178759
40
1.4099991
50
89.9964539
51
142.9215758
0
LINE
8
DEFAULT_255_2_778
10
2.2291511
20
51.387975
11
5.1292511
21
51.387975
0
LINE
8
DEFAULT_255_2_778
10
5.1292511
20
51.387975
11
5.1292511
21
52.967975
0
LINE
8
DEFAULT_255_2_778
10
5.1292511
20
52.967975
11
4.8040511
21
52.967975
0
LINE
8
DEFAULT_255_2_778
10
2.5540511
20
52.967975
11
2.2291511
21
52.967975
0
LINE
8
DEFAULT_255_2_778
10
2.2291511
20
52.967975
11
2.2291511
21
51.387975
0
ARC
8
DEFAULT_255_2_778
10
8.672082
20
48.9903043
40
1.6177224
50
151.8422222
51
180.0873324
0
ARC
8
DEFAULT_255_2_778
10
8.679964
20
48.9866605
40
1.6263911
50
98.5995563
51
151.8600801
0
ARC
8
DEFAULT_255_2_778
10
8.6787385
20
48.9748833
40
1.6378552
50
89.9817031
51
98.4955638
0
ARC
8
DEFAULT_255_2_778
10
8.6817217
20
48.9947175
40
1.6180229
50
62.1931218
51
90.087118
0
ARC
8
DEFAULT_255_2_778
10
8.6781521
20
48.9870953
40
1.6264303
50
8.6485674
51
62.2071531
0
ARC
8
DEFAULT_255_2_778
10
8.6664778
20
48.988363
40
1.6377839
50
359.981651
51
8.5433085
0
ARC
8
DEFAULT_255_2_778
10
8.6862735
20
48.985375
40
1.6179899
50
332.1926321
51
0.0872357
0
ARC
8
DEFAULT_255_2_778
10
8.6785932
20
48.9889999
40
1.6264743
50
278.6465625
51
332.205897
0
ARC
8
DEFAULT_255_2_778
10
8.6797871
20
49.0009451
40
1.6381067
50
269.981616
51
278.5424654
0
ARC
8
DEFAULT_255_2_778
10
8.6767933
20
48.9805269
40
1.6176903
50
241.8417123
51
270.0874202
0
ARC
8
DEFAULT_255_2_778
10
8.6804929
20
48.9884669
40
1.6264365
50
188.5975683
51
241.8588041
0
ARC
8
DEFAULT_255_2_778
10
8.6925404
20
48.9873144
40
1.6381789
50
179.9816683
51
188.4947209
0
LINE
8
DEFAULT_255_2_778
10
7.0543615
20
48.9878385
11
7.0543615
21
48.9878385
0
ARC
8
DEFAULT_255_2_778
10
8.6794676
20
44.6175472
40
1.410141
50
37.0812903
51
90.0006706
0
ARC
8
DEFAULT_255_2_778
10
8.6793638
20
44.6176891
40
1.4099991
50
89.9964539
51
142.9215758
0
LINE
8
DEFAULT_255_2_778
10
7.2292511
20
45.4677882
11
7.2292511
21
43.8876882
0
LINE
8
DEFAULT_255_2_778
10
7.2292511
20
43.8876882
11
10.1293511
21
43.8876882
0
LINE
8
DEFAULT_255_2_778
10
10.1293511
20
43.8876882
11
10.1293511
21
45.4677882
0
LINE
8
DEFAULT_255_2_778
10
10.1293511
20
45.4677882
11
9.8044511
21
45.4677882
0
LINE
8
DEFAULT_255_2_778
10
7.5544511
20
45.4677882
11
7.2295511
21
45.4677882
0
ARC
8
DEFAULT_255_2_778
10
3.6772107
20
48.9907488
40
1.6230195
50
179.9962003
51
180.1026273
0
ARC
8
DEFAULT_255_2_778
10
3.6761901
20
48.9909848
40
1.6219991
50
135.0034838
51
180.0045353
0
ARC
8
DEFAULT_255_2_778
10
3.6761849
20
48.9908626
40
1.6220819
50
89.9966758
51
135.0003015
0
ARC
8
DEFAULT_255_2_778
10
3.6763867
20
48.9899247
40
1.6230197
50
89.8973727
51
90.0037997
0
ARC
8
DEFAULT_255_2_778
10
3.6817596
20
48.9952211
40
1.6177224
50
61.8422222
51
90.0873324
0
ARC
8
DEFAULT_255_2_778
10
3.6781158
20
48.9873392
40
1.6263911
50
8.5995563
51
61.8600801
0
ARC
8
DEFAULT_255_2_778
10
3.6663386
20
48.9885647
40
1.6378552
50
359.9817031
51
8.4955638
0
ARC
8
DEFAULT_255_2_778
10
3.6861728
20
48.9855814
40
1.6180229
50
332.1931218
51
0.087118
0
ARC
8
DEFAULT_255_2_778
10
3.6785506
20
48.989151
40
1.6264303
50
278.6485674
51
332.2071531
0
ARC
8
DEFAULT_255_2_778
10
3.6798183
20
49.0008254
40
1.6377839
50
269.981651
51
278.5433085
0
ARC
8
DEFAULT_255_2_778
10
3.6763867
20
48.9860585
40
1.6230195
50
269.9962003
51
270.1026273
0
ARC
8
DEFAULT_255_2_778
10
3.6761849
20
48.9851207
40
1.6220819
50
224.9996985
51
270.0033242
0
ARC
8
DEFAULT_255_2_778
10
3.6761901
20
48.9849985
40
1.6219991
50
179.9954647
51
224.9965162
0
ARC
8
DEFAULT_255_2_778
10
3.6772107
20
48.9852345
40
1.6230197
50
179.8973727
51
180.0037997
0
LINE
8
DEFAULT_255_2_778
10
2.0541938
20
48.9881416
11
2.0541938
21
48.9878416
0
ARC
8
DEFAULT_255_2_778
10
3.6792098
20
44.6181193
40
1.4098555
50
37.0755236
51
90.0064508
0
ARC
8
DEFAULT_255_2_778
10
3.6789638
20
44.6179759
40
1.4099991
50
89.9964539
51
142.9215758
0
LINE
8
DEFAULT_255_2_778
10
2.2291511
20
43.888075
11
5.1292511
21
43.888075
0
LINE
8
DEFAULT_255_2_778
10
5.1292511
20
43.888075
11
5.1292511
21
45.468075
0
LINE
8
DEFAULT_255_2_778
10
5.1292511
20
45.468075
11
4.8040511
21
45.468075
0
LINE
8
DEFAULT_255_2_778
10
2.5540511
20
45.468075
11
2.2291511
21
45.468075
0
LINE
8
DEFAULT_255_2_778
10
2.2291511
20
45.468075
11
2.2291511
21
43.888075
0
ARC
8
DEFAULT_255_2_778
10
8.672082
20
41.4902043
40
1.6177224
50
151.8422222
51
180.0873324
0
ARC
8
DEFAULT_255_2_778
10
8.679964
20
41.4865605
40
1.6263911
50
98.5995563
51
151.8600801
0
ARC
8
DEFAULT_255_2_778
10
8.6787385
20
41.4747833
40
1.6378552
50
89.9817031
51
98.4955638
0
ARC
8
DEFAULT_255_2_778
10
8.6817217
20
41.4946175
40
1.6180229
50
62.1931218
51
90.087118
0
ARC
8
DEFAULT_255_2_778
10
8.6781521
20
41.4869953
40
1.6264303
50
8.6485674
51
62.2071531
0
ARC
8
DEFAULT_255_2_778
10
8.6664778
20
41.488263
40
1.6377839
50
359.981651
51
8.5433085
0
ARC
8
DEFAULT_255_2_778
10
8.6862735
20
41.485275
40
1.6179899
50
332.1926321
51
0.0872357
0
ARC
8
DEFAULT_255_2_778
10
8.6785932
20
41.4888999
40
1.6264743
50
278.6465625
51
332.205897
0
ARC
8
DEFAULT_255_2_778
10
8.6797871
20
41.5008451
40
1.6381067
50
269.981616
51
278.5424654
0
ARC
8
DEFAULT_255_2_778
10
8.6767933
20
41.4804269
40
1.6176903
50
241.8417123
51
270.0874202
0
ARC
8
DEFAULT_255_2_778
10
8.6804929
20
41.4883669
40
1.6264365
50
188.5975683
51
241.8588041
0
ARC
8
DEFAULT_255_2_778
10
8.6925404
20
41.4872144
40
1.6381789
50
179.9816683
51
188.4947209
0
LINE
8
DEFAULT_255_2_778
10
7.0543615
20
41.4877385
11
7.0543615
21
41.4877385
0
ARC
8
DEFAULT_255_2_778
10
8.6794676
20
37.1176472
40
1.410141
50
37.0812903
51
90.0006706
0
ARC
8
DEFAULT_255_2_778
10
8.6793638
20
37.1177891
40
1.4099991
50
89.9964539
51
142.9215758
0
LINE
8
DEFAULT_255_2_778
10
7.2292511
20
36.3877882
11
10.1293511
21
36.3877882
0
LINE
8
DEFAULT_255_2_778
10
10.1293511
20
36.3877882
11
10.1293511
21
37.9678882
0
LINE
8
DEFAULT_255_2_778
10
10.1293511
20
37.9678882
11
9.8044511
21
37.9678882
0
LINE
8
DEFAULT_255_2_778
10
7.5544511
20
37.9678882
11
7.2295511
21
37.9678882
0
LINE
8
DEFAULT_255_2_778
10
7.2295511
20
37.9678882
11
7.2295511
21
36.3877882
0
ARC
8
DEFAULT_255_2_778
10
3.6772107
20
41.4905488
40
1.6230195
50
179.9962003
51
180.1026273
0
ARC
8
DEFAULT_255_2_778
10
3.6761901
20
41.4907848
40
1.6219991
50
135.0034838
51
180.0045353
0
ARC
8
DEFAULT_255_2_778
10
3.6761849
20
41.4906626
40
1.6220819
50
89.9966758
51
135.0003015
0
ARC
8
DEFAULT_255_2_778
10
3.6763867
20
41.4897247
40
1.6230197
50
89.8973727
51
90.0037997
0
ARC
8
DEFAULT_255_2_778
10
3.6817596
20
41.4950211
40
1.6177224
50
61.8422222
51
90.0873324
0
ARC
8
DEFAULT_255_2_778
10
3.6781158
20
41.4871392
40
1.6263911
50
8.5995563
51
61.8600801
0
ARC
8
DEFAULT_255_2_778
10
3.6663386
20
41.4883647
40
1.6378552
50
359.9817031
51
8.4955638
0
ARC
8
DEFAULT_255_2_778
10
3.6861728
20
41.4853814
40
1.6180229
50
332.1931218
51
0.087118
0
ARC
8
DEFAULT_255_2_778
10
3.6785506
20
41.488951
40
1.6264303
50
278.6485674
51
332.2071531
0
ARC
8
DEFAULT_255_2_778
10
3.6798183
20
41.5006254
40
1.6377839
50
269.981651
51
278.5433085
0
ARC
8
DEFAULT_255_2_778
10
3.6763867
20
41.4858585
40
1.6230195
50
269.9962003
51
270.1026273
0
ARC
8
DEFAULT_255_2_778
10
3.6761849
20
41.4849207
40
1.6220819
50
224.9996985
51
270.0033242
0
ARC
8
DEFAULT_255_2_778
10
3.6761901
20
41.4847985
40
1.6219991
50
179.9954647
51
224.9965162
0
ARC
8
DEFAULT_255_2_778
10
3.6772107
20
41.4850345
40
1.6230197
50
179.8973727
51
180.0037997
0
LINE
8
DEFAULT_255_2_778
10
2.0541938
20
41.4879416
11
2.0541938
21
41.4876416
0
ARC
8
DEFAULT_255_2_778
10
3.6792098
20
37.1180193
40
1.4098555
50
37.0755236
51
90.0064508
0
ARC
8
DEFAULT_255_2_778
10
3.6789638
20
37.1178759
40
1.4099991
50
89.9964539
51
142.9215758
0
LINE
8
DEFAULT_255_2_778
10
2.2291511
20
36.387975
11
5.1292511
21
36.387975
0
LINE
8
DEFAULT_255_2_778
10
5.1292511
20
36.387975
11
5.1292511
21
37.967975
0
LINE
8
DEFAULT_255_2_778
10
5.1292511
20
37.967975
11
4.8040511
21
37.967975
0
LINE
8
DEFAULT_255_2_778
10
2.5540511
20
37.967975
11
2.2291511
21
37.967975
0
LINE
8
DEFAULT_255_2_778
10
2.2291511
20
37.967975
11
2.2291511
21
36.387975
0
ARC
8
DEFAULT_255_2_778
10
15.678893
20
33.9890311
40
1.6240524
50
59.4604005
51
75.2953186
0
ARC
8
DEFAULT_255_2_778
10
15.6805677
20
33.9930659
40
1.6197247
50
75.3163888
51
87.4352383
0
ARC
8
DEFAULT_255_2_778
10
15.6801232
20
33.9868684
40
1.625936
50
87.4293632
51
90.0004281
0
ARC
8
DEFAULT_255_2_778
10
15.6793414
20
33.9872655
40
1.6255392
50
89.9728715
51
130.1846954
0
ARC
8
DEFAULT_255_2_778
10
15.6835702
20
33.9847542
40
1.6301871
50
130.2412916
51
139.8496325
0
ARC
8
DEFAULT_255_2_778
10
15.6768878
20
33.9884789
40
1.6226783
50
139.7980186
51
159.578985
0
ARC
8
DEFAULT_255_2_778
10
15.681268
20
33.9877815
40
1.6270268
50
159.609788
51
180.0066751
0
LINE
8
DEFAULT_255_2_778
10
14.0542413
20
33.9875919
11
14.0542413
21
33.9874278
0
ARC
8
DEFAULT_255_2_778
10
15.6767233
20
33.9864732
40
1.6224823
50
179.9662915
51
210.1920761
0
ARC
8
DEFAULT_255_2_778
10
15.6820864
20
33.9908141
40
1.6293011
50
210.2291714
51
220.1943436
0
ARC
8
DEFAULT_255_2_778
10
15.6774625
20
33.9846822
40
1.6218127
50
220.1342943
51
243.1235424
0
ARC
8
DEFAULT_255_2_778
10
15.6801683
20
33.9918768
40
1.6294535
50
243.1530428
51
270.0001598
0
ARC
8
DEFAULT_255_2_778
10
15.6801761
20
33.9884659
40
1.6260426
50
269.9998847
51
272.5696081
0
ARC
8
DEFAULT_255_2_778
10
15.6808222
20
33.9807251
40
1.6182807
50
272.5590431
51
292.5243529
0
ARC
8
DEFAULT_255_2_778
10
15.6749944
20
33.9942652
40
1.6330205
50
292.5312423
51
300.5127798
0
LINE
8
DEFAULT_255_2_778
10
20.7793397
20
32.5876427
11
20.7793397
21
35.3877427
0
LINE
8
DEFAULT_255_2_778
10
20.7793397
20
35.3877427
11
15.5792397
21
35.3877427
0
LINE
8
DEFAULT_255_2_778
10
15.5792397
20
35.3877427
11
15.5792397
21
32.5876427
0
LINE
8
DEFAULT_255_2_778
10
15.5792397
20
32.5876427
11
20.7793397
21
32.5876427
0
ARC
8
DEFAULT_255_2_778
10
20.6791568
20
33.985562
40
1.6230306
50
239.445601
51
267.6519823
0
ARC
8
DEFAULT_255_2_778
10
20.6795695
20
33.9889113
40
1.6263942
50
267.6422904
51
270.0000494
0
ARC
8
DEFAULT_255_2_778
10
20.6796629
20
33.886769
40
1.5242517
50
269.996541
51
270.1210668
0
ARC
8
DEFAULT_255_2_778
10
20.67985
20
33.9860883
40
1.6235705
50
270.1070591
51
298.8024308
0
ARC
8
DEFAULT_255_2_778
10
20.6779181
20
33.9900217
40
1.627948
50
298.7953148
51
299.739718
0
ARC
8
DEFAULT_255_2_778
10
20.6797025
20
33.9869284
40
1.624377
50
299.7391926
51
0.0009316
0
ARC
8
DEFAULT_255_2_778
10
21.4231329
20
33.9871647
40
0.8809464
50
359.9863519
51
0.0409453
0
ARC
8
DEFAULT_255_2_778
10
21.4077122
20
33.9884293
40
0.8963671
50
359.9594028
51
0.0135321
0
ARC
8
DEFAULT_255_2_778
10
20.6797609
20
33.9886671
40
1.6243185
50
359.9990816
51
59.7488213
0
ARC
8
DEFAULT_255_2_778
10
20.679857
20
33.9899074
40
1.6231987
50
59.7296954
51
88.1397468
0
ARC
8
DEFAULT_255_2_778
10
20.6794995
20
33.9867043
40
1.6264118
50
88.1308231
51
89.9998156
0
ARC
8
DEFAULT_255_2_778
10
20.6795048
20
33.9477243
40
1.6653916
50
90.0000001
51
90.1123171
0
ARC
8
DEFAULT_255_2_778
10
20.6792449
20
33.9896125
40
1.6235029
50
90.1060438
51
118.5853086
0
ARC
8
DEFAULT_255_2_778
10
20.6831305
20
33.9821077
40
1.631952
50
118.579031
51
119.5137065
0
ARC
8
DEFAULT_255_2_778
10
21.7791934
20
33.9877699
40
0.1999449
50
269.9842058
51
0.0157942
0
ARC
8
DEFAULT_255_2_778
10
21.7793212
20
33.9880079
40
0.1998171
50
359.947541
51
90.052459
0
LINE
8
DEFAULT_255_2_778
10
20.7790382
20
33.787825
11
21.7791382
21
33.787825
0
LINE
8
DEFAULT_255_2_778
10
21.7791382
20
34.187825
11
20.7790382
21
34.187825
0
ARC
8
DEFAULT_255_2_778
10
14.5788471
20
33.987816
40
0.200009
50
90.0025382
51
179.9974272
0
ARC
8
DEFAULT_255_2_778
10
14.5786553
20
33.987642
40
0.1998171
50
179.947541
51
270.052459
0
LINE
8
DEFAULT_255_2_778
10
15.5789382
20
34.187825
11
14.5788382
21
34.187825
0
LINE
8
DEFAULT_255_2_778
10
14.5788382
20
33.787825
11
15.5789382
21
33.787825
0
ARC
8
DEFAULT_255_2_778
10
15.6792676
20
29.6178472
40
1.410141
50
37.0812903
51
90.0006706
0
ARC
8
DEFAULT_255_2_778
10
15.6791638
20
29.6179891
40
1.4099991
50
89.9964539
51
142.9215758
0
LINE
8
DEFAULT_255_2_778
10
14.2290511
20
28.8879882
11
17.1291511
21
28.8879882
0
LINE
8
DEFAULT_255_2_778
10
17.1291511
20
28.8879882
11
17.1291511
21
30.4680882
0
LINE
8
DEFAULT_255_2_778
10
17.1291511
20
30.4680882
11
16.8042511
21
30.4680882
0
LINE
8
DEFAULT_255_2_778
10
14.5542511
20
30.4680882
11
14.2293511
21
30.4680882
0
LINE
8
DEFAULT_255_2_778
10
14.2293511
20
30.4680882
11
14.2293511
21
28.8879882
0
ARC
8
DEFAULT_255_2_778
10
15.671882
20
26.4902043
40
1.6177224
50
151.8422222
51
180.0873324
0
ARC
8
DEFAULT_255_2_778
10
15.679764
20
26.4865605
40
1.6263911
50
98.5995563
51
151.8600801
0
ARC
8
DEFAULT_255_2_778
10
15.6785385
20
26.4747833
40
1.6378552
50
89.9817031
51
98.4955638
0
ARC
8
DEFAULT_255_2_778
10
15.6815217
20
26.4946175
40
1.6180229
50
62.1931218
51
90.087118
0
ARC
8
DEFAULT_255_2_778
10
15.6779521
20
26.4869953
40
1.6264303
50
8.6485674
51
62.2071531
0
ARC
8
DEFAULT_255_2_778
10
15.6662778
20
26.488263
40
1.6377839
50
359.981651
51
8.5433085
0
ARC
8
DEFAULT_255_2_778
10
15.6860735
20
26.485275
40
1.6179899
50
332.1926321
51
0.0872357
0
ARC
8
DEFAULT_255_2_778
10
15.6783932
20
26.4888999
40
1.6264743
50
278.6465625
51
332.205897
0
ARC
8
DEFAULT_255_2_778
10
15.6795871
20
26.5008451
40
1.6381067
50
269.981616
51
278.5424654
0
ARC
8
DEFAULT_255_2_778
10
15.6765933
20
26.4804269
40
1.6176903
50
241.8417123
51
270.0874202
0
ARC
8
DEFAULT_255_2_778
10
15.6802929
20
26.4883669
40
1.6264365
50
188.5975683
51
241.8588041
0
ARC
8
DEFAULT_255_2_778
10
15.6923404
20
26.4872144
40
1.6381789
50
179.9816683
51
188.4947209
0
LINE
8
DEFAULT_255_2_778
10
14.0541615
20
26.4877385
11
14.0541615
21
26.4877385
0
ARC
8
DEFAULT_255_2_778
10
20.6793676
20
29.617834
40
1.410141
50
37.0812903
51
90.0006706
0
ARC
8
DEFAULT_255_2_778
10
20.6792638
20
29.6179759
40
1.4099991
50
89.9964539
51
142.9215758
0
LINE
8
DEFAULT_255_2_778
10
22.1292511
20
28.888075
11
22.1292511
21
30.468075
0
LINE
8
DEFAULT_255_2_778
10
22.1292511
20
30.468075
11
21.8043511
21
30.468075
0
LINE
8
DEFAULT_255_2_778
10
19.5543511
20
30.468075
11
19.2291511
21
30.468075
0
LINE
8
DEFAULT_255_2_778
10
19.2291511
20
30.468075
11
19.2291511
21
28.888075
0
LINE
8
DEFAULT_255_2_778
10
19.2291511
20
28.888075
11
22.1292511
21
28.888075
0
ARC
8
DEFAULT_255_2_778
10
20.6793676
20
22.1176472
40
1.410141
50
37.0812903
51
90.0006706
0
ARC
8
DEFAULT_255_2_778
10
20.6792638
20
22.1177891
40
1.4099991
50
89.9964539
51
142.9215758
0
LINE
8
DEFAULT_255_2_778
10
19.2291511
20
21.3877882
11
22.1292511
21
21.3877882
0
LINE
8
DEFAULT_255_2_778
10
22.1292511
20
21.3877882
11
22.1292511
21
22.9678882
0
LINE
8
DEFAULT_255_2_778
10
22.1292511
20
22.9678882
11
21.8043511
21
22.9678882
0
LINE
8
DEFAULT_255_2_778
10
19.5543511
20
22.9678882
11
19.2291511
21
22.9678882
0
LINE
8
DEFAULT_255_2_778
10
19.2291511
20
22.9678882
11
19.2291511
21
21.3877882
0
ARC
8
DEFAULT_255_2_778
10
20.671982
20
26.4902043
40
1.6177224
50
151.8422222
51
180.0873324
0
ARC
8
DEFAULT_255_2_778
10
20.679864
20
26.4865605
40
1.6263911
50
98.5995563
51
151.8600801
0
ARC
8
DEFAULT_255_2_778
10
20.6786385
20
26.4747833
40
1.6378552
50
89.9817031
51
98.4955638
0
ARC
8
DEFAULT_255_2_778
10
20.6816217
20
26.4946175
40
1.6180229
50
62.1931218
51
90.087118
0
ARC
8
DEFAULT_255_2_778
10
20.6780521
20
26.4869953
40
1.6264303
50
8.6485674
51
62.2071531
0
ARC
8
DEFAULT_255_2_778
10
20.6663778
20
26.488263
40
1.6377839
50
359.981651
51
8.5433085
0
ARC
8
DEFAULT_255_2_778
10
20.6861735
20
26.485275
40
1.6179899
50
332.1926321
51
0.0872357
0
ARC
8
DEFAULT_255_2_778
10
20.6784932
20
26.4888999
40
1.6264743
50
278.6465625
51
332.205897
0
ARC
8
DEFAULT_255_2_778
10
20.6796871
20
26.5008451
40
1.6381067
50
269.981616
51
278.5424654
0
ARC
8
DEFAULT_255_2_778
10
20.6766933
20
26.4804269
40
1.6176903
50
241.8417123
51
270.0874202
0
ARC
8
DEFAULT_255_2_778
10
20.6803929
20
26.4883669
40
1.6264365
50
188.5975683
51
241.8588041
0
ARC
8
DEFAULT_255_2_778
10
20.6924404
20
26.4872144
40
1.6381789
50
179.9816683
51
188.4947209
0
LINE
8
DEFAULT_255_2_778
10
19.0542615
20
26.4877385
11
19.0542615
21
26.4877385
0
ARC
8
DEFAULT_255_2_778
10
15.671882
20
18.9903043
40
1.6177224
50
151.8422222
51
180.0873324
0
ARC
8
DEFAULT_255_2_778
10
15.679764
20
18.9866605
40
1.6263911
50
98.5995563
51
151.8600801
0
ARC
8
DEFAULT_255_2_778
10
15.6785385
20
18.9748833
40
1.6378552
50
89.9817031
51
98.4955638
0
ARC
8
DEFAULT_255_2_778
10
15.6815217
20
18.9947175
40
1.6180229
50
62.1931218
51
90.087118
0
ARC
8
DEFAULT_255_2_778
10
15.6779521
20
18.9870953
40
1.6264303
50
8.6485674
51
62.2071531
0
ARC
8
DEFAULT_255_2_778
10
15.6662778
20
18.988363
40
1.6377839
50
359.981651
51
8.5433085
0
ARC
8
DEFAULT_255_2_778
10
15.6860735
20
18.985375
40
1.6179899
50
332.1926321
51
0.0872357
0
ARC
8
DEFAULT_255_2_778
10
15.6783932
20
18.9889999
40
1.6264743
50
278.6465625
51
332.205897
0
ARC
8
DEFAULT_255_2_778
10
15.6795871
20
19.0009451
40
1.6381067
50
269.981616
51
278.5424654
0
ARC
8
DEFAULT_255_2_778
10
15.6765933
20
18.9805269
40
1.6176903
50
241.8417123
51
270.0874202
0
ARC
8
DEFAULT_255_2_778
10
15.6802929
20
18.9884669
40
1.6264365
50
188.5975683
51
241.8588041
0
ARC
8
DEFAULT_255_2_778
10
15.6923404
20
18.9873144
40
1.6381789
50
179.9816683
51
188.4947209
0
LINE
8
DEFAULT_255_2_778
10
14.0541615
20
18.9878385
11
14.0541615
21
18.9878385
0
ARC
8
DEFAULT_255_2_778
10
15.6792676
20
22.117434
40
1.410141
50
37.0812903
51
90.0006706
0
ARC
8
DEFAULT_255_2_778
10
15.6791638
20
22.1175759
40
1.4099991
50
89.9964539
51
142.9215758
0
LINE
8
DEFAULT_255_2_778
10
14.2290511
20
22.967675
11
14.2290511
21
21.387675
0
LINE
8
DEFAULT_255_2_778
10
14.2290511
20
21.387675
11
17.1291511
21
21.387675
0
LINE
8
DEFAULT_255_2_778
10
17.1291511
20
21.387675
11
17.1291511
21
22.967675
0
LINE
8
DEFAULT_255_2_778
10
17.1291511
20
22.967675
11
16.8042511
21
22.967675
0
LINE
8
DEFAULT_255_2_778
10
14.5542511
20
22.967675
11
14.2293511
21
22.967675
0
ARC
8
DEFAULT_255_2_778
10
20.671982
20
11.4902043
40
1.6177224
50
151.8422222
51
180.0873324
0
ARC
8
DEFAULT_255_2_778
10
20.679864
20
11.4865605
40
1.6263911
50
98.5995563
51
151.8600801
0
ARC
8
DEFAULT_255_2_778
10
20.6786385
20
11.4747833
40
1.6378552
50
89.9817031
51
98.4955638
0
ARC
8
DEFAULT_255_2_778
10
20.6816217
20
11.4946175
40
1.6180229
50
62.1931218
51
90.087118
0
ARC
8
DEFAULT_255_2_778
10
20.6780521
20
11.4869953
40
1.6264303
50
8.6485674
51
62.2071531
0
ARC
8
DEFAULT_255_2_778
10
20.6663778
20
11.488263
40
1.6377839
50
359.981651
51
8.5433085
0
ARC
8
DEFAULT_255_2_778
10
20.6861735
20
11.485275
40
1.6179899
50
332.1926321
51
0.0872357
0
ARC
8
DEFAULT_255_2_778
10
20.6784932
20
11.4888999
40
1.6264743
50
278.6465625
51
332.205897
0
ARC
8
DEFAULT_255_2_778
10
20.6796871
20
11.5008451
40
1.6381067
50
269.981616
51
278.5424654
0
ARC
8
DEFAULT_255_2_778
10
20.6766933
20
11.4804269
40
1.6176903
50
241.8417123
51
270.0874202
0
ARC
8
DEFAULT_255_2_778
10
20.6803929
20
11.4883669
40
1.6264365
50
188.5975683
51
241.8588041
0
ARC
8
DEFAULT_255_2_778
10
20.6924404
20
11.4872144
40
1.6381789
50
179.9816683
51
188.4947209
0
LINE
8
DEFAULT_255_2_778
10
19.0542615
20
11.4877385
11
19.0542615
21
11.4877385
0
ARC
8
DEFAULT_255_2_778
10
15.671882
20
11.4902043
40
1.6177224
50
151.8422222
51
180.0873324
0
ARC
8
DEFAULT_255_2_778
10
15.679764
20
11.4865605
40
1.6263911
50
98.5995563
51
151.8600801
0
ARC
8
DEFAULT_255_2_778
10
15.6785385
20
11.4747833
40
1.6378552
50
89.9817031
51
98.4955638
0
ARC
8
DEFAULT_255_2_778
10
15.6815217
20
11.4946175
40
1.6180229
50
62.1931218
51
90.087118
0
ARC
8
DEFAULT_255_2_778
10
15.6779521
20
11.4869953
40
1.6264303
50
8.6485674
51
62.2071531
0
ARC
8
DEFAULT_255_2_778
10
15.6662778
20
11.488263
40
1.6377839
50
359.981651
51
8.5433085
0
ARC
8
DEFAULT_255_2_778
10
15.6860735
20
11.485275
40
1.6179899
50
332.1926321
51
0.0872357
0
ARC
8
DEFAULT_255_2_778
10
15.6783932
20
11.4888999
40
1.6264743
50
278.6465625
51
332.205897
0
ARC
8
DEFAULT_255_2_778
10
15.6795871
20
11.5008451
40
1.6381067
50
269.981616
51
278.5424654
0
ARC
8
DEFAULT_255_2_778
10
15.6765933
20
11.4804269
40
1.6176903
50
241.8417123
51
270.0874202
0
ARC
8
DEFAULT_255_2_778
10
15.6802929
20
11.4883669
40
1.6264365
50
188.5975683
51
241.8588041
0
ARC
8
DEFAULT_255_2_778
10
15.6923404
20
11.4872144
40
1.6381789
50
179.9816683
51
188.4947209
0
LINE
8
DEFAULT_255_2_778
10
14.0541615
20
11.4877385
11
14.0541615
21
11.4877385
0
ARC
8
DEFAULT_255_2_778
10
15.6792676
20
14.6177472
40
1.410141
50
37.0812903
51
90.0006706
0
ARC
8
DEFAULT_255_2_778
10
15.6791638
20
14.6178891
40
1.4099991
50
89.9964539
51
142.9215758
0
LINE
8
DEFAULT_255_2_778
10
14.2290511
20
13.8878882
11
17.1291511
21
13.8878882
0
LINE
8
DEFAULT_255_2_778
10
17.1291511
20
13.8878882
11
17.1291511
21
15.4679882
0
LINE
8
DEFAULT_255_2_778
10
17.1291511
20
15.4679882
11
16.8042511
21
15.4679882
0
LINE
8
DEFAULT_255_2_778
10
14.5542511
20
15.4679882
11
14.2293511
21
15.4679882
0
LINE
8
DEFAULT_255_2_778
10
14.2293511
20
15.4679882
11
14.2293511
21
13.8878882
0
ARC
8
DEFAULT_255_2_778
10
20.671982
20
63.9904043
40
1.6177224
50
151.8422222
51
180.0873324
0
ARC
8
DEFAULT_255_2_778
10
20.679864
20
63.9867605
40
1.6263911
50
98.5995563
51
151.8600801
0
ARC
8
DEFAULT_255_2_778
10
20.6786385
20
63.9749833
40
1.6378552
50
89.9817031
51
98.4955638
0
ARC
8
DEFAULT_255_2_778
10
20.6816217
20
63.9948175
40
1.6180229
50
62.1931218
51
90.087118
0
ARC
8
DEFAULT_255_2_778
10
20.6780521
20
63.9871953
40
1.6264303
50
8.6485674
51
62.2071531
0
ARC
8
DEFAULT_255_2_778
10
20.6663778
20
63.988463
40
1.6377839
50
359.981651
51
8.5433085
0
ARC
8
DEFAULT_255_2_778
10
20.6861735
20
63.985475
40
1.6179899
50
332.1926321
51
0.0872357
0
ARC
8
DEFAULT_255_2_778
10
20.6784932
20
63.9890999
40
1.6264743
50
278.6465625
51
332.205897
0
ARC
8
DEFAULT_255_2_778
10
20.6796871
20
64.0010451
40
1.6381067
50
269.981616
51
278.5424654
0
ARC
8
DEFAULT_255_2_778
10
20.6766933
20
63.9806269
40
1.6176903
50
241.8417123
51
270.0874202
0
ARC
8
DEFAULT_255_2_778
10
20.6803929
20
63.9885669
40
1.6264365
50
188.5975683
51
241.8588041
0
ARC
8
DEFAULT_255_2_778
10
20.6924404
20
63.9874144
40
1.6381789
50
179.9816683
51
188.4947209
0
LINE
8
DEFAULT_255_2_778
10
19.0542615
20
63.9879385
11
19.0542615
21
63.9879385
0
ARC
8
DEFAULT_255_2_778
10
20.6793676
20
67.1177472
40
1.410141
50
37.0812903
51
90.0006706
0
ARC
8
DEFAULT_255_2_778
10
20.6792638
20
67.1178891
40
1.4099991
50
89.9964539
51
142.9215758
0
LINE
8
DEFAULT_255_2_778
10
19.2291511
20
66.3878882
11
22.1292511
21
66.3878882
0
LINE
8
DEFAULT_255_2_778
10
22.1292511
20
66.3878882
11
22.1292511
21
67.9679882
0
LINE
8
DEFAULT_255_2_778
10
22.1292511
20
67.9679882
11
21.8043511
21
67.9679882
0
LINE
8
DEFAULT_255_2_778
10
19.5543511
20
67.9679882
11
19.2291511
21
67.9679882
0
LINE
8
DEFAULT_255_2_778
10
19.2291511
20
67.9679882
11
19.2291511
21
66.3878882
0
ARC
8
DEFAULT_255_2_778
10
15.671882
20
63.9904043
40
1.6177224
50
151.8422222
51
180.0873324
0
ARC
8
DEFAULT_255_2_778
10
15.679764
20
63.9867605
40
1.6263911
50
98.5995563
51
151.8600801
0
ARC
8
DEFAULT_255_2_778
10
15.6785385
20
63.9749833
40
1.6378552
50
89.9817031
51
98.4955638
0
ARC
8
DEFAULT_255_2_778
10
15.6815217
20
63.9948175
40
1.6180229
50
62.1931218
51
90.087118
0
ARC
8
DEFAULT_255_2_778
10
15.6779521
20
63.9871953
40
1.6264303
50
8.6485674
51
62.2071531
0
ARC
8
DEFAULT_255_2_778
10
15.6662778
20
63.988463
40
1.6377839
50
359.981651
51
8.5433085
0
ARC
8
DEFAULT_255_2_778
10
15.6860735
20
63.985475
40
1.6179899
50
332.1926321
51
0.0872357
0
ARC
8
DEFAULT_255_2_778
10
15.6783932
20
63.9890999
40
1.6264743
50
278.6465625
51
332.205897
0
ARC
8
DEFAULT_255_2_778
10
15.6795871
20
64.0010451
40
1.6381067
50
269.981616
51
278.5424654
0
ARC
8
DEFAULT_255_2_778
10
15.6765933
20
63.9806269
40
1.6176903
50
241.8417123
51
270.0874202
0
ARC
8
DEFAULT_255_2_778
10
15.6802929
20
63.9885669
40
1.6264365
50
188.5975683
51
241.8588041
0
ARC
8
DEFAULT_255_2_778
10
15.6923404
20
63.9874144
40
1.6381789
50
179.9816683
51
188.4947209
0
LINE
8
DEFAULT_255_2_778
10
14.0541615
20
63.9879385
11
14.0541615
21
63.9879385
0
ARC
8
DEFAULT_255_2_778
10
15.6792676
20
59.6175472
40
1.410141
50
37.0812903
51
90.0006706
0
ARC
8
DEFAULT_255_2_778
10
15.6791638
20
59.6176891
40
1.4099991
50
89.9964539
51
142.9215758
0
LINE
8
DEFAULT_255_2_778
10
14.2290511
20
60.4677882
11
14.2290511
21
58.8876882
0
LINE
8
DEFAULT_255_2_778
10
14.2290511
20
58.8876882
11
17.1291511
21
58.8876882
0
LINE
8
DEFAULT_255_2_778
10
17.1291511
20
58.8876882
11
17.1291511
21
60.4677882
0
LINE
8
DEFAULT_255_2_778
10
17.1291511
20
60.4677882
11
16.8042511
21
60.4677882
0
LINE
8
DEFAULT_255_2_778
10
14.5542511
20
60.4677882
11
14.2293511
21
60.4677882
0
ARC
8
DEFAULT_255_2_778
10
15.6792676
20
67.1177472
40
1.410141
50
37.0812903
51
90.0006706
0
ARC
8
DEFAULT_255_2_778
10
15.6791638
20
67.1178891
40
1.4099991
50
89.9964539
51
142.9215758
0
LINE
8
DEFAULT_255_2_778
10
14.2290511
20
66.3878882
11
17.1291511
21
66.3878882
0
LINE
8
DEFAULT_255_2_778
10
17.1291511
20
66.3878882
11
17.1291511
21
67.9679882
0
LINE
8
DEFAULT_255_2_778
10
17.1291511
20
67.9679882
11
16.8042511
21
67.9679882
0
LINE
8
DEFAULT_255_2_778
10
14.5542511
20
67.9679882
11
14.2293511
21
67.9679882
0
LINE
8
DEFAULT_255_2_778
10
14.2293511
20
67.9679882
11
14.2293511
21
66.3878882
0
ARC
8
DEFAULT_255_2_778
10
20.6793676
20
14.6177472
40
1.410141
50
37.0812903
51
90.0006706
0
ARC
8
DEFAULT_255_2_778
10
20.6792638
20
14.6178891
40
1.4099991
50
89.9964539
51
142.9215758
0
LINE
8
DEFAULT_255_2_778
10
19.2291511
20
13.8878882
11
22.1292511
21
13.8878882
0
LINE
8
DEFAULT_255_2_778
10
22.1292511
20
13.8878882
11
22.1292511
21
15.4679882
0
LINE
8
DEFAULT_255_2_778
10
22.1292511
20
15.4679882
11
21.8043511
21
15.4679882
0
LINE
8
DEFAULT_255_2_778
10
19.5543511
20
15.4679882
11
19.2291511
21
15.4679882
0
LINE
8
DEFAULT_255_2_778
10
19.2291511
20
15.4679882
11
19.2291511
21
13.8878882
0
ARC
8
DEFAULT_255_2_778
10
20.671982
20
18.9903043
40
1.6177224
50
151.8422222
51
180.0873324
0
ARC
8
DEFAULT_255_2_778
10
20.679864
20
18.9866605
40
1.6263911
50
98.5995563
51
151.8600801
0
ARC
8
DEFAULT_255_2_778
10
20.6786385
20
18.9748833
40
1.6378552
50
89.9817031
51
98.4955638
0
ARC
8
DEFAULT_255_2_778
10
20.6816217
20
18.9947175
40
1.6180229
50
62.1931218
51
90.087118
0
ARC
8
DEFAULT_255_2_778
10
20.6780521
20
18.9870953
40
1.6264303
50
8.6485674
51
62.2071531
0
ARC
8
DEFAULT_255_2_778
10
20.6663778
20
18.988363
40
1.6377839
50
359.981651
51
8.5433085
0
ARC
8
DEFAULT_255_2_778
10
20.6861735
20
18.985375
40
1.6179899
50
332.1926321
51
0.0872357
0
ARC
8
DEFAULT_255_2_778
10
20.6784932
20
18.9889999
40
1.6264743
50
278.6465625
51
332.205897
0
ARC
8
DEFAULT_255_2_778
10
20.6796871
20
19.0009451
40
1.6381067
50
269.981616
51
278.5424654
0
ARC
8
DEFAULT_255_2_778
10
20.6766933
20
18.9805269
40
1.6176903
50
241.8417123
51
270.0874202
0
ARC
8
DEFAULT_255_2_778
10
20.6803929
20
18.9884669
40
1.6264365
50
188.5975683
51
241.8588041
0
ARC
8
DEFAULT_255_2_778
10
20.6924404
20
18.9873144
40
1.6381789
50
179.9816683
51
188.4947209
0
LINE
8
DEFAULT_255_2_778
10
19.0542615
20
18.9878385
11
19.0542615
21
18.9878385
0
ARC
8
DEFAULT_255_2_778
10
20.671982
20
56.4902043
40
1.6177224
50
151.8422222
51
180.0873324
0
ARC
8
DEFAULT_255_2_778
10
20.679864
20
56.4865605
40
1.6263911
50
98.5995563
51
151.8600801
0
ARC
8
DEFAULT_255_2_778
10
20.6786385
20
56.4747833
40
1.6378552
50
89.9817031
51
98.4955638
0
ARC
8
DEFAULT_255_2_778
10
20.6816217
20
56.4946175
40
1.6180229
50
62.1931218
51
90.087118
0
ARC
8
DEFAULT_255_2_778
10
20.6780521
20
56.4869953
40
1.6264303
50
8.6485674
51
62.2071531
0
ARC
8
DEFAULT_255_2_778
10
20.6663778
20
56.488263
40
1.6377839
50
359.981651
51
8.5433085
0
ARC
8
DEFAULT_255_2_778
10
20.6861735
20
56.485275
40
1.6179899
50
332.1926321
51
0.0872357
0
ARC
8
DEFAULT_255_2_778
10
20.6784932
20
56.4888999
40
1.6264743
50
278.6465625
51
332.205897
0
ARC
8
DEFAULT_255_2_778
10
20.6796871
20
56.5008451
40
1.6381067
50
269.981616
51
278.5424654
0
ARC
8
DEFAULT_255_2_778
10
20.6766933
20
56.4804269
40
1.6176903
50
241.8417123
51
270.0874202
0
ARC
8
DEFAULT_255_2_778
10
20.6803929
20
56.4883669
40
1.6264365
50
188.5975683
51
241.8588041
0
ARC
8
DEFAULT_255_2_778
10
20.6924404
20
56.4872144
40
1.6381789
50
179.9816683
51
188.4947209
0
LINE
8
DEFAULT_255_2_778
10
19.0542615
20
56.4877385
11
19.0542615
21
56.4877385
0
ARC
8
DEFAULT_255_2_778
10
20.6793676
20
52.1174472
40
1.410141
50
37.0812903
51
90.0006706
0
ARC
8
DEFAULT_255_2_778
10
20.6792638
20
52.1175891
40
1.4099991
50
89.9964539
51
142.9215758
0
LINE
8
DEFAULT_255_2_778
10
22.1292511
20
52.9676882
11
21.8043511
21
52.9676882
0
LINE
8
DEFAULT_255_2_778
10
19.5543511
20
52.9676882
11
19.2291511
21
52.9676882
0
LINE
8
DEFAULT_255_2_778
10
19.2291511
20
52.9676882
11
19.2291511
21
51.3875882
0
LINE
8
DEFAULT_255_2_778
10
19.2291511
20
51.3875882
11
22.1292511
21
51.3875882
0
LINE
8
DEFAULT_255_2_778
10
22.1292511
20
51.3875882
11
22.1292511
21
52.9676882
0
ARC
8
DEFAULT_255_2_778
10
20.6793676
20
59.6175472
40
1.410141
50
37.0812903
51
90.0006706
0
ARC
8
DEFAULT_255_2_778
10
20.6792638
20
59.6176891
40
1.4099991
50
89.9964539
51
142.9215758
0
LINE
8
DEFAULT_255_2_778
10
19.2291511
20
60.4677882
11
19.2291511
21
58.8876882
0
LINE
8
DEFAULT_255_2_778
10
19.2291511
20
58.8876882
11
22.1292511
21
58.8876882
0
LINE
8
DEFAULT_255_2_778
10
22.1292511
20
58.8876882
11
22.1292511
21
60.4677882
0
LINE
8
DEFAULT_255_2_778
10
22.1292511
20
60.4677882
11
21.8043511
21
60.4677882
0
LINE
8
DEFAULT_255_2_778
10
19.5543511
20
60.4677882
11
19.2291511
21
60.4677882
0
ARC
8
DEFAULT_255_2_778
10
15.671882
20
56.4902043
40
1.6177224
50
151.8422222
51
180.0873324
0
ARC
8
DEFAULT_255_2_778
10
15.679764
20
56.4865605
40
1.6263911
50
98.5995563
51
151.8600801
0
ARC
8
DEFAULT_255_2_778
10
15.6785385
20
56.4747833
40
1.6378552
50
89.9817031
51
98.4955638
0
ARC
8
DEFAULT_255_2_778
10
15.6815217
20
56.4946175
40
1.6180229
50
62.1931218
51
90.087118
0
ARC
8
DEFAULT_255_2_778
10
15.6779521
20
56.4869953
40
1.6264303
50
8.6485674
51
62.2071531
0
ARC
8
DEFAULT_255_2_778
10
15.6662778
20
56.488263
40
1.6377839
50
359.981651
51
8.5433085
0
ARC
8
DEFAULT_255_2_778
10
15.6860735
20
56.485275
40
1.6179899
50
332.1926321
51
0.0872357
0
ARC
8
DEFAULT_255_2_778
10
15.6783932
20
56.4888999
40
1.6264743
50
278.6465625
51
332.205897
0
ARC
8
DEFAULT_255_2_778
10
15.6795871
20
56.5008451
40
1.6381067
50
269.981616
51
278.5424654
0
ARC
8
DEFAULT_255_2_778
10
15.6765933
20
56.4804269
40
1.6176903
50
241.8417123
51
270.0874202
0
ARC
8
DEFAULT_255_2_778
10
15.6802929
20
56.4883669
40
1.6264365
50
188.5975683
51
241.8588041
0
ARC
8
DEFAULT_255_2_778
10
15.6923404
20
56.4872144
40
1.6381789
50
179.9816683
51
188.4947209
0
LINE
8
DEFAULT_255_2_778
10
14.0541615
20
56.4877385
11
14.0541615
21
56.4877385
0
ARC
8
DEFAULT_255_2_778
10
15.6792676
20
52.1177472
40
1.410141
50
37.0812903
51
90.0006706
0
ARC
8
DEFAULT_255_2_778
10
15.6791638
20
52.1178891
40
1.4099991
50
89.9964539
51
142.9215758
0
LINE
8
DEFAULT_255_2_778
10
14.2290511
20
51.3878882
11
17.1291511
21
51.3878882
0
LINE
8
DEFAULT_255_2_778
10
17.1291511
20
51.3878882
11
17.1291511
21
52.9679882
0
LINE
8
DEFAULT_255_2_778
10
17.1291511
20
52.9679882
11
16.8042511
21
52.9679882
0
LINE
8
DEFAULT_255_2_778
10
14.5542511
20
52.9679882
11
14.2293511
21
52.9679882
0
LINE
8
DEFAULT_255_2_778
10
14.2293511
20
52.9679882
11
14.2293511
21
51.3878882
0
ARC
8
DEFAULT_255_2_778
10
20.671982
20
48.9903043
40
1.6177224
50
151.8422222
51
180.0873324
0
ARC
8
DEFAULT_255_2_778
10
20.679864
20
48.9866605
40
1.6263911
50
98.5995563
51
151.8600801
0
ARC
8
DEFAULT_255_2_778
10
20.6786385
20
48.9748833
40
1.6378552
50
89.9817031
51
98.4955638
0
ARC
8
DEFAULT_255_2_778
10
20.6816217
20
48.9947175
40
1.6180229
50
62.1931218
51
90.087118
0
ARC
8
DEFAULT_255_2_778
10
20.6780521
20
48.9870953
40
1.6264303
50
8.6485674
51
62.2071531
0
ARC
8
DEFAULT_255_2_778
10
20.6663778
20
48.988363
40
1.6377839
50
359.981651
51
8.5433085
0
ARC
8
DEFAULT_255_2_778
10
20.6861735
20
48.985375
40
1.6179899
50
332.1926321
51
0.0872357
0
ARC
8
DEFAULT_255_2_778
10
20.6784932
20
48.9889999
40
1.6264743
50
278.6465625
51
332.205897
0
ARC
8
DEFAULT_255_2_778
10
20.6796871
20
49.0009451
40
1.6381067
50
269.981616
51
278.5424654
0
ARC
8
DEFAULT_255_2_778
10
20.6766933
20
48.9805269
40
1.6176903
50
241.8417123
51
270.0874202
0
ARC
8
DEFAULT_255_2_778
10
20.6803929
20
48.9884669
40
1.6264365
50
188.5975683
51
241.8588041
0
ARC
8
DEFAULT_255_2_778
10
20.6924404
20
48.9873144
40
1.6381789
50
179.9816683
51
188.4947209
0
LINE
8
DEFAULT_255_2_778
10
19.0542615
20
48.9878385
11
19.0542615
21
48.9878385
0
ARC
8
DEFAULT_255_2_778
10
20.6793676
20
44.6175472
40
1.410141
50
37.0812903
51
90.0006706
0
ARC
8
DEFAULT_255_2_778
10
20.6792638
20
44.6176891
40
1.4099991
50
89.9964539
51
142.9215758
0
LINE
8
DEFAULT_255_2_778
10
19.2291511
20
45.4677882
11
19.2291511
21
43.8876882
0
LINE
8
DEFAULT_255_2_778
10
19.2291511
20
43.8876882
11
22.1292511
21
43.8876882
0
LINE
8
DEFAULT_255_2_778
10
22.1292511
20
43.8876882
11
22.1292511
21
45.4677882
0
LINE
8
DEFAULT_255_2_778
10
22.1292511
20
45.4677882
11
21.8043511
21
45.4677882
0
LINE
8
DEFAULT_255_2_778
10
19.5543511
20
45.4677882
11
19.2291511
21
45.4677882
0
ARC
8
DEFAULT_255_2_778
10
15.671882
20
48.9903043
40
1.6177224
50
151.8422222
51
180.0873324
0
ARC
8
DEFAULT_255_2_778
10
15.679764
20
48.9866605
40
1.6263911
50
98.5995563
51
151.8600801
0
ARC
8
DEFAULT_255_2_778
10
15.6785385
20
48.9748833
40
1.6378552
50
89.9817031
51
98.4955638
0
ARC
8
DEFAULT_255_2_778
10
15.6815217
20
48.9947175
40
1.6180229
50
62.1931218
51
90.087118
0
ARC
8
DEFAULT_255_2_778
10
15.6779521
20
48.9870953
40
1.6264303
50
8.6485674
51
62.2071531
0
ARC
8
DEFAULT_255_2_778
10
15.6662778
20
48.988363
40
1.6377839
50
359.981651
51
8.5433085
0
ARC
8
DEFAULT_255_2_778
10
15.6860735
20
48.985375
40
1.6179899
50
332.1926321
51
0.0872357
0
ARC
8
DEFAULT_255_2_778
10
15.6783932
20
48.9889999
40
1.6264743
50
278.6465625
51
332.205897
0
ARC
8
DEFAULT_255_2_778
10
15.6795871
20
49.0009451
40
1.6381067
50
269.981616
51
278.5424654
0
ARC
8
DEFAULT_255_2_778
10
15.6765933
20
48.9805269
40
1.6176903
50
241.8417123
51
270.0874202
0
ARC
8
DEFAULT_255_2_778
10
15.6802929
20
48.9884669
40
1.6264365
50
188.5975683
51
241.8588041
0
ARC
8
DEFAULT_255_2_778
10
15.6923404
20
48.9873144
40
1.6381789
50
179.9816683
51
188.4947209
0
LINE
8
DEFAULT_255_2_778
10
14.0541615
20
48.9878385
11
14.0541615
21
48.9878385
0
ARC
8
DEFAULT_255_2_778
10
15.6792676
20
44.6178472
40
1.410141
50
37.0812903
51
90.0006706
0
ARC
8
DEFAULT_255_2_778
10
15.6791638
20
44.6179891
40
1.4099991
50
89.9964539
51
142.9215758
0
LINE
8
DEFAULT_255_2_778
10
14.2290511
20
43.8879882
11
17.1291511
21
43.8879882
0
LINE
8
DEFAULT_255_2_778
10
17.1291511
20
43.8879882
11
17.1291511
21
45.4680882
0
LINE
8
DEFAULT_255_2_778
10
17.1291511
20
45.4680882
11
16.8042511
21
45.4680882
0
LINE
8
DEFAULT_255_2_778
10
14.5542511
20
45.4680882
11
14.2293511
21
45.4680882
0
LINE
8
DEFAULT_255_2_778
10
14.2293511
20
45.4680882
11
14.2293511
21
43.8879882
0
ARC
8
DEFAULT_255_2_778
10
20.671982
20
41.4902043
40
1.6177224
50
151.8422222
51
180.0873324
0
ARC
8
DEFAULT_255_2_778
10
20.679864
20
41.4865605
40
1.6263911
50
98.5995563
51
151.8600801
0
ARC
8
DEFAULT_255_2_778
10
20.6786385
20
41.4747833
40
1.6378552
50
89.9817031
51
98.4955638
0
ARC
8
DEFAULT_255_2_778
10
20.6816217
20
41.4946175
40
1.6180229
50
62.1931218
51
90.087118
0
ARC
8
DEFAULT_255_2_778
10
20.6780521
20
41.4869953
40
1.6264303
50
8.6485674
51
62.2071531
0
ARC
8
DEFAULT_255_2_778
10
20.6663778
20
41.488263
40
1.6377839
50
359.981651
51
8.5433085
0
ARC
8
DEFAULT_255_2_778
10
20.6861735
20
41.485275
40
1.6179899
50
332.1926321
51
0.0872357
0
ARC
8
DEFAULT_255_2_778
10
20.6784932
20
41.4888999
40
1.6264743
50
278.6465625
51
332.205897
0
ARC
8
DEFAULT_255_2_778
10
20.6796871
20
41.5008451
40
1.6381067
50
269.981616
51
278.5424654
0
ARC
8
DEFAULT_255_2_778
10
20.6766933
20
41.4804269
40
1.6176903
50
241.8417123
51
270.0874202
0
ARC
8
DEFAULT_255_2_778
10
20.6803929
20
41.4883669
40
1.6264365
50
188.5975683
51
241.8588041
0
ARC
8
DEFAULT_255_2_778
10
20.6924404
20
41.4872144
40
1.6381789
50
179.9816683
51
188.4947209
0
LINE
8
DEFAULT_255_2_778
10
19.0542615
20
41.4877385
11
19.0542615
21
41.4877385
0
ARC
8
DEFAULT_255_2_778
10
20.6793676
20
37.1176472
40
1.410141
50
37.0812903
51
90.0006706
0
ARC
8
DEFAULT_255_2_778
10
20.6792638
20
37.1177891
40
1.4099991
50
89.9964539
51
142.9215758
0
LINE
8
DEFAULT_255_2_778
10
19.2291511
20
36.3877882
11
22.1292511
21
36.3877882
0
LINE
8
DEFAULT_255_2_778
10
22.1292511
20
36.3877882
11
22.1292511
21
37.9678882
0
LINE
8
DEFAULT_255_2_778
10
22.1292511
20
37.9678882
11
21.8043511
21
37.9678882
0
LINE
8
DEFAULT_255_2_778
10
19.5543511
20
37.9678882
11
19.2291511
21
37.9678882
0
LINE
8
DEFAULT_255_2_778
10
19.2291511
20
37.9678882
11
19.2291511
21
36.3877882
0
ARC
8
DEFAULT_255_2_778
10
15.671882
20
41.4902043
40
1.6177224
50
151.8422222
51
180.0873324
0
ARC
8
DEFAULT_255_2_778
10
15.679764
20
41.4865605
40
1.6263911
50
98.5995563
51
151.8600801
0
ARC
8
DEFAULT_255_2_778
10
15.6785385
20
41.4747833
40
1.6378552
50
89.9817031
51
98.4955638
0
ARC
8
DEFAULT_255_2_778
10
15.6815217
20
41.4946175
40
1.6180229
50
62.1931218
51
90.087118
0
ARC
8
DEFAULT_255_2_778
10
15.6779521
20
41.4869953
40
1.6264303
50
8.6485674
51
62.2071531
0
ARC
8
DEFAULT_255_2_778
10
15.6662778
20
41.488263
40
1.6377839
50
359.981651
51
8.5433085
0
ARC
8
DEFAULT_255_2_778
10
15.6860735
20
41.485275
40
1.6179899
50
332.1926321
51
0.0872357
0
ARC
8
DEFAULT_255_2_778
10
15.6783932
20
41.4888999
40
1.6264743
50
278.6465625
51
332.205897
0
ARC
8
DEFAULT_255_2_778
10
15.6795871
20
41.5008451
40
1.6381067
50
269.981616
51
278.5424654
0
ARC
8
DEFAULT_255_2_778
10
15.6765933
20
41.4804269
40
1.6176903
50
241.8417123
51
270.0874202
0
ARC
8
DEFAULT_255_2_778
10
15.6802929
20
41.4883669
40
1.6264365
50
188.5975683
51
241.8588041
0
ARC
8
DEFAULT_255_2_778
10
15.6923404
20
41.4872144
40
1.6381789
50
179.9816683
51
188.4947209
0
LINE
8
DEFAULT_255_2_778
10
14.0541615
20
41.4877385
11
14.0541615
21
41.4877385
0
ARC
8
DEFAULT_255_2_778
10
15.6792676
20
37.1176472
40
1.410141
50
37.0812903
51
90.0006706
0
ARC
8
DEFAULT_255_2_778
10
15.6791638
20
37.1177891
40
1.4099991
50
89.9964539
51
142.9215758
0
LINE
8
DEFAULT_255_2_778
10
14.2290511
20
36.3877882
11
17.1291511
21
36.3877882
0
LINE
8
DEFAULT_255_2_778
10
17.1291511
20
36.3877882
11
17.1291511
21
37.9678882
0
LINE
8
DEFAULT_255_2_778
10
17.1291511
20
37.9678882
11
16.8042511
21
37.9678882
0
LINE
8
DEFAULT_255_2_778
10
14.5542511
20
37.9678882
11
14.2293511
21
37.9678882
0
LINE
8
DEFAULT_255_2_778
10
14.2293511
20
37.9678882
11
14.2293511
21
36.3877882
0
ENDSEC
0
EOF