0
SECTION
2
HEADER
9
$MEASUREMENT
70
1
0
ENDSEC
0
SECTION
2
TABLES
0
TABLE
2
LTYPE
0
LTYPE
72
65
70
64
2
CONTINUOUS
3
______
73
0
40
0
0
ENDTAB
0
TABLE
2
LAYER
0
LAYER
2
DEFAULT_255_2_778
70
0
62
255
6
CONTINUOUS
0
ENDTAB
0
ENDSEC
0
SECTION
2
ENTITIES
0
LINE
8
DEFAULT_255_2_778
10
8.6791555
20
91.5188352
11
9.8790555
21
91.5188352
0
LINE
8
DEFAULT_255_2_778
10
9.8790555
20
91.5188352
11
9.8790555
21
92.9187352
0
LINE
8
DEFAULT_255_2_778
10
9.8790555
20
92.9187352
11
8.6791555
21
92.9187352
0
LINE
8
DEFAULT_255_2_778
10
8.6791555
20
92.9187352
11
8.6791555
21
91.5188352
0
LINE
8
DEFAULT_255_2_778
10
0.1791555
20
5.7478352
11
24.1792555
21
5.7478352
0
LINE
8
DEFAULT_255_2_778
10
8.4791555
20
1.3186352
11
16.2790555
21
1.3186352
0
LINE
8
DEFAULT_255_2_778
10
4.2791555
20
1.3189352
11
2.4791555
21
1.3189352
0
LINE
8
DEFAULT_255_2_778
10
2.4791555
20
1.3189352
11
2.4791555
21
4.1478352
0
LINE
8
DEFAULT_255_2_778
10
10.6791389
20
4.147849
11
10.6791389
21
1.318949
0
LINE
8
DEFAULT_255_2_778
10
1.1292389
20
4.147849
11
1.1292389
21
2.468749
0
LINE
8
DEFAULT_255_2_778
10
1.1292389
20
2.468749
11
0.9792389
21
2.468749
0
LINE
8
DEFAULT_255_2_778
10
12.1790389
20
2.277749
11
12.1790389
21
74.127749
0
LINE
8
DEFAULT_255_2_778
10
12.1790389
20
74.127749
11
12.1790389
21
2.277749
0
LINE
8
DEFAULT_255_2_778
10
12.1790389
20
2.277749
11
12.9791389
21
2.277749
0
LINE
8
DEFAULT_255_2_778
10
12.9791389
20
2.277749
11
12.9791389
21
5.747749
0
LINE
8
DEFAULT_255_2_778
10
20.4790389
20
1.318649
11
26.2789389
21
1.318649
0
LINE
8
DEFAULT_255_2_778
10
26.2789389
20
1.318649
11
26.2789389
21
3.768649
0
LINE
8
DEFAULT_255_2_778
10
26.2789389
20
3.768649
11
25.2788389
21
3.768649
0
LINE
8
DEFAULT_255_2_778
10
25.2788389
20
3.768649
11
25.2788389
21
2.268749
0
LINE
8
DEFAULT_255_2_778
10
25.2788389
20
2.268749
11
24.1789389
21
2.268749
0
LINE
8
DEFAULT_255_2_778
10
22.6790566
20
1.31896
11
22.6790566
21
4.14786
0
LINE
8
DEFAULT_255_2_778
10
0.9792566
20
5.74776
11
0.9792566
21
2.27776
0
LINE
8
DEFAULT_255_2_778
10
0.9792566
20
2.27776
11
0.1791566
21
2.27776
0
LINE
8
DEFAULT_255_2_778
10
0.1791566
20
2.27776
11
0.1791566
21
99.16876
0
LINE
8
DEFAULT_255_2_778
10
0.1791566
20
99.16876
11
1.1292566
21
99.16876
0
LINE
8
DEFAULT_255_2_778
10
1.1292566
20
99.16876
11
1.1292566
21
97.61876
0
LINE
8
DEFAULT_255_2_778
10
1.1292566
20
97.61876
11
2.4791566
21
97.61876
0
LINE
8
DEFAULT_255_2_778
10
2.4791566
20
97.61876
11
2.4791566
21
101.31876
0
LINE
8
DEFAULT_255_2_778
10
2.4791566
20
101.31876
11
26.2792566
21
101.31876
0
LINE
8
DEFAULT_255_2_778
10
26.2792566
20
101.31876
11
26.2792566
21
97.86886
0
LINE
8
DEFAULT_255_2_778
10
26.2792566
20
97.86886
11
25.2791566
21
97.86886
0
LINE
8
DEFAULT_255_2_778
10
25.2791566
20
97.86886
11
25.2791566
21
99.36876
0
LINE
8
DEFAULT_255_2_778
10
25.2791566
20
99.36876
11
24.1792566
21
99.36876
0
LINE
8
DEFAULT_255_2_778
10
24.1792566
20
99.36876
11
24.1792566
21
1.76896
0
LINE
8
DEFAULT_255_2_778
10
24.1792566
20
1.76896
11
26.2792566
21
1.76896
0
LINE
8
DEFAULT_255_2_778
10
0.1791566
20
96.81866
11
24.1792566
21
96.81866
0
LINE
8
DEFAULT_255_2_778
10
2.2791566
20
72.52786
11
2.2791566
21
73.62776
0
LINE
8
DEFAULT_255_2_778
10
1.9791566
20
75.51866
11
1.6790566
21
75.51866
0
LINE
8
DEFAULT_255_2_778
10
22.0792566
20
72.52786
11
22.0792566
21
73.62776
0
LINE
8
DEFAULT_255_2_778
10
12.9291566
20
101.31876
11
12.9291566
21
102.81866
0
LINE
8
DEFAULT_255_2_778
10
12.9291566
20
102.81866
11
11.8292566
21
102.81866
0
LINE
8
DEFAULT_255_2_778
10
11.8292566
20
102.81866
11
11.8292566
21
101.31876
0
LINE
8
DEFAULT_255_2_778
10
24.928991
20
101.3187538
11
24.928991
21
102.8186538
0
LINE
8
DEFAULT_255_2_778
10
24.928991
20
102.8186538
11
23.829091
21
102.8186538
0
LINE
8
DEFAULT_255_2_778
10
23.829091
20
102.8186538
11
23.829091
21
101.3187538
0
LINE
8
DEFAULT_255_2_778
10
0.979191
20
4.1478538
11
4.279091
21
4.1478538
0
LINE
8
DEFAULT_255_2_778
10
7.828991
20
1.1427538
11
7.828991
21
-0.1812462
0
LINE
8
DEFAULT_255_2_778
10
7.828991
20
-0.1812462
11
6.729091
21
-0.1812462
0
LINE
8
DEFAULT_255_2_778
10
6.729091
20
-0.1812462
11
6.729091
21
1.1427538
0
LINE
8
DEFAULT_255_2_778
10
8.479091
20
5.7477538
11
8.479091
21
1.1427538
0
LINE
8
DEFAULT_255_2_778
10
8.479091
20
1.1427538
11
4.279091
21
1.1427538
0
LINE
8
DEFAULT_255_2_778
10
4.279091
20
1.1427538
11
4.279091
21
5.7477538
0
LINE
8
DEFAULT_255_2_778
10
8.479091
20
4.1478538
11
12.178991
21
4.1478538
0
LINE
8
DEFAULT_255_2_778
10
4.2791326
20
3.2278562
11
8.4791326
21
3.2278562
0
LINE
8
DEFAULT_255_2_778
10
4.2791326
20
1.8978562
11
8.4791326
21
1.8978562
0
LINE
8
DEFAULT_255_2_778
10
11.8292326
20
1.3186562
11
11.8292326
21
-0.1812438
0
LINE
8
DEFAULT_255_2_778
10
11.8292326
20
-0.1812438
11
12.9291326
21
-0.1812438
0
LINE
8
DEFAULT_255_2_778
10
12.9291326
20
-0.1812438
11
12.9291326
21
1.3186562
0
LINE
8
DEFAULT_255_2_778
10
10.6791326
20
3.3186562
11
8.4791326
21
3.3186562
0
LINE
8
DEFAULT_255_2_778
10
10.4791326
20
3.3189562
11
10.4791326
21
4.1478562
0
LINE
8
DEFAULT_255_2_778
10
8.4791326
20
2.3187562
11
10.6791326
21
2.3187562
0
LINE
8
DEFAULT_255_2_778
10
23.8292326
20
1.3186562
11
23.8292326
21
-0.1812438
0
LINE
8
DEFAULT_255_2_778
10
23.8292326
20
-0.1812438
11
24.9290326
21
-0.1812438
0
LINE
8
DEFAULT_255_2_778
10
24.9290326
20
-0.1812438
11
24.9290326
21
1.3186562
0
LINE
8
DEFAULT_255_2_778
10
22.6790326
20
3.3186562
11
20.4790326
21
3.3186562
0
LINE
8
DEFAULT_255_2_778
10
22.4790553
20
3.3189562
11
22.4790553
21
4.1478562
0
LINE
8
DEFAULT_255_2_778
10
20.4790553
20
2.3187562
11
22.6790553
21
2.3187562
0
LINE
8
DEFAULT_255_2_778
10
16.2790553
20
3.2278562
11
20.4790553
21
3.2278562
0
LINE
8
DEFAULT_255_2_778
10
16.2790553
20
1.8978562
11
20.4790553
21
1.8978562
0
LINE
8
DEFAULT_255_2_778
10
12.9791553
20
4.1478562
11
16.2790553
21
4.1478562
0
LINE
8
DEFAULT_255_2_778
10
19.8289553
20
1.1427562
11
19.8289553
21
-0.1812438
0
LINE
8
DEFAULT_255_2_778
10
19.8289553
20
-0.1812438
11
18.7290553
21
-0.1812438
0
LINE
8
DEFAULT_255_2_778
10
18.7290553
20
-0.1812438
11
18.7290553
21
1.1427562
0
LINE
8
DEFAULT_255_2_778
10
20.4789878
20
5.7477145
11
20.4789878
21
1.1427145
0
LINE
8
DEFAULT_255_2_778
10
20.4789878
20
1.1427145
11
16.2789878
21
1.1427145
0
LINE
8
DEFAULT_255_2_778
10
16.2789878
20
1.1427145
11
16.2789878
21
5.7477145
0
LINE
8
DEFAULT_255_2_778
10
20.4789878
20
4.1478145
11
24.1788878
21
4.1478145
0
LINE
8
DEFAULT_255_2_778
10
1.9790878
20
77.5186145
11
1.6789878
21
77.5186145
0
LINE
8
DEFAULT_255_2_778
10
1.6789878
20
77.5186145
11
1.6789878
21
74.3187145
0
LINE
8
DEFAULT_255_2_778
10
1.6789878
20
74.3187145
11
0.1790878
21
74.3187145
0
LINE
8
DEFAULT_255_2_778
10
1.9790878
20
74.1277145
11
0.1790878
21
74.1277145
0
LINE
8
DEFAULT_255_2_778
10
1.9790878
20
79.1929145
11
3.1788878
21
79.1929145
0
LINE
8
DEFAULT_255_2_778
10
11.8789878
20
76.1126145
11
2.9791878
21
76.1126145
0
LINE
8
DEFAULT_255_2_778
10
2.9791878
20
76.1126145
11
2.9791878
21
76.9786145
0
LINE
8
DEFAULT_255_2_778
10
2.9791878
20
76.9786145
11
1.9790878
21
76.9786145
0
LINE
8
DEFAULT_255_2_778
10
2.0790878
20
73.6277145
11
2.0790878
21
72.5278145
0
LINE
8
DEFAULT_255_2_778
10
2.0790878
20
72.5278145
11
10.2789878
21
72.5278145
0
LINE
8
DEFAULT_255_2_778
10
10.2789878
20
72.5278145
11
10.2789878
21
73.6277145
0
LINE
8
DEFAULT_255_2_778
10
11.8789878
20
75.1278145
11
1.9790878
21
75.1278145
0
LINE
8
DEFAULT_255_2_778
10
3.1792106
20
80.4428854
11
3.1792106
21
76.1126854
0
LINE
8
DEFAULT_255_2_778
10
1.9791106
20
80.4428854
11
10.8792106
21
80.4428854
0
LINE
8
DEFAULT_255_2_778
10
10.8792106
20
80.4428854
11
10.8792106
21
78.3267854
0
LINE
8
DEFAULT_255_2_778
10
10.8792106
20
78.3267854
11
11.8793106
21
78.3267854
0
LINE
8
DEFAULT_255_2_778
10
11.8789428
20
73.6279582
11
11.8789428
21
81.4278582
0
LINE
8
DEFAULT_255_2_778
10
11.8789428
20
81.4278582
11
1.9790428
21
81.4278582
0
LINE
8
DEFAULT_255_2_778
10
1.9790428
20
81.4278582
11
1.9790428
21
73.6279582
0
LINE
8
DEFAULT_255_2_778
10
1.9790428
20
73.6279582
11
11.8789428
21
73.6279582
0
LINE
8
DEFAULT_255_2_778
10
10.6790751
20
79.1929913
11
10.8790751
21
79.1929913
0
LINE
8
DEFAULT_255_2_778
10
10.6790751
20
76.1126913
11
10.6790751
21
80.4428913
0
LINE
8
DEFAULT_255_2_778
10
10.8790751
20
79.5768913
11
11.8791751
21
79.5768913
0
LINE
8
DEFAULT_255_2_778
10
6.7290751
20
101.3187913
11
6.7290751
21
102.8186913
0
LINE
8
DEFAULT_255_2_778
10
6.7290751
20
102.8186913
11
7.8289751
21
102.8186913
0
LINE
8
DEFAULT_255_2_778
10
7.8289751
20
102.8186913
11
7.8289751
21
101.3187913
0
LINE
8
DEFAULT_255_2_778
10
3.5289751
20
100.8366913
11
3.5289751
21
97.3010913
0
LINE
8
DEFAULT_255_2_778
10
3.5289751
20
97.3010913
11
3.5289751
21
100.8366913
0
LINE
8
DEFAULT_255_2_778
10
3.5289751
20
100.8366913
11
11.0288751
21
100.8366913
0
LINE
8
DEFAULT_255_2_778
10
11.0288689
20
97.3010662
11
11.0288689
21
100.8366662
0
LINE
8
DEFAULT_255_2_778
10
11.0288689
20
100.8366662
11
11.0288689
21
97.3010662
0
LINE
8
DEFAULT_255_2_778
10
11.0288689
20
97.3010662
11
3.5289689
21
97.3010662
0
LINE
8
DEFAULT_255_2_778
10
3.5289689
20
97.3010662
11
11.0288689
21
97.3010662
0
LINE
8
DEFAULT_255_2_778
10
10.6790689
20
101.3187662
11
10.6790689
21
104.3188662
0
LINE
8
DEFAULT_255_2_778
10
10.6790689
20
104.3188662
11
9.1791689
21
105.8187662
0
LINE
8
DEFAULT_255_2_778
10
9.1791689
20
105.8187662
11
4.1790689
21
105.8187662
0
LINE
8
DEFAULT_255_2_778
10
4.1790689
20
105.8187662
11
2.6791689
21
104.3188662
0
LINE
8
DEFAULT_255_2_778
10
2.6791689
20
104.3188662
11
2.6791689
21
101.3187662
0
LINE
8
DEFAULT_255_2_778
10
14.2790689
20
72.5278662
11
14.2790689
21
73.6276662
0
LINE
8
DEFAULT_255_2_778
10
10.0790689
20
72.5278662
11
10.0790689
21
73.6276662
0
LINE
8
DEFAULT_255_2_778
10
13.9789689
20
75.5186662
11
11.8789689
21
75.5186662
0
LINE
8
DEFAULT_255_2_778
10
11.8789793
20
77.5186051
11
13.9789793
21
77.5186051
0
LINE
8
DEFAULT_255_2_778
10
13.9789793
20
74.1277051
11
11.8789793
21
74.1277051
0
LINE
8
DEFAULT_255_2_778
10
13.9792793
20
79.1929051
11
15.1790793
21
79.1929051
0
LINE
8
DEFAULT_255_2_778
10
23.8791793
20
76.1126051
11
14.9793793
21
76.1126051
0
LINE
8
DEFAULT_255_2_778
10
14.9793793
20
76.1126051
11
14.9793793
21
76.9786051
0
LINE
8
DEFAULT_255_2_778
10
14.9793793
20
76.9786051
11
13.9792793
21
76.9786051
0
LINE
8
DEFAULT_255_2_778
10
22.0789793
20
72.9511051
11
14.2789793
21
72.9511051
0
LINE
8
DEFAULT_255_2_778
10
14.0789793
20
73.6277051
11
14.0789793
21
72.5278051
0
LINE
8
DEFAULT_255_2_778
10
14.0789793
20
72.5278051
11
22.2789793
21
72.5278051
0
LINE
8
DEFAULT_255_2_778
10
22.2789793
20
72.5278051
11
22.2789793
21
73.6277051
0
LINE
8
DEFAULT_255_2_778
10
23.8791793
20
75.1279051
11
13.9792793
21
75.1279051
0
LINE
8
DEFAULT_255_2_778
10
15.1790793
20
80.4428051
11
15.1790793
21
76.1126051
0
LINE
8
DEFAULT_255_2_778
10
13.9792793
20
80.4428051
11
22.8792793
21
80.4428051
0
LINE
8
DEFAULT_255_2_778
10
22.8792793
20
80.4428051
11
22.8792793
21
78.3267051
0
LINE
8
DEFAULT_255_2_778
10
22.8792793
20
78.3267051
11
23.8793793
21
78.3267051
0
LINE
8
DEFAULT_255_2_778
10
13.9792241
20
81.4278582
11
23.8791241
21
81.4278582
0
LINE
8
DEFAULT_255_2_778
10
23.8791241
20
81.4278582
11
23.8791241
21
73.6279582
0
LINE
8
DEFAULT_255_2_778
10
23.8791241
20
73.6279582
11
13.9792241
21
73.6279582
0
LINE
8
DEFAULT_255_2_778
10
13.9792241
20
73.6279582
11
13.9792241
21
81.4278582
0
LINE
8
DEFAULT_255_2_778
10
23.8791241
20
74.3187582
11
24.1792241
21
74.3187582
0
LINE
8
DEFAULT_255_2_778
10
24.1792241
20
74.1277582
11
23.8791241
21
74.1277582
0
LINE
8
DEFAULT_255_2_778
10
22.6790074
20
79.1929913
11
22.8791074
21
79.1929913
0
LINE
8
DEFAULT_255_2_778
10
22.6790074
20
76.1126913
11
22.6790074
21
80.4428913
0
LINE
8
DEFAULT_255_2_778
10
22.8791074
20
79.5768913
11
23.8792074
21
79.5768913
0
LINE
8
DEFAULT_255_2_778
10
18.7291074
20
101.3187913
11
18.7291074
21
102.8186913
0
LINE
8
DEFAULT_255_2_778
10
18.7291074
20
102.8186913
11
19.8289074
21
102.8186913
0
LINE
8
DEFAULT_255_2_778
10
19.8289074
20
102.8186913
11
19.8289074
21
101.3187913
0
LINE
8
DEFAULT_255_2_778
10
15.5292074
20
100.8366913
11
15.5292074
21
97.3010913
0
LINE
8
DEFAULT_255_2_778
10
15.5292074
20
97.3010913
11
15.5292074
21
100.8366913
0
LINE
8
DEFAULT_255_2_778
10
15.5292074
20
100.8366913
11
23.0291074
21
100.8366913
0
LINE
8
DEFAULT_255_2_778
10
23.0291074
20
97.3010655
11
23.0291074
21
100.8366655
0
LINE
8
DEFAULT_255_2_778
10
23.0291074
20
100.8366655
11
23.0291074
21
97.3010655
0
LINE
8
DEFAULT_255_2_778
10
23.0291074
20
97.3010655
11
15.5292074
21
97.3010655
0
LINE
8
DEFAULT_255_2_778
10
15.5292074
20
97.3010655
11
23.0291074
21
97.3010655
0
LINE
8
DEFAULT_255_2_778
10
22.6790074
20
101.3187655
11
22.6790074
21
104.3188655
0
LINE
8
DEFAULT_255_2_778
10
22.6790074
20
104.3188655
11
21.1791074
21
105.8187655
0
LINE
8
DEFAULT_255_2_778
10
21.1791074
20
105.8187655
11
16.1790074
21
105.8187655
0
LINE
8
DEFAULT_255_2_778
10
16.1790074
20
105.8187655
11
14.6791074
21
104.3188655
0
LINE
8
DEFAULT_255_2_778
10
14.6791074
20
104.3188655
11
14.6791074
21
101.3187655
0
ARC
8
DEFAULT_255_2_778
10
3.6792098
20
67.1177326
40
1.4098555
50
37.0755236
51
90.0064508
0
ARC
8
DEFAULT_255_2_778
10
3.6789638
20
67.1175891
40
1.4099991
50
89.9964539
51
142.9215758
0
LINE
8
DEFAULT_255_2_778
10
2.2291511
20
66.3875882
11
5.1292511
21
66.3875882
0
LINE
8
DEFAULT_255_2_778
10
5.1292511
20
66.3875882
11
5.1292511
21
67.9676882
0
LINE
8
DEFAULT_255_2_778
10
5.1292511
20
67.9676882
11
4.8040511
21
67.9676882
0
LINE
8
DEFAULT_255_2_778
10
2.5540511
20
67.9676882
11
2.2291511
21
67.9676882
0
LINE
8
DEFAULT_255_2_778
10
2.2291511
20
67.9676882
11
2.2291511
21
66.3875882
0
ARC
8
DEFAULT_255_2_778
10
3.6772107
20
63.9904488
40
1.6230195
50
179.9962003
51
180.1026273
0
ARC
8
DEFAULT_255_2_778
10
3.6765961
20
63.9906166
40
1.6224051
50
135.009422
51
180.0021282
0
ARC
8
DEFAULT_255_2_778
10
3.6762188
20
63.9902393
40
1.6224051
50
89.9978718
51
134.990578
0
ARC
8
DEFAULT_255_2_778
10
3.6763867
20
63.9896247
40
1.6230197
50
89.8973727
51
90.0037997
0
ARC
8
DEFAULT_255_2_778
10
3.6817596
20
63.9949211
40
1.6177224
50
61.8422222
51
90.0873324
0
ARC
8
DEFAULT_255_2_778
10
3.6781158
20
63.9870392
40
1.6263911
50
8.5995563
51
61.8600801
0
ARC
8
DEFAULT_255_2_778
10
3.6663386
20
63.9882647
40
1.6378552
50
359.9817031
51
8.4955638
0
ARC
8
DEFAULT_255_2_778
10
3.6861728
20
63.9852814
40
1.6180229
50
332.1931218
51
0.087118
0
ARC
8
DEFAULT_255_2_778
10
3.6785506
20
63.988851
40
1.6264303
50
278.6485674
51
332.2071531
0
ARC
8
DEFAULT_255_2_778
10
3.6798183
20
64.0005254
40
1.6377839
50
269.981651
51
278.5433085
0
ARC
8
DEFAULT_255_2_778
10
3.6763867
20
63.9857585
40
1.6230195
50
269.9962003
51
270.1026273
0
ARC
8
DEFAULT_255_2_778
10
3.6761849
20
63.9848207
40
1.6220819
50
224.9996985
51
270.0033242
0
ARC
8
DEFAULT_255_2_778
10
3.6761901
20
63.9846985
40
1.6219991
50
179.9954647
51
224.9965162
0
ARC
8
DEFAULT_255_2_778
10
3.6772107
20
63.9849345
40
1.6230197
50
179.8973727
51
180.0037997
0
LINE
8
DEFAULT_255_2_778
10
2.0541938
20
63.9878416
11
2.0541938
21
63.9875416
0
ARC
8
DEFAULT_255_2_778
10
8.672082
20
63.9901043
40
1.6177224
50
151.8422222
51
180.0873324
0
ARC
8
DEFAULT_255_2_778
10
8.679964
20
63.9864605
40
1.6263911
50
98.5995563
51
151.8600801
0
ARC
8
DEFAULT_255_2_778
10
8.6787385
20
63.9746833
40
1.6378552
50
89.9817031
51
98.4955638
0
ARC
8
DEFAULT_255_2_778
10
8.6817217
20
63.9945175
40
1.6180229
50
62.1931218
51
90.087118
0
ARC
8
DEFAULT_255_2_778
10
8.6781521
20
63.9868953
40
1.6264303
50
8.6485674
51
62.2071531
0
ARC
8
DEFAULT_255_2_778
10
8.6664778
20
63.988163
40
1.6377839
50
359.981651
51
8.5433085
0
ARC
8
DEFAULT_255_2_778
10
8.6862735
20
63.985175
40
1.6179899
50
332.1926321
51
0.0872357
0
ARC
8
DEFAULT_255_2_778
10
8.6785932
20
63.9887999
40
1.6264743
50
278.6465625
51
332.205897
0
ARC
8
DEFAULT_255_2_778
10
8.6797871
20
64.0007451
40
1.6381067
50
269.981616
51
278.5424654
0
ARC
8
DEFAULT_255_2_778
10
8.6767933
20
63.9803269
40
1.6176903
50
241.8417123
51
270.0874202
0
ARC
8
DEFAULT_255_2_778
10
8.6804929
20
63.9882669
40
1.6264365
50
188.5975683
51
241.8588041
0
ARC
8
DEFAULT_255_2_778
10
8.6925404
20
63.9871144
40
1.6381789
50
179.9816683
51
188.4947209
0
LINE
8
DEFAULT_255_2_778
10
7.0543615
20
63.9876385
11
7.0543615
21
63.9876385
0
ARC
8
DEFAULT_255_2_778
10
8.6794676
20
67.117234
40
1.410141
50
37.0812903
51
90.0006706
0
ARC
8
DEFAULT_255_2_778
10
8.6793638
20
67.1173759
40
1.4099991
50
89.9964539
51
142.9215758
0
LINE
8
DEFAULT_255_2_778
10
7.2292511
20
67.967475
11
7.2292511
21
66.387475
0
LINE
8
DEFAULT_255_2_778
10
7.2292511
20
66.387475
11
10.1293511
21
66.387475
0
LINE
8
DEFAULT_255_2_778
10
10.1293511
20
66.387475
11
10.1293511
21
67.967475
0
LINE
8
DEFAULT_255_2_778
10
10.1293511
20
67.967475
11
9.8044511
21
67.967475
0
LINE
8
DEFAULT_255_2_778
10
7.5544511
20
67.967475
11
7.2295511
21
67.967475
0
ARC
8
DEFAULT_255_2_778
10
8.672082
20
56.4902043
40
1.6177224
50
151.8422222
51
180.0873324
0
ARC
8
DEFAULT_255_2_778
10
8.679964
20
56.4865605
40
1.6263911
50
98.5995563
51
151.8600801
0
ARC
8
DEFAULT_255_2_778
10
8.6787385
20
56.4747833
40
1.6378552
50
89.9817031
51
98.4955638
0
ARC
8
DEFAULT_255_2_778
10
8.6817217
20
56.4946175
40
1.6180229
50
62.1931218
51
90.087118
0
ARC
8
DEFAULT_255_2_778
10
8.6781521
20
56.4869953
40
1.6264303
50
8.6485674
51
62.2071531
0
ARC
8
DEFAULT_255_2_778
10
8.6664778
20
56.488263
40
1.6377839
50
359.981651
51
8.5433085
0
ARC
8
DEFAULT_255_2_778
10
8.6862735
20
56.485275
40
1.6179899
50
332.1926321
51
0.0872357
0
ARC
8
DEFAULT_255_2_778
10
8.6785932
20
56.4888999
40
1.6264743
50
278.6465625
51
332.205897
0
ARC
8
DEFAULT_255_2_778
10
8.6797871
20
56.5008451
40
1.6381067
50
269.981616
51
278.5424654
0
ARC
8
DEFAULT_255_2_778
10
8.6767933
20
56.4804269
40
1.6176903
50
241.8417123
51
270.0874202
0
ARC
8
DEFAULT_255_2_778
10
8.6804929
20
56.4883669
40
1.6264365
50
188.5975683
51
241.8588041
0
ARC
8
DEFAULT_255_2_778
10
8.6925404
20
56.4872144
40
1.6381789
50
179.9816683
51
188.4947209
0
LINE
8
DEFAULT_255_2_778
10
7.0543615
20
56.4877385
11
7.0543615
21
56.4877385
0
ARC
8
DEFAULT_255_2_778
10
8.6794676
20
52.1171472
40
1.410141
50
37.0812903
51
90.0006706
0
ARC
8
DEFAULT_255_2_778
10
8.6793638
20
52.1172891
40
1.4099991
50
89.9964539
51
142.9215758
0
LINE
8
DEFAULT_255_2_778
10
7.5541511
20
52.9673882
11
7.2292511
21
52.9673882
0
LINE
8
DEFAULT_255_2_778
10
7.2292511
20
52.9673882
11
7.2292511
21
51.3872882
0
LINE
8
DEFAULT_255_2_778
10
7.2292511
20
51.3872882
11
10.1293511
21
51.3872882
0
LINE
8
DEFAULT_255_2_778
10
10.1293511
20
51.3872882
11
10.1293511
21
52.9673882
0
LINE
8
DEFAULT_255_2_778
10
10.1293511
20
52.9673882
11
9.8044511
21
52.9673882
0
ARC
8
DEFAULT_255_2_778
10
8.6794676
20
59.6175472
40
1.410141
50
37.0812903
51
90.0006706
0
ARC
8
DEFAULT_255_2_778
10
8.6793638
20
59.6176891
40
1.4099991
50
89.9964539
51
142.9215758
0
LINE
8
DEFAULT_255_2_778
10
7.2292511
20
58.8876882
11
10.1293511
21
58.8876882
0
LINE
8
DEFAULT_255_2_778
10
10.1293511
20
58.8876882
11
10.1293511
21
60.4677882
0
LINE
8
DEFAULT_255_2_778
10
10.1293511
20
60.4677882
11
9.8044511
21
60.4677882
0
LINE
8
DEFAULT_255_2_778
10
7.5544511
20
60.4677882
11
7.2295511
21
60.4677882
0
LINE
8
DEFAULT_255_2_778
10
7.2295511
20
60.4677882
11
7.2295511
21
58.8876882
0
ARC
8
DEFAULT_255_2_778
10
3.6772107
20
56.4906488
40
1.6230195
50
179.9962003
51
180.1026273
0
ARC
8
DEFAULT_255_2_778
10
3.6765961
20
56.4908166
40
1.6224051
50
135.009422
51
180.0021282
0
ARC
8
DEFAULT_255_2_778
10
3.6762188
20
56.4904393
40
1.6224051
50
89.9978718
51
134.990578
0
ARC
8
DEFAULT_255_2_778
10
3.6763867
20
56.4898247
40
1.6230197
50
89.8973727
51
90.0037997
0
ARC
8
DEFAULT_255_2_778
10
3.6817596
20
56.4951211
40
1.6177224
50
61.8422222
51
90.0873324
0
ARC
8
DEFAULT_255_2_778
10
3.6781158
20
56.4872392
40
1.6263911
50
8.5995563
51
61.8600801
0
ARC
8
DEFAULT_255_2_778
10
3.6663386
20
56.4884647
40
1.6378552
50
359.9817031
51
8.4955638
0
ARC
8
DEFAULT_255_2_778
10
3.6861728
20
56.4854814
40
1.6180229
50
332.1931218
51
0.087118
0
ARC
8
DEFAULT_255_2_778
10
3.6785506
20
56.489051
40
1.6264303
50
278.6485674
51
332.2071531
0
ARC
8
DEFAULT_255_2_778
10
3.6798183
20
56.5007254
40
1.6377839
50
269.981651
51
278.5433085
0
ARC
8
DEFAULT_255_2_778
10
3.6763867
20
56.4859585
40
1.6230195
50
269.9962003
51
270.1026273
0
ARC
8
DEFAULT_255_2_778
10
3.6761849
20
56.4850207
40
1.6220819
50
224.9996985
51
270.0033242
0
ARC
8
DEFAULT_255_2_778
10
3.6761901
20
56.4848985
40
1.6219991
50
179.9954647
51
224.9965162
0
ARC
8
DEFAULT_255_2_778
10
3.6772107
20
56.4851345
40
1.6230197
50
179.8973727
51
180.0037997
0
LINE
8
DEFAULT_255_2_778
10
2.0541938
20
56.4880416
11
2.0541938
21
56.4877416
0
ARC
8
DEFAULT_255_2_778
10
3.6792098
20
52.1177326
40
1.4098555
50
37.0755236
51
90.0064508
0
ARC
8
DEFAULT_255_2_778
10
3.6789638
20
52.1175891
40
1.4099991
50
89.9964539
51
142.9215758
0
LINE
8
DEFAULT_255_2_778
10
2.2291511
20
51.3875882
11
5.1292511
21
51.3875882
0
LINE
8
DEFAULT_255_2_778
10
5.1292511
20
51.3875882
11
5.1292511
21
52.9676882
0
LINE
8
DEFAULT_255_2_778
10
5.1292511
20
52.9676882
11
4.8040511
21
52.9676882
0
LINE
8
DEFAULT_255_2_778
10
2.5540511
20
52.9676882
11
2.2291511
21
52.9676882
0
LINE
8
DEFAULT_255_2_778
10
2.2291511
20
52.9676882
11
2.2291511
21
51.3875882
0
ARC
8
DEFAULT_255_2_778
10
3.6792098
20
59.6178326
40
1.4098555
50
37.0755236
51
90.0064508
0
ARC
8
DEFAULT_255_2_778
10
3.6789638
20
59.6176891
40
1.4099991
50
89.9964539
51
142.9215758
0
LINE
8
DEFAULT_255_2_778
10
2.2291511
20
58.8876882
11
5.1292511
21
58.8876882
0
LINE
8
DEFAULT_255_2_778
10
5.1292511
20
58.8876882
11
5.1292511
21
60.4677882
0
LINE
8
DEFAULT_255_2_778
10
5.1292511
20
60.4677882
11
4.8040511
21
60.4677882
0
LINE
8
DEFAULT_255_2_778
10
2.5540511
20
60.4677882
11
2.2291511
21
60.4677882
0
LINE
8
DEFAULT_255_2_778
10
2.2291511
20
60.4677882
11
2.2291511
21
58.8876882
0
ARC
8
DEFAULT_255_2_778
10
8.672082
20
48.9901043
40
1.6177224
50
151.8422222
51
180.0873324
0
ARC
8
DEFAULT_255_2_778
10
8.679964
20
48.9864605
40
1.6263911
50
98.5995563
51
151.8600801
0
ARC
8
DEFAULT_255_2_778
10
8.6787385
20
48.9746833
40
1.6378552
50
89.9817031
51
98.4955638
0
ARC
8
DEFAULT_255_2_778
10
8.6817217
20
48.9945175
40
1.6180229
50
62.1931218
51
90.087118
0
ARC
8
DEFAULT_255_2_778
10
8.6781521
20
48.9868953
40
1.6264303
50
8.6485674
51
62.2071531
0
ARC
8
DEFAULT_255_2_778
10
8.6664778
20
48.988163
40
1.6377839
50
359.981651
51
8.5433085
0
ARC
8
DEFAULT_255_2_778
10
8.6862735
20
48.985175
40
1.6179899
50
332.1926321
51
0.0872357
0
ARC
8
DEFAULT_255_2_778
10
8.6785932
20
48.9887999
40
1.6264743
50
278.6465625
51
332.205897
0
ARC
8
DEFAULT_255_2_778
10
8.6797871
20
49.0007451
40
1.6381067
50
269.981616
51
278.5424654
0
ARC
8
DEFAULT_255_2_778
10
8.6767933
20
48.9803269
40
1.6176903
50
241.8417123
51
270.0874202
0
ARC
8
DEFAULT_255_2_778
10
8.6804929
20
48.9882669
40
1.6264365
50
188.5975683
51
241.8588041
0
ARC
8
DEFAULT_255_2_778
10
8.6925404
20
48.9871144
40
1.6381789
50
179.9816683
51
188.4947209
0
LINE
8
DEFAULT_255_2_778
10
7.0543615
20
48.9876385
11
7.0543615
21
48.9876385
0
ARC
8
DEFAULT_255_2_778
10
8.6794676
20
44.6173472
40
1.410141
50
37.0812903
51
90.0006706
0
ARC
8
DEFAULT_255_2_778
10
8.6793638
20
44.6174891
40
1.4099991
50
89.9964539
51
142.9215758
0
LINE
8
DEFAULT_255_2_778
10
7.5541511
20
45.4675882
11
7.2292511
21
45.4675882
0
LINE
8
DEFAULT_255_2_778
10
7.2292511
20
45.4675882
11
7.2292511
21
43.8874882
0
LINE
8
DEFAULT_255_2_778
10
7.2292511
20
43.8874882
11
10.1293511
21
43.8874882
0
LINE
8
DEFAULT_255_2_778
10
10.1293511
20
43.8874882
11
10.1293511
21
45.4675882
0
LINE
8
DEFAULT_255_2_778
10
10.1293511
20
45.4675882
11
9.8044511
21
45.4675882
0
ARC
8
DEFAULT_255_2_778
10
3.6772107
20
48.9904488
40
1.6230195
50
179.9962003
51
180.1026273
0
ARC
8
DEFAULT_255_2_778
10
3.6765961
20
48.9906166
40
1.6224051
50
135.009422
51
180.0021282
0
ARC
8
DEFAULT_255_2_778
10
3.6762188
20
48.9902393
40
1.6224051
50
89.9978718
51
134.990578
0
ARC
8
DEFAULT_255_2_778
10
3.6763867
20
48.9896247
40
1.6230197
50
89.8973727
51
90.0037997
0
ARC
8
DEFAULT_255_2_778
10
3.6817596
20
48.9949211
40
1.6177224
50
61.8422222
51
90.0873324
0
ARC
8
DEFAULT_255_2_778
10
3.6781158
20
48.9870392
40
1.6263911
50
8.5995563
51
61.8600801
0
ARC
8
DEFAULT_255_2_778
10
3.6663386
20
48.9882647
40
1.6378552
50
359.9817031
51
8.4955638
0
ARC
8
DEFAULT_255_2_778
10
3.6861728
20
48.9852814
40
1.6180229
50
332.1931218
51
0.087118
0
ARC
8
DEFAULT_255_2_778
10
3.6785506
20
48.988851
40
1.6264303
50
278.6485674
51
332.2071531
0
ARC
8
DEFAULT_255_2_778
10
3.6798183
20
49.0005254
40
1.6377839
50
269.981651
51
278.5433085
0
ARC
8
DEFAULT_255_2_778
10
3.6763867
20
48.9857585
40
1.6230195
50
269.9962003
51
270.1026273
0
ARC
8
DEFAULT_255_2_778
10
3.6761849
20
48.9848207
40
1.6220819
50
224.9996985
51
270.0033242
0
ARC
8
DEFAULT_255_2_778
10
3.6761901
20
48.9846985
40
1.6219991
50
179.9954647
51
224.9965162
0
ARC
8
DEFAULT_255_2_778
10
3.6772107
20
48.9849345
40
1.6230197
50
179.8973727
51
180.0037997
0
LINE
8
DEFAULT_255_2_778
10
2.0541938
20
48.9878416
11
2.0541938
21
48.9875416
0
ARC
8
DEFAULT_255_2_778
10
3.6792098
20
44.6176193
40
1.4098555
50
37.0755236
51
90.0064508
0
ARC
8
DEFAULT_255_2_778
10
3.6789638
20
44.6174759
40
1.4099991
50
89.9964539
51
142.9215758
0
LINE
8
DEFAULT_255_2_778
10
2.5540511
20
45.467575
11
2.2291511
21
45.467575
0
LINE
8
DEFAULT_255_2_778
10
2.2291511
20
45.467575
11
2.2291511
21
43.887575
0
LINE
8
DEFAULT_255_2_778
10
2.2291511
20
43.887575
11
5.1292511
21
43.887575
0
LINE
8
DEFAULT_255_2_778
10
5.1292511
20
43.887575
11
5.1292511
21
45.467575
0
LINE
8
DEFAULT_255_2_778
10
5.1292511
20
45.467575
11
4.8040511
21
45.467575
0
ARC
8
DEFAULT_255_2_778
10
8.672082
20
41.4902043
40
1.6177224
50
151.8422222
51
180.0873324
0
ARC
8
DEFAULT_255_2_778
10
8.679964
20
41.4865605
40
1.6263911
50
98.5995563
51
151.8600801
0
ARC
8
DEFAULT_255_2_778
10
8.6787385
20
41.4747833
40
1.6378552
50
89.9817031
51
98.4955638
0
ARC
8
DEFAULT_255_2_778
10
8.6817217
20
41.4946175
40
1.6180229
50
62.1931218
51
90.087118
0
ARC
8
DEFAULT_255_2_778
10
8.6781521
20
41.4869953
40
1.6264303
50
8.6485674
51
62.2071531
0
ARC
8
DEFAULT_255_2_778
10
8.6664778
20
41.488263
40
1.6377839
50
359.981651
51
8.5433085
0
ARC
8
DEFAULT_255_2_778
10
8.6862735
20
41.485275
40
1.6179899
50
332.1926321
51
0.0872357
0
ARC
8
DEFAULT_255_2_778
10
8.6785932
20
41.4888999
40
1.6264743
50
278.6465625
51
332.205897
0
ARC
8
DEFAULT_255_2_778
10
8.6797871
20
41.5008451
40
1.6381067
50
269.981616
51
278.5424654
0
ARC
8
DEFAULT_255_2_778
10
8.6767933
20
41.4804269
40
1.6176903
50
241.8417123
51
270.0874202
0
ARC
8
DEFAULT_255_2_778
10
8.6804929
20
41.4883669
40
1.6264365
50
188.5975683
51
241.8588041
0
ARC
8
DEFAULT_255_2_778
10
8.6925404
20
41.4872144
40
1.6381789
50
179.9816683
51
188.4947209
0
LINE
8
DEFAULT_255_2_778
10
7.0543615
20
41.4877385
11
7.0543615
21
41.4877385
0
ARC
8
DEFAULT_255_2_778
10
8.6794676
20
37.1176472
40
1.410141
50
37.0812903
51
90.0006706
0
ARC
8
DEFAULT_255_2_778
10
8.6793638
20
37.1177891
40
1.4099991
50
89.9964539
51
142.9215758
0
LINE
8
DEFAULT_255_2_778
10
7.2292511
20
36.3877882
11
10.1293511
21
36.3877882
0
LINE
8
DEFAULT_255_2_778
10
10.1293511
20
36.3877882
11
10.1293511
21
37.9678882
0
LINE
8
DEFAULT_255_2_778
10
10.1293511
20
37.9678882
11
9.8044511
21
37.9678882
0
LINE
8
DEFAULT_255_2_778
10
7.5544511
20
37.9678882
11
7.2295511
21
37.9678882
0
LINE
8
DEFAULT_255_2_778
10
7.2295511
20
37.9678882
11
7.2295511
21
36.3877882
0
ARC
8
DEFAULT_255_2_778
10
3.6772107
20
41.4905488
40
1.6230195
50
179.9962003
51
180.1026273
0
ARC
8
DEFAULT_255_2_778
10
3.6765961
20
41.4907166
40
1.6224051
50
135.009422
51
180.0021282
0
ARC
8
DEFAULT_255_2_778
10
3.6762188
20
41.4903393
40
1.6224051
50
89.9978718
51
134.990578
0
ARC
8
DEFAULT_255_2_778
10
3.6763867
20
41.4897247
40
1.6230197
50
89.8973727
51
90.0037997
0
ARC
8
DEFAULT_255_2_778
10
3.6817596
20
41.4950211
40
1.6177224
50
61.8422222
51
90.0873324
0
ARC
8
DEFAULT_255_2_778
10
3.6781158
20
41.4871392
40
1.6263911
50
8.5995563
51
61.8600801
0
ARC
8
DEFAULT_255_2_778
10
3.6663386
20
41.4883647
40
1.6378552
50
359.9817031
51
8.4955638
0
ARC
8
DEFAULT_255_2_778
10
3.6861728
20
41.4853814
40
1.6180229
50
332.1931218
51
0.087118
0
ARC
8
DEFAULT_255_2_778
10
3.6785506
20
41.488951
40
1.6264303
50
278.6485674
51
332.2071531
0
ARC
8
DEFAULT_255_2_778
10
3.6798183
20
41.5006254
40
1.6377839
50
269.981651
51
278.5433085
0
ARC
8
DEFAULT_255_2_778
10
3.6763867
20
41.4858585
40
1.6230195
50
269.9962003
51
270.1026273
0
ARC
8
DEFAULT_255_2_778
10
3.6761849
20
41.4849207
40
1.6220819
50
224.9996985
51
270.0033242
0
ARC
8
DEFAULT_255_2_778
10
3.6761901
20
41.4847985
40
1.6219991
50
179.9954647
51
224.9965162
0
ARC
8
DEFAULT_255_2_778
10
3.6772107
20
41.4850345
40
1.6230197
50
179.8973727
51
180.0037997
0
LINE
8
DEFAULT_255_2_778
10
2.0541938
20
41.4879416
11
2.0541938
21
41.4876416
0
ARC
8
DEFAULT_255_2_778
10
3.6792098
20
37.1179326
40
1.4098555
50
37.0755236
51
90.0064508
0
ARC
8
DEFAULT_255_2_778
10
3.6789638
20
37.1177891
40
1.4099991
50
89.9964539
51
142.9215758
0
LINE
8
DEFAULT_255_2_778
10
2.2291511
20
36.3877882
11
5.1292511
21
36.3877882
0
LINE
8
DEFAULT_255_2_778
10
5.1292511
20
36.3877882
11
5.1292511
21
37.9678882
0
LINE
8
DEFAULT_255_2_778
10
5.1292511
20
37.9678882
11
4.8040511
21
37.9678882
0
LINE
8
DEFAULT_255_2_778
10
2.5540511
20
37.9678882
11
2.2291511
21
37.9678882
0
LINE
8
DEFAULT_255_2_778
10
2.2291511
20
37.9678882
11
2.2291511
21
36.3877882
0
ARC
8
DEFAULT_255_2_778
10
8.672082
20
33.9901043
40
1.6177224
50
151.8422222
51
180.0873324
0
ARC
8
DEFAULT_255_2_778
10
8.679964
20
33.9864605
40
1.6263911
50
98.5995563
51
151.8600801
0
ARC
8
DEFAULT_255_2_778
10
8.6787385
20
33.9746833
40
1.6378552
50
89.9817031
51
98.4955638
0
ARC
8
DEFAULT_255_2_778
10
8.6817217
20
33.9945175
40
1.6180229
50
62.1931218
51
90.087118
0
ARC
8
DEFAULT_255_2_778
10
8.6781521
20
33.9868953
40
1.6264303
50
8.6485674
51
62.2071531
0
ARC
8
DEFAULT_255_2_778
10
8.6664778
20
33.988163
40
1.6377839
50
359.981651
51
8.5433085
0
ARC
8
DEFAULT_255_2_778
10
8.6862735
20
33.985175
40
1.6179899
50
332.1926321
51
0.0872357
0
ARC
8
DEFAULT_255_2_778
10
8.6785932
20
33.9887999
40
1.6264743
50
278.6465625
51
332.205897
0
ARC
8
DEFAULT_255_2_778
10
8.6797871
20
34.0007451
40
1.6381067
50
269.981616
51
278.5424654
0
ARC
8
DEFAULT_255_2_778
10
8.6767933
20
33.9803269
40
1.6176903
50
241.8417123
51
270.0874202
0
ARC
8
DEFAULT_255_2_778
10
8.6804929
20
33.9882669
40
1.6264365
50
188.5975683
51
241.8588041
0
ARC
8
DEFAULT_255_2_778
10
8.6925404
20
33.9871144
40
1.6381789
50
179.9816683
51
188.4947209
0
LINE
8
DEFAULT_255_2_778
10
7.0543615
20
33.9876385
11
7.0543615
21
33.9876385
0
ARC
8
DEFAULT_255_2_778
10
8.6794385
20
29.6173899
40
1.4099984
50
37.0784003
51
90.0035516
0
ARC
8
DEFAULT_255_2_778
10
8.6792638
20
29.6173891
40
1.4099991
50
89.9964539
51
142.9215758
0
LINE
8
DEFAULT_255_2_778
10
10.1292511
20
30.4674882
11
9.8043511
21
30.4674882
0
LINE
8
DEFAULT_255_2_778
10
7.5543511
20
30.4674882
11
7.2294511
21
30.4674882
0
LINE
8
DEFAULT_255_2_778
10
7.2294511
20
30.4674882
11
7.2294511
21
28.8873882
0
LINE
8
DEFAULT_255_2_778
10
7.2294511
20
28.8873882
11
10.1295511
21
28.8873882
0
LINE
8
DEFAULT_255_2_778
10
10.1295511
20
28.8873882
11
10.1295511
21
30.4674882
0
ARC
8
DEFAULT_255_2_778
10
3.6772107
20
33.9904488
40
1.6230195
50
179.9962003
51
180.1026273
0
ARC
8
DEFAULT_255_2_778
10
3.6765961
20
33.9906166
40
1.6224051
50
135.009422
51
180.0021282
0
ARC
8
DEFAULT_255_2_778
10
3.6762188
20
33.9902393
40
1.6224051
50
89.9978718
51
134.990578
0
ARC
8
DEFAULT_255_2_778
10
3.6763867
20
33.9896247
40
1.6230197
50
89.8973727
51
90.0037997
0
ARC
8
DEFAULT_255_2_778
10
3.6817596
20
33.9949211
40
1.6177224
50
61.8422222
51
90.0873324
0
ARC
8
DEFAULT_255_2_778
10
3.6781158
20
33.9870392
40
1.6263911
50
8.5995563
51
61.8600801
0
ARC
8
DEFAULT_255_2_778
10
3.6663386
20
33.9882647
40
1.6378552
50
359.9817031
51
8.4955638
0
ARC
8
DEFAULT_255_2_778
10
3.6861728
20
33.9852814
40
1.6180229
50
332.1931218
51
0.087118
0
ARC
8
DEFAULT_255_2_778
10
3.6785506
20
33.988851
40
1.6264303
50
278.6485674
51
332.2071531
0
ARC
8
DEFAULT_255_2_778
10
3.6798183
20
34.0005254
40
1.6377839
50
269.981651
51
278.5433085
0
ARC
8
DEFAULT_255_2_778
10
3.6763867
20
33.9857585
40
1.6230195
50
269.9962003
51
270.1026273
0
ARC
8
DEFAULT_255_2_778
10
3.6761849
20
33.9848207
40
1.6220819
50
224.9996985
51
270.0033242
0
ARC
8
DEFAULT_255_2_778
10
3.6761901
20
33.9846985
40
1.6219991
50
179.9954647
51
224.9965162
0
ARC
8
DEFAULT_255_2_778
10
3.6772107
20
33.9849345
40
1.6230197
50
179.8973727
51
180.0037997
0
LINE
8
DEFAULT_255_2_778
10
2.0541938
20
33.9878416
11
2.0541938
21
33.9875416
0
ARC
8
DEFAULT_255_2_778
10
3.6792098
20
29.6178326
40
1.4098555
50
37.0755236
51
90.0064508
0
ARC
8
DEFAULT_255_2_778
10
3.6789638
20
29.6176891
40
1.4099991
50
89.9964539
51
142.9215758
0
LINE
8
DEFAULT_255_2_778
10
2.2291511
20
28.8876882
11
5.1292511
21
28.8876882
0
LINE
8
DEFAULT_255_2_778
10
5.1292511
20
28.8876882
11
5.1292511
21
30.4677882
0
LINE
8
DEFAULT_255_2_778
10
5.1292511
20
30.4677882
11
4.8040511
21
30.4677882
0
LINE
8
DEFAULT_255_2_778
10
2.5540511
20
30.4677882
11
2.2291511
21
30.4677882
0
LINE
8
DEFAULT_255_2_778
10
2.2291511
20
30.4677882
11
2.2291511
21
28.8876882
0
ARC
8
DEFAULT_255_2_778
10
8.672082
20
26.4902043
40
1.6177224
50
151.8422222
51
180.0873324
0
ARC
8
DEFAULT_255_2_778
10
8.679964
20
26.4865605
40
1.6263911
50
98.5995563
51
151.8600801
0
ARC
8
DEFAULT_255_2_778
10
8.6787385
20
26.4747833
40
1.6378552
50
89.9817031
51
98.4955638
0
ARC
8
DEFAULT_255_2_778
10
8.6817217
20
26.4946175
40
1.6180229
50
62.1931218
51
90.087118
0
ARC
8
DEFAULT_255_2_778
10
8.6781521
20
26.4869953
40
1.6264303
50
8.6485674
51
62.2071531
0
ARC
8
DEFAULT_255_2_778
10
8.6664778
20
26.488263
40
1.6377839
50
359.981651
51
8.5433085
0
ARC
8
DEFAULT_255_2_778
10
8.6862735
20
26.485275
40
1.6179899
50
332.1926321
51
0.0872357
0
ARC
8
DEFAULT_255_2_778
10
8.6785932
20
26.4888999
40
1.6264743
50
278.6465625
51
332.205897
0
ARC
8
DEFAULT_255_2_778
10
8.6797871
20
26.5008451
40
1.6381067
50
269.981616
51
278.5424654
0
ARC
8
DEFAULT_255_2_778
10
8.6767933
20
26.4804269
40
1.6176903
50
241.8417123
51
270.0874202
0
ARC
8
DEFAULT_255_2_778
10
8.6804929
20
26.4883669
40
1.6264365
50
188.5975683
51
241.8588041
0
ARC
8
DEFAULT_255_2_778
10
8.6925404
20
26.4872144
40
1.6381789
50
179.9816683
51
188.4947209
0
LINE
8
DEFAULT_255_2_778
10
7.0543615
20
26.4877385
11
7.0543615
21
26.4877385
0
ARC
8
DEFAULT_255_2_778
10
8.6794676
20
22.1176472
40
1.410141
50
37.0812903
51
90.0006706
0
ARC
8
DEFAULT_255_2_778
10
8.6793638
20
22.1177891
40
1.4099991
50
89.9964539
51
142.9215758
0
LINE
8
DEFAULT_255_2_778
10
7.2292511
20
21.3877882
11
10.1293511
21
21.3877882
0
LINE
8
DEFAULT_255_2_778
10
10.1293511
20
21.3877882
11
10.1293511
21
22.9678882
0
LINE
8
DEFAULT_255_2_778
10
10.1293511
20
22.9678882
11
9.8044511
21
22.9678882
0
LINE
8
DEFAULT_255_2_778
10
7.5544511
20
22.9678882
11
7.2295511
21
22.9678882
0
LINE
8
DEFAULT_255_2_778
10
7.2295511
20
22.9678882
11
7.2295511
21
21.3877882
0
ARC
8
DEFAULT_255_2_778
10
3.6772107
20
26.4905488
40
1.6230195
50
179.9962003
51
180.1026273
0
ARC
8
DEFAULT_255_2_778
10
3.6765961
20
26.4907166
40
1.6224051
50
135.009422
51
180.0021282
0
ARC
8
DEFAULT_255_2_778
10
3.6762188
20
26.4903393
40
1.6224051
50
89.9978718
51
134.990578
0
ARC
8
DEFAULT_255_2_778
10
3.6763867
20
26.4897247
40
1.6230197
50
89.8973727
51
90.0037997
0
ARC
8
DEFAULT_255_2_778
10
3.6817596
20
26.4950211
40
1.6177224
50
61.8422222
51
90.0873324
0
ARC
8
DEFAULT_255_2_778
10
3.6781158
20
26.4871392
40
1.6263911
50
8.5995563
51
61.8600801
0
ARC
8
DEFAULT_255_2_778
10
3.6663386
20
26.4883647
40
1.6378552
50
359.9817031
51
8.4955638
0
ARC
8
DEFAULT_255_2_778
10
3.6861728
20
26.4853814
40
1.6180229
50
332.1931218
51
0.087118
0
ARC
8
DEFAULT_255_2_778
10
3.6785506
20
26.488951
40
1.6264303
50
278.6485674
51
332.2071531
0
ARC
8
DEFAULT_255_2_778
10
3.6798183
20
26.5006254
40
1.6377839
50
269.981651
51
278.5433085
0
ARC
8
DEFAULT_255_2_778
10
3.6763867
20
26.4858585
40
1.6230195
50
269.9962003
51
270.1026273
0
ARC
8
DEFAULT_255_2_778
10
3.6761849
20
26.4849207
40
1.6220819
50
224.9996985
51
270.0033242
0
ARC
8
DEFAULT_255_2_778
10
3.6761901
20
26.4847985
40
1.6219991
50
179.9954647
51
224.9965162
0
ARC
8
DEFAULT_255_2_778
10
3.6772107
20
26.4850345
40
1.6230197
50
179.8973727
51
180.0037997
0
LINE
8
DEFAULT_255_2_778
10
2.0541938
20
26.4879416
11
2.0541938
21
26.4876416
0
ARC
8
DEFAULT_255_2_778
10
3.6792098
20
22.1179326
40
1.4098555
50
37.0755236
51
90.0064508
0
ARC
8
DEFAULT_255_2_778
10
3.6789638
20
22.1177891
40
1.4099991
50
89.9964539
51
142.9215758
0
LINE
8
DEFAULT_255_2_778
10
2.2291511
20
21.3877882
11
5.1292511
21
21.3877882
0
LINE
8
DEFAULT_255_2_778
10
5.1292511
20
21.3877882
11
5.1292511
21
22.9678882
0
LINE
8
DEFAULT_255_2_778
10
5.1292511
20
22.9678882
11
4.8040511
21
22.9678882
0
LINE
8
DEFAULT_255_2_778
10
2.5540511
20
22.9678882
11
2.2291511
21
22.9678882
0
LINE
8
DEFAULT_255_2_778
10
2.2291511
20
22.9678882
11
2.2291511
21
21.3877882
0
ARC
8
DEFAULT_255_2_778
10
8.672082
20
18.9900043
40
1.6177224
50
151.8422222
51
180.0873324
0
ARC
8
DEFAULT_255_2_778
10
8.679964
20
18.9863605
40
1.6263911
50
98.5995563
51
151.8600801
0
ARC
8
DEFAULT_255_2_778
10
8.6787385
20
18.9745833
40
1.6378552
50
89.9817031
51
98.4955638
0
ARC
8
DEFAULT_255_2_778
10
8.6817217
20
18.9944175
40
1.6180229
50
62.1931218
51
90.087118
0
ARC
8
DEFAULT_255_2_778
10
8.6781521
20
18.9867953
40
1.6264303
50
8.6485674
51
62.2071531
0
ARC
8
DEFAULT_255_2_778
10
8.6664778
20
18.988063
40
1.6377839
50
359.981651
51
8.5433085
0
ARC
8
DEFAULT_255_2_778
10
8.6862735
20
18.985075
40
1.6179899
50
332.1926321
51
0.0872357
0
ARC
8
DEFAULT_255_2_778
10
8.6785932
20
18.9886999
40
1.6264743
50
278.6465625
51
332.205897
0
ARC
8
DEFAULT_255_2_778
10
8.6797871
20
19.0006451
40
1.6381067
50
269.981616
51
278.5424654
0
ARC
8
DEFAULT_255_2_778
10
8.6767933
20
18.9802269
40
1.6176903
50
241.8417123
51
270.0874202
0
ARC
8
DEFAULT_255_2_778
10
8.6804929
20
18.9881669
40
1.6264365
50
188.5975683
51
241.8588041
0
ARC
8
DEFAULT_255_2_778
10
8.6925404
20
18.9870144
40
1.6381789
50
179.9816683
51
188.4947209
0
LINE
8
DEFAULT_255_2_778
10
7.0543615
20
18.9875385
11
7.0543615
21
18.9875385
0
ARC
8
DEFAULT_255_2_778
10
8.6794676
20
14.6175472
40
1.410141
50
37.0812903
51
90.0006706
0
ARC
8
DEFAULT_255_2_778
10
8.6793638
20
14.6176891
40
1.4099991
50
89.9964539
51
142.9215758
0
LINE
8
DEFAULT_255_2_778
10
7.2292511
20
13.8876882
11
10.1293511
21
13.8876882
0
LINE
8
DEFAULT_255_2_778
10
10.1293511
20
13.8876882
11
10.1293511
21
15.4677882
0
LINE
8
DEFAULT_255_2_778
10
10.1293511
20
15.4677882
11
9.8044511
21
15.4677882
0
LINE
8
DEFAULT_255_2_778
10
7.5544511
20
15.4677882
11
7.2295511
21
15.4677882
0
LINE
8
DEFAULT_255_2_778
10
7.2295511
20
15.4677882
11
7.2295511
21
13.8876882
0
ARC
8
DEFAULT_255_2_778
10
3.6772107
20
18.9904488
40
1.6230195
50
179.9962003
51
180.1026273
0
ARC
8
DEFAULT_255_2_778
10
3.6765961
20
18.9906166
40
1.6224051
50
135.009422
51
180.0021282
0
ARC
8
DEFAULT_255_2_778
10
3.6762188
20
18.9902393
40
1.6224051
50
89.9978718
51
134.990578
0
ARC
8
DEFAULT_255_2_778
10
3.6763867
20
18.9896247
40
1.6230197
50
89.8973727
51
90.0037997
0
ARC
8
DEFAULT_255_2_778
10
3.6817596
20
18.9949211
40
1.6177224
50
61.8422222
51
90.0873324
0
ARC
8
DEFAULT_255_2_778
10
3.6781158
20
18.9870392
40
1.6263911
50
8.5995563
51
61.8600801
0
ARC
8
DEFAULT_255_2_778
10
3.6663386
20
18.9882647
40
1.6378552
50
359.9817031
51
8.4955638
0
ARC
8
DEFAULT_255_2_778
10
3.6861728
20
18.9852814
40
1.6180229
50
332.1931218
51
0.087118
0
ARC
8
DEFAULT_255_2_778
10
3.6785506
20
18.988851
40
1.6264303
50
278.6485674
51
332.2071531
0
ARC
8
DEFAULT_255_2_778
10
3.6798183
20
19.0005254
40
1.6377839
50
269.981651
51
278.5433085
0
ARC
8
DEFAULT_255_2_778
10
3.6763867
20
18.9857585
40
1.6230195
50
269.9962003
51
270.1026273
0
ARC
8
DEFAULT_255_2_778
10
3.6761849
20
18.9848207
40
1.6220819
50
224.9996985
51
270.0033242
0
ARC
8
DEFAULT_255_2_778
10
3.6761901
20
18.9846985
40
1.6219991
50
179.9954647
51
224.9965162
0
ARC
8
DEFAULT_255_2_778
10
3.6772107
20
18.9849345
40
1.6230197
50
179.8973727
51
180.0037997
0
LINE
8
DEFAULT_255_2_778
10
2.0541938
20
18.9878416
11
2.0541938
21
18.9875416
0
ARC
8
DEFAULT_255_2_778
10
3.6792098
20
14.6178326
40
1.4098555
50
37.0755236
51
90.0064508
0
ARC
8
DEFAULT_255_2_778
10
3.6789638
20
14.6176891
40
1.4099991
50
89.9964539
51
142.9215758
0
LINE
8
DEFAULT_255_2_778
10
2.2291511
20
13.8876882
11
5.1292511
21
13.8876882
0
LINE
8
DEFAULT_255_2_778
10
5.1292511
20
13.8876882
11
5.1292511
21
15.4677882
0
LINE
8
DEFAULT_255_2_778
10
5.1292511
20
15.4677882
11
4.8040511
21
15.4677882
0
LINE
8
DEFAULT_255_2_778
10
2.5540511
20
15.4677882
11
2.2291511
21
15.4677882
0
LINE
8
DEFAULT_255_2_778
10
2.2291511
20
15.4677882
11
2.2291511
21
13.8876882
0
ARC
8
DEFAULT_255_2_778
10
8.672082
20
11.4902043
40
1.6177224
50
151.8422222
51
180.0873324
0
ARC
8
DEFAULT_255_2_778
10
8.679964
20
11.4865605
40
1.6263911
50
98.5995563
51
151.8600801
0
ARC
8
DEFAULT_255_2_778
10
8.6787385
20
11.4747833
40
1.6378552
50
89.9817031
51
98.4955638
0
ARC
8
DEFAULT_255_2_778
10
8.6817217
20
11.4946175
40
1.6180229
50
62.1931218
51
90.087118
0
ARC
8
DEFAULT_255_2_778
10
8.6781521
20
11.4869953
40
1.6264303
50
8.6485674
51
62.2071531
0
ARC
8
DEFAULT_255_2_778
10
8.6664778
20
11.488263
40
1.6377839
50
359.981651
51
8.5433085
0
ARC
8
DEFAULT_255_2_778
10
8.6862735
20
11.485275
40
1.6179899
50
332.1926321
51
0.0872357
0
ARC
8
DEFAULT_255_2_778
10
8.6785932
20
11.4888999
40
1.6264743
50
278.6465625
51
332.205897
0
ARC
8
DEFAULT_255_2_778
10
8.6797871
20
11.5008451
40
1.6381067
50
269.981616
51
278.5424654
0
ARC
8
DEFAULT_255_2_778
10
8.6767933
20
11.4804269
40
1.6176903
50
241.8417123
51
270.0874202
0
ARC
8
DEFAULT_255_2_778
10
8.6804929
20
11.4883669
40
1.6264365
50
188.5975683
51
241.8588041
0
ARC
8
DEFAULT_255_2_778
10
8.6925404
20
11.4872144
40
1.6381789
50
179.9816683
51
188.4947209
0
LINE
8
DEFAULT_255_2_778
10
7.0543615
20
11.4877385
11
7.0543615
21
11.4877385
0
ARC
8
DEFAULT_255_2_778
10
3.6772107
20
11.4905488
40
1.6230195
50
179.9962003
51
180.1026273
0
ARC
8
DEFAULT_255_2_778
10
3.6765961
20
11.4907166
40
1.6224051
50
135.009422
51
180.0021282
0
ARC
8
DEFAULT_255_2_778
10
3.6762188
20
11.4903393
40
1.6224051
50
89.9978718
51
134.990578
0
ARC
8
DEFAULT_255_2_778
10
3.6763867
20
11.4897247
40
1.6230197
50
89.8973727
51
90.0037997
0
ARC
8
DEFAULT_255_2_778
10
3.6817596
20
11.4950211
40
1.6177224
50
61.8422222
51
90.0873324
0
ARC
8
DEFAULT_255_2_778
10
3.6781158
20
11.4871392
40
1.6263911
50
8.5995563
51
61.8600801
0
ARC
8
DEFAULT_255_2_778
10
3.6663386
20
11.4883647
40
1.6378552
50
359.9817031
51
8.4955638
0
ARC
8
DEFAULT_255_2_778
10
3.6861728
20
11.4853814
40
1.6180229
50
332.1931218
51
0.087118
0
ARC
8
DEFAULT_255_2_778
10
3.6785506
20
11.488951
40
1.6264303
50
278.6485674
51
332.2071531
0
ARC
8
DEFAULT_255_2_778
10
3.6798183
20
11.5006254
40
1.6377839
50
269.981651
51
278.5433085
0
ARC
8
DEFAULT_255_2_778
10
3.6763867
20
11.4858585
40
1.6230195
50
269.9962003
51
270.1026273
0
ARC
8
DEFAULT_255_2_778
10
3.6761849
20
11.4849207
40
1.6220819
50
224.9996985
51
270.0033242
0
ARC
8
DEFAULT_255_2_778
10
3.6761901
20
11.4847985
40
1.6219991
50
179.9954647
51
224.9965162
0
ARC
8
DEFAULT_255_2_778
10
3.6772107
20
11.4850345
40
1.6230197
50
179.8973727
51
180.0037997
0
LINE
8
DEFAULT_255_2_778
10
2.0541938
20
11.4879416
11
2.0541938
21
11.4876416
0
LINE
8
DEFAULT_255_2_778
10
10.0790418
20
72.9512
11
2.2791418
21
72.9512
0
ARC
8
DEFAULT_255_2_778
10
15.6792676
20
67.117734
40
1.410141
50
37.0812903
51
90.0006706
0
ARC
8
DEFAULT_255_2_778
10
15.6791638
20
67.1178759
40
1.4099991
50
89.9964539
51
142.9215758
0
LINE
8
DEFAULT_255_2_778
10
14.2290511
20
66.387975
11
17.1291511
21
66.387975
0
LINE
8
DEFAULT_255_2_778
10
17.1291511
20
66.387975
11
17.1291511
21
67.967975
0
LINE
8
DEFAULT_255_2_778
10
17.1291511
20
67.967975
11
16.8042511
21
67.967975
0
LINE
8
DEFAULT_255_2_778
10
14.5542511
20
67.967975
11
14.2293511
21
67.967975
0
LINE
8
DEFAULT_255_2_778
10
14.2293511
20
67.967975
11
14.2293511
21
66.387975
0
ARC
8
DEFAULT_255_2_778
10
15.671882
20
63.9904043
40
1.6177224
50
151.8422222
51
180.0873324
0
ARC
8
DEFAULT_255_2_778
10
15.679764
20
63.9867605
40
1.6263911
50
98.5995563
51
151.8600801
0
ARC
8
DEFAULT_255_2_778
10
15.6785385
20
63.9749833
40
1.6378552
50
89.9817031
51
98.4955638
0
ARC
8
DEFAULT_255_2_778
10
15.6815217
20
63.9948175
40
1.6180229
50
62.1931218
51
90.087118
0
ARC
8
DEFAULT_255_2_778
10
15.6779521
20
63.9871953
40
1.6264303
50
8.6485674
51
62.2071531
0
ARC
8
DEFAULT_255_2_778
10
15.6662778
20
63.988463
40
1.6377839
50
359.981651
51
8.5433085
0
ARC
8
DEFAULT_255_2_778
10
15.6860735
20
63.985475
40
1.6179899
50
332.1926321
51
0.0872357
0
ARC
8
DEFAULT_255_2_778
10
15.6783932
20
63.9890999
40
1.6264743
50
278.6465625
51
332.205897
0
ARC
8
DEFAULT_255_2_778
10
15.6795871
20
64.0010451
40
1.6381067
50
269.981616
51
278.5424654
0
ARC
8
DEFAULT_255_2_778
10
15.6765933
20
63.9806269
40
1.6176903
50
241.8417123
51
270.0874202
0
ARC
8
DEFAULT_255_2_778
10
15.6802929
20
63.9885669
40
1.6264365
50
188.5975683
51
241.8588041
0
ARC
8
DEFAULT_255_2_778
10
15.6923404
20
63.9874144
40
1.6381789
50
179.9816683
51
188.4947209
0
LINE
8
DEFAULT_255_2_778
10
14.0541615
20
63.9879385
11
14.0541615
21
63.9879385
0
ARC
8
DEFAULT_255_2_778
10
20.671982
20
63.9904043
40
1.6177224
50
151.8422222
51
180.0873324
0
ARC
8
DEFAULT_255_2_778
10
20.679864
20
63.9867605
40
1.6263911
50
98.5995563
51
151.8600801
0
ARC
8
DEFAULT_255_2_778
10
20.6786385
20
63.9749833
40
1.6378552
50
89.9817031
51
98.4955638
0
ARC
8
DEFAULT_255_2_778
10
20.6816217
20
63.9948175
40
1.6180229
50
62.1931218
51
90.087118
0
ARC
8
DEFAULT_255_2_778
10
20.6780521
20
63.9871953
40
1.6264303
50
8.6485674
51
62.2071531
0
ARC
8
DEFAULT_255_2_778
10
20.6663778
20
63.988463
40
1.6377839
50
359.981651
51
8.5433085
0
ARC
8
DEFAULT_255_2_778
10
20.6861735
20
63.985475
40
1.6179899
50
332.1926321
51
0.0872357
0
ARC
8
DEFAULT_255_2_778
10
20.6784932
20
63.9890999
40
1.6264743
50
278.6465625
51
332.205897
0
ARC
8
DEFAULT_255_2_778
10
20.6796871
20
64.0010451
40
1.6381067
50
269.981616
51
278.5424654
0
ARC
8
DEFAULT_255_2_778
10
20.6766933
20
63.9806269
40
1.6176903
50
241.8417123
51
270.0874202
0
ARC
8
DEFAULT_255_2_778
10
20.6803929
20
63.9885669
40
1.6264365
50
188.5975683
51
241.8588041
0
ARC
8
DEFAULT_255_2_778
10
20.6924404
20
63.9874144
40
1.6381789
50
179.9816683
51
188.4947209
0
LINE
8
DEFAULT_255_2_778
10
19.0542615
20
63.9879385
11
19.0542615
21
63.9879385
0
ARC
8
DEFAULT_255_2_778
10
20.6793676
20
67.1174472
40
1.410141
50
37.0812903
51
90.0006706
0
ARC
8
DEFAULT_255_2_778
10
20.6792638
20
67.1175891
40
1.4099991
50
89.9964539
51
142.9215758
0
LINE
8
DEFAULT_255_2_778
10
19.2291511
20
67.9676882
11
19.2291511
21
66.3875882
0
LINE
8
DEFAULT_255_2_778
10
19.2291511
20
66.3875882
11
22.1292511
21
66.3875882
0
LINE
8
DEFAULT_255_2_778
10
22.1292511
20
66.3875882
11
22.1292511
21
67.9676882
0
LINE
8
DEFAULT_255_2_778
10
22.1292511
20
67.9676882
11
21.8043511
21
67.9676882
0
LINE
8
DEFAULT_255_2_778
10
19.5543511
20
67.9676882
11
19.2291511
21
67.9676882
0
ARC
8
DEFAULT_255_2_778
10
20.671982
20
56.4902043
40
1.6177224
50
151.8422222
51
180.0873324
0
ARC
8
DEFAULT_255_2_778
10
20.679864
20
56.4865605
40
1.6263911
50
98.5995563
51
151.8600801
0
ARC
8
DEFAULT_255_2_778
10
20.6786385
20
56.4747833
40
1.6378552
50
89.9817031
51
98.4955638
0
ARC
8
DEFAULT_255_2_778
10
20.6816217
20
56.4946175
40
1.6180229
50
62.1931218
51
90.087118
0
ARC
8
DEFAULT_255_2_778
10
20.6780521
20
56.4869953
40
1.6264303
50
8.6485674
51
62.2071531
0
ARC
8
DEFAULT_255_2_778
10
20.6663778
20
56.488263
40
1.6377839
50
359.981651
51
8.5433085
0
ARC
8
DEFAULT_255_2_778
10
20.6861735
20
56.485275
40
1.6179899
50
332.1926321
51
0.0872357
0
ARC
8
DEFAULT_255_2_778
10
20.6784932
20
56.4888999
40
1.6264743
50
278.6465625
51
332.205897
0
ARC
8
DEFAULT_255_2_778
10
20.6796871
20
56.5008451
40
1.6381067
50
269.981616
51
278.5424654
0
ARC
8
DEFAULT_255_2_778
10
20.6766933
20
56.4804269
40
1.6176903
50
241.8417123
51
270.0874202
0
ARC
8
DEFAULT_255_2_778
10
20.6803929
20
56.4883669
40
1.6264365
50
188.5975683
51
241.8588041
0
ARC
8
DEFAULT_255_2_778
10
20.6924404
20
56.4872144
40
1.6381789
50
179.9816683
51
188.4947209
0
LINE
8
DEFAULT_255_2_778
10
19.0542615
20
56.4877385
11
19.0542615
21
56.4877385
0
ARC
8
DEFAULT_255_2_778
10
20.6793676
20
52.1174472
40
1.410141
50
37.0812903
51
90.0006706
0
ARC
8
DEFAULT_255_2_778
10
20.6792638
20
52.1175891
40
1.4099991
50
89.9964539
51
142.9215758
0
LINE
8
DEFAULT_255_2_778
10
19.5540511
20
52.9676882
11
19.2291511
21
52.9676882
0
LINE
8
DEFAULT_255_2_778
10
19.2291511
20
52.9676882
11
19.2291511
21
51.3875882
0
LINE
8
DEFAULT_255_2_778
10
19.2291511
20
51.3875882
11
22.1292511
21
51.3875882
0
LINE
8
DEFAULT_255_2_778
10
22.1292511
20
51.3875882
11
22.1292511
21
52.9676882
0
LINE
8
DEFAULT_255_2_778
10
22.1292511
20
52.9676882
11
21.8043511
21
52.9676882
0
ARC
8
DEFAULT_255_2_778
10
20.6793676
20
59.6178472
40
1.410141
50
37.0812903
51
90.0006706
0
ARC
8
DEFAULT_255_2_778
10
20.6792638
20
59.6179891
40
1.4099991
50
89.9964539
51
142.9215758
0
LINE
8
DEFAULT_255_2_778
10
19.2291511
20
58.8879882
11
22.1292511
21
58.8879882
0
LINE
8
DEFAULT_255_2_778
10
22.1292511
20
58.8879882
11
22.1292511
21
60.4680882
0
LINE
8
DEFAULT_255_2_778
10
22.1292511
20
60.4680882
11
21.8043511
21
60.4680882
0
LINE
8
DEFAULT_255_2_778
10
19.5543511
20
60.4680882
11
19.2291511
21
60.4680882
0
LINE
8
DEFAULT_255_2_778
10
19.2291511
20
60.4680882
11
19.2291511
21
58.8879882
0
ARC
8
DEFAULT_255_2_778
10
15.671882
20
56.4902043
40
1.6177224
50
151.8422222
51
180.0873324
0
ARC
8
DEFAULT_255_2_778
10
15.679764
20
56.4865605
40
1.6263911
50
98.5995563
51
151.8600801
0
ARC
8
DEFAULT_255_2_778
10
15.6785385
20
56.4747833
40
1.6378552
50
89.9817031
51
98.4955638
0
ARC
8
DEFAULT_255_2_778
10
15.6815217
20
56.4946175
40
1.6180229
50
62.1931218
51
90.087118
0
ARC
8
DEFAULT_255_2_778
10
15.6779521
20
56.4869953
40
1.6264303
50
8.6485674
51
62.2071531
0
ARC
8
DEFAULT_255_2_778
10
15.6662778
20
56.488263
40
1.6377839
50
359.981651
51
8.5433085
0
ARC
8
DEFAULT_255_2_778
10
15.6860735
20
56.485275
40
1.6179899
50
332.1926321
51
0.0872357
0
ARC
8
DEFAULT_255_2_778
10
15.6783932
20
56.4888999
40
1.6264743
50
278.6465625
51
332.205897
0
ARC
8
DEFAULT_255_2_778
10
15.6795871
20
56.5008451
40
1.6381067
50
269.981616
51
278.5424654
0
ARC
8
DEFAULT_255_2_778
10
15.6765933
20
56.4804269
40
1.6176903
50
241.8417123
51
270.0874202
0
ARC
8
DEFAULT_255_2_778
10
15.6802929
20
56.4883669
40
1.6264365
50
188.5975683
51
241.8588041
0
ARC
8
DEFAULT_255_2_778
10
15.6923404
20
56.4872144
40
1.6381789
50
179.9816683
51
188.4947209
0
LINE
8
DEFAULT_255_2_778
10
14.0541615
20
56.4877385
11
14.0541615
21
56.4877385
0
ARC
8
DEFAULT_255_2_778
10
15.6792676
20
52.117734
40
1.410141
50
37.0812903
51
90.0006706
0
ARC
8
DEFAULT_255_2_778
10
15.6791638
20
52.1178759
40
1.4099991
50
89.9964539
51
142.9215758
0
LINE
8
DEFAULT_255_2_778
10
14.2290511
20
51.387975
11
17.1291511
21
51.387975
0
LINE
8
DEFAULT_255_2_778
10
17.1291511
20
51.387975
11
17.1291511
21
52.967975
0
LINE
8
DEFAULT_255_2_778
10
17.1291511
20
52.967975
11
16.8042511
21
52.967975
0
LINE
8
DEFAULT_255_2_778
10
14.5542511
20
52.967975
11
14.2293511
21
52.967975
0
LINE
8
DEFAULT_255_2_778
10
14.2293511
20
52.967975
11
14.2293511
21
51.387975
0
ARC
8
DEFAULT_255_2_778
10
15.6792676
20
59.6178472
40
1.410141
50
37.0812903
51
90.0006706
0
ARC
8
DEFAULT_255_2_778
10
15.6791638
20
59.6179891
40
1.4099991
50
89.9964539
51
142.9215758
0
LINE
8
DEFAULT_255_2_778
10
14.2290511
20
58.8879882
11
17.1291511
21
58.8879882
0
LINE
8
DEFAULT_255_2_778
10
17.1291511
20
58.8879882
11
17.1291511
21
60.4680882
0
LINE
8
DEFAULT_255_2_778
10
17.1291511
20
60.4680882
11
16.8042511
21
60.4680882
0
LINE
8
DEFAULT_255_2_778
10
14.5542511
20
60.4680882
11
14.2293511
21
60.4680882
0
LINE
8
DEFAULT_255_2_778
10
14.2293511
20
60.4680882
11
14.2293511
21
58.8879882
0
ARC
8
DEFAULT_255_2_778
10
20.671982
20
48.9903043
40
1.6177224
50
151.8422222
51
180.0873324
0
ARC
8
DEFAULT_255_2_778
10
20.679864
20
48.9866605
40
1.6263911
50
98.5995563
51
151.8600801
0
ARC
8
DEFAULT_255_2_778
10
20.6786385
20
48.9748833
40
1.6378552
50
89.9817031
51
98.4955638
0
ARC
8
DEFAULT_255_2_778
10
20.6816217
20
48.9947175
40
1.6180229
50
62.1931218
51
90.087118
0
ARC
8
DEFAULT_255_2_778
10
20.6780521
20
48.9870953
40
1.6264303
50
8.6485674
51
62.2071531
0
ARC
8
DEFAULT_255_2_778
10
20.6663778
20
48.988363
40
1.6377839
50
359.981651
51
8.5433085
0
ARC
8
DEFAULT_255_2_778
10
20.6861735
20
48.985375
40
1.6179899
50
332.1926321
51
0.0872357
0
ARC
8
DEFAULT_255_2_778
10
20.6784932
20
48.9889999
40
1.6264743
50
278.6465625
51
332.205897
0
ARC
8
DEFAULT_255_2_778
10
20.6796871
20
49.0009451
40
1.6381067
50
269.981616
51
278.5424654
0
ARC
8
DEFAULT_255_2_778
10
20.6766933
20
48.9805269
40
1.6176903
50
241.8417123
51
270.0874202
0
ARC
8
DEFAULT_255_2_778
10
20.6803929
20
48.9884669
40
1.6264365
50
188.5975683
51
241.8588041
0
ARC
8
DEFAULT_255_2_778
10
20.6924404
20
48.9873144
40
1.6381789
50
179.9816683
51
188.4947209
0
LINE
8
DEFAULT_255_2_778
10
19.0542615
20
48.9878385
11
19.0542615
21
48.9878385
0
ARC
8
DEFAULT_255_2_778
10
20.6793676
20
44.6175472
40
1.410141
50
37.0812903
51
90.0006706
0
ARC
8
DEFAULT_255_2_778
10
20.6792638
20
44.6176891
40
1.4099991
50
89.9964539
51
142.9215758
0
LINE
8
DEFAULT_255_2_778
10
19.5540511
20
45.4677882
11
19.2291511
21
45.4677882
0
LINE
8
DEFAULT_255_2_778
10
19.2291511
20
45.4677882
11
19.2291511
21
43.8876882
0
LINE
8
DEFAULT_255_2_778
10
19.2291511
20
43.8876882
11
22.1292511
21
43.8876882
0
LINE
8
DEFAULT_255_2_778
10
22.1292511
20
43.8876882
11
22.1292511
21
45.4677882
0
LINE
8
DEFAULT_255_2_778
10
22.1292511
20
45.4677882
11
21.8043511
21
45.4677882
0
ARC
8
DEFAULT_255_2_778
10
15.671882
20
48.9903043
40
1.6177224
50
151.8422222
51
180.0873324
0
ARC
8
DEFAULT_255_2_778
10
15.679764
20
48.9866605
40
1.6263911
50
98.5995563
51
151.8600801
0
ARC
8
DEFAULT_255_2_778
10
15.6785385
20
48.9748833
40
1.6378552
50
89.9817031
51
98.4955638
0
ARC
8
DEFAULT_255_2_778
10
15.6815217
20
48.9947175
40
1.6180229
50
62.1931218
51
90.087118
0
ARC
8
DEFAULT_255_2_778
10
15.6779521
20
48.9870953
40
1.6264303
50
8.6485674
51
62.2071531
0
ARC
8
DEFAULT_255_2_778
10
15.6662778
20
48.988363
40
1.6377839
50
359.981651
51
8.5433085
0
ARC
8
DEFAULT_255_2_778
10
15.6860735
20
48.985375
40
1.6179899
50
332.1926321
51
0.0872357
0
ARC
8
DEFAULT_255_2_778
10
15.6783932
20
48.9889999
40
1.6264743
50
278.6465625
51
332.205897
0
ARC
8
DEFAULT_255_2_778
10
15.6795871
20
49.0009451
40
1.6381067
50
269.981616
51
278.5424654
0
ARC
8
DEFAULT_255_2_778
10
15.6765933
20
48.9805269
40
1.6176903
50
241.8417123
51
270.0874202
0
ARC
8
DEFAULT_255_2_778
10
15.6802929
20
48.9884669
40
1.6264365
50
188.5975683
51
241.8588041
0
ARC
8
DEFAULT_255_2_778
10
15.6923404
20
48.9873144
40
1.6381789
50
179.9816683
51
188.4947209
0
LINE
8
DEFAULT_255_2_778
10
14.0541615
20
48.9878385
11
14.0541615
21
48.9878385
0
ARC
8
DEFAULT_255_2_778
10
15.6790385
20
44.6176899
40
1.4099984
50
37.0784003
51
90.0035516
0
ARC
8
DEFAULT_255_2_778
10
15.6788638
20
44.6176891
40
1.4099991
50
89.9964539
51
142.9215758
0
LINE
8
DEFAULT_255_2_778
10
14.5539511
20
45.4677882
11
14.2290511
21
45.4677882
0
LINE
8
DEFAULT_255_2_778
10
14.2290511
20
45.4677882
11
14.2290511
21
43.8876882
0
LINE
8
DEFAULT_255_2_778
10
14.2290511
20
43.8876882
11
17.1291511
21
43.8876882
0
LINE
8
DEFAULT_255_2_778
10
17.1291511
20
43.8876882
11
17.1291511
21
45.4677882
0
LINE
8
DEFAULT_255_2_778
10
17.1291511
20
45.4677882
11
16.8042511
21
45.4677882
0
ARC
8
DEFAULT_255_2_778
10
20.671982
20
41.4902043
40
1.6177224
50
151.8422222
51
180.0873324
0
ARC
8
DEFAULT_255_2_778
10
20.679864
20
41.4865605
40
1.6263911
50
98.5995563
51
151.8600801
0
ARC
8
DEFAULT_255_2_778
10
20.6786385
20
41.4747833
40
1.6378552
50
89.9817031
51
98.4955638
0
ARC
8
DEFAULT_255_2_778
10
20.6816217
20
41.4946175
40
1.6180229
50
62.1931218
51
90.087118
0
ARC
8
DEFAULT_255_2_778
10
20.6780521
20
41.4869953
40
1.6264303
50
8.6485674
51
62.2071531
0
ARC
8
DEFAULT_255_2_778
10
20.6663778
20
41.488263
40
1.6377839
50
359.981651
51
8.5433085
0
ARC
8
DEFAULT_255_2_778
10
20.6861735
20
41.485275
40
1.6179899
50
332.1926321
51
0.0872357
0
ARC
8
DEFAULT_255_2_778
10
20.6784932
20
41.4888999
40
1.6264743
50
278.6465625
51
332.205897
0
ARC
8
DEFAULT_255_2_778
10
20.6796871
20
41.5008451
40
1.6381067
50
269.981616
51
278.5424654
0
ARC
8
DEFAULT_255_2_778
10
20.6766933
20
41.4804269
40
1.6176903
50
241.8417123
51
270.0874202
0
ARC
8
DEFAULT_255_2_778
10
20.6803929
20
41.4883669
40
1.6264365
50
188.5975683
51
241.8588041
0
ARC
8
DEFAULT_255_2_778
10
20.6924404
20
41.4872144
40
1.6381789
50
179.9816683
51
188.4947209
0
LINE
8
DEFAULT_255_2_778
10
19.0542615
20
41.4877385
11
19.0542615
21
41.4877385
0
ARC
8
DEFAULT_255_2_778
10
20.6793676
20
37.1176472
40
1.410141
50
37.0812903
51
90.0006706
0
ARC
8
DEFAULT_255_2_778
10
20.6792638
20
37.1177891
40
1.4099991
50
89.9964539
51
142.9215758
0
LINE
8
DEFAULT_255_2_778
10
19.2291511
20
36.3877882
11
22.1292511
21
36.3877882
0
LINE
8
DEFAULT_255_2_778
10
22.1292511
20
36.3877882
11
22.1292511
21
37.9678882
0
LINE
8
DEFAULT_255_2_778
10
22.1292511
20
37.9678882
11
21.8043511
21
37.9678882
0
LINE
8
DEFAULT_255_2_778
10
19.5543511
20
37.9678882
11
19.2291511
21
37.9678882
0
LINE
8
DEFAULT_255_2_778
10
19.2291511
20
37.9678882
11
19.2291511
21
36.3877882
0
ARC
8
DEFAULT_255_2_778
10
15.671882
20
41.4902043
40
1.6177224
50
151.8422222
51
180.0873324
0
ARC
8
DEFAULT_255_2_778
10
15.679764
20
41.4865605
40
1.6263911
50
98.5995563
51
151.8600801
0
ARC
8
DEFAULT_255_2_778
10
15.6785385
20
41.4747833
40
1.6378552
50
89.9817031
51
98.4955638
0
ARC
8
DEFAULT_255_2_778
10
15.6815217
20
41.4946175
40
1.6180229
50
62.1931218
51
90.087118
0
ARC
8
DEFAULT_255_2_778
10
15.6779521
20
41.4869953
40
1.6264303
50
8.6485674
51
62.2071531
0
ARC
8
DEFAULT_255_2_778
10
15.6662778
20
41.488263
40
1.6377839
50
359.981651
51
8.5433085
0
ARC
8
DEFAULT_255_2_778
10
15.6860735
20
41.485275
40
1.6179899
50
332.1926321
51
0.0872357
0
ARC
8
DEFAULT_255_2_778
10
15.6783932
20
41.4888999
40
1.6264743
50
278.6465625
51
332.205897
0
ARC
8
DEFAULT_255_2_778
10
15.6795871
20
41.5008451
40
1.6381067
50
269.981616
51
278.5424654
0
ARC
8
DEFAULT_255_2_778
10
15.6765933
20
41.4804269
40
1.6176903
50
241.8417123
51
270.0874202
0
ARC
8
DEFAULT_255_2_778
10
15.6802929
20
41.4883669
40
1.6264365
50
188.5975683
51
241.8588041
0
ARC
8
DEFAULT_255_2_778
10
15.6923404
20
41.4872144
40
1.6381789
50
179.9816683
51
188.4947209
0
LINE
8
DEFAULT_255_2_778
10
14.0541615
20
41.4877385
11
14.0541615
21
41.4877385
0
ARC
8
DEFAULT_255_2_778
10
15.6792676
20
37.1176472
40
1.410141
50
37.0812903
51
90.0006706
0
ARC
8
DEFAULT_255_2_778
10
15.6791638
20
37.1177891
40
1.4099991
50
89.9964539
51
142.9215758
0
LINE
8
DEFAULT_255_2_778
10
14.2290511
20
36.3877882
11
17.1291511
21
36.3877882
0
LINE
8
DEFAULT_255_2_778
10
17.1291511
20
36.3877882
11
17.1291511
21
37.9678882
0
LINE
8
DEFAULT_255_2_778
10
17.1291511
20
37.9678882
11
16.8042511
21
37.9678882
0
LINE
8
DEFAULT_255_2_778
10
14.5542511
20
37.9678882
11
14.2293511
21
37.9678882
0
LINE
8
DEFAULT_255_2_778
10
14.2293511
20
37.9678882
11
14.2293511
21
36.3877882
0
ARC
8
DEFAULT_255_2_778
10
20.671982
20
33.9903043
40
1.6177224
50
151.8422222
51
180.0873324
0
ARC
8
DEFAULT_255_2_778
10
20.679864
20
33.9866605
40
1.6263911
50
98.5995563
51
151.8600801
0
ARC
8
DEFAULT_255_2_778
10
20.6786385
20
33.9748833
40
1.6378552
50
89.9817031
51
98.4955638
0
ARC
8
DEFAULT_255_2_778
10
20.6816217
20
33.9947175
40
1.6180229
50
62.1931218
51
90.087118
0
ARC
8
DEFAULT_255_2_778
10
20.6780521
20
33.9870953
40
1.6264303
50
8.6485674
51
62.2071531
0
ARC
8
DEFAULT_255_2_778
10
20.6663778
20
33.988363
40
1.6377839
50
359.981651
51
8.5433085
0
ARC
8
DEFAULT_255_2_778
10
20.6861735
20
33.985375
40
1.6179899
50
332.1926321
51
0.0872357
0
ARC
8
DEFAULT_255_2_778
10
20.6784932
20
33.9889999
40
1.6264743
50
278.6465625
51
332.205897
0
ARC
8
DEFAULT_255_2_778
10
20.6796871
20
34.0009451
40
1.6381067
50
269.981616
51
278.5424654
0
ARC
8
DEFAULT_255_2_778
10
20.6766933
20
33.9805269
40
1.6176903
50
241.8417123
51
270.0874202
0
ARC
8
DEFAULT_255_2_778
10
20.6803929
20
33.9884669
40
1.6264365
50
188.5975683
51
241.8588041
0
ARC
8
DEFAULT_255_2_778
10
20.6924404
20
33.9873144
40
1.6381789
50
179.9816683
51
188.4947209
0
LINE
8
DEFAULT_255_2_778
10
19.0542615
20
33.9878385
11
19.0542615
21
33.9878385
0
ARC
8
DEFAULT_255_2_778
10
20.6793676
20
29.6175472
40
1.410141
50
37.0812903
51
90.0006706
0
ARC
8
DEFAULT_255_2_778
10
20.6792638
20
29.6176891
40
1.4099991
50
89.9964539
51
142.9215758
0
LINE
8
DEFAULT_255_2_778
10
22.1292511
20
30.4677882
11
21.8043511
21
30.4677882
0
LINE
8
DEFAULT_255_2_778
10
19.5543511
20
30.4677882
11
19.2291511
21
30.4677882
0
LINE
8
DEFAULT_255_2_778
10
19.2291511
20
30.4677882
11
19.2291511
21
28.8876882
0
LINE
8
DEFAULT_255_2_778
10
19.2291511
20
28.8876882
11
22.1292511
21
28.8876882
0
LINE
8
DEFAULT_255_2_778
10
22.1292511
20
28.8876882
11
22.1292511
21
30.4677882
0
ARC
8
DEFAULT_255_2_778
10
15.671882
20
33.9903043
40
1.6177224
50
151.8422222
51
180.0873324
0
ARC
8
DEFAULT_255_2_778
10
15.679764
20
33.9866605
40
1.6263911
50
98.5995563
51
151.8600801
0
ARC
8
DEFAULT_255_2_778
10
15.6785385
20
33.9748833
40
1.6378552
50
89.9817031
51
98.4955638
0
ARC
8
DEFAULT_255_2_778
10
15.6815217
20
33.9947175
40
1.6180229
50
62.1931218
51
90.087118
0
ARC
8
DEFAULT_255_2_778
10
15.6779521
20
33.9870953
40
1.6264303
50
8.6485674
51
62.2071531
0
ARC
8
DEFAULT_255_2_778
10
15.6662778
20
33.988363
40
1.6377839
50
359.981651
51
8.5433085
0
ARC
8
DEFAULT_255_2_778
10
15.6860735
20
33.985375
40
1.6179899
50
332.1926321
51
0.0872357
0
ARC
8
DEFAULT_255_2_778
10
15.6783932
20
33.9889999
40
1.6264743
50
278.6465625
51
332.205897
0
ARC
8
DEFAULT_255_2_778
10
15.6795871
20
34.0009451
40
1.6381067
50
269.981616
51
278.5424654
0
ARC
8
DEFAULT_255_2_778
10
15.6765933
20
33.9805269
40
1.6176903
50
241.8417123
51
270.0874202
0
ARC
8
DEFAULT_255_2_778
10
15.6802929
20
33.9884669
40
1.6264365
50
188.5975683
51
241.8588041
0
ARC
8
DEFAULT_255_2_778
10
15.6923404
20
33.9873144
40
1.6381789
50
179.9816683
51
188.4947209
0
LINE
8
DEFAULT_255_2_778
10
14.0541615
20
33.9878385
11
14.0541615
21
33.9878385
0
ARC
8
DEFAULT_255_2_778
10
15.6792676
20
29.617834
40
1.410141
50
37.0812903
51
90.0006706
0
ARC
8
DEFAULT_255_2_778
10
15.6791638
20
29.6179759
40
1.4099991
50
89.9964539
51
142.9215758
0
LINE
8
DEFAULT_255_2_778
10
14.2290511
20
28.888075
11
17.1291511
21
28.888075
0
LINE
8
DEFAULT_255_2_778
10
17.1291511
20
28.888075
11
17.1291511
21
30.468075
0
LINE
8
DEFAULT_255_2_778
10
17.1291511
20
30.468075
11
16.8042511
21
30.468075
0
LINE
8
DEFAULT_255_2_778
10
14.5542511
20
30.468075
11
14.2293511
21
30.468075
0
LINE
8
DEFAULT_255_2_778
10
14.2293511
20
30.468075
11
14.2293511
21
28.888075
0
ARC
8
DEFAULT_255_2_778
10
20.671982
20
26.4902043
40
1.6177224
50
151.8422222
51
180.0873324
0
ARC
8
DEFAULT_255_2_778
10
20.679864
20
26.4865605
40
1.6263911
50
98.5995563
51
151.8600801
0
ARC
8
DEFAULT_255_2_778
10
20.6786385
20
26.4747833
40
1.6378552
50
89.9817031
51
98.4955638
0
ARC
8
DEFAULT_255_2_778
10
20.6816217
20
26.4946175
40
1.6180229
50
62.1931218
51
90.087118
0
ARC
8
DEFAULT_255_2_778
10
20.6780521
20
26.4869953
40
1.6264303
50
8.6485674
51
62.2071531
0
ARC
8
DEFAULT_255_2_778
10
20.6663778
20
26.488263
40
1.6377839
50
359.981651
51
8.5433085
0
ARC
8
DEFAULT_255_2_778
10
20.6861735
20
26.485275
40
1.6179899
50
332.1926321
51
0.0872357
0
ARC
8
DEFAULT_255_2_778
10
20.6784932
20
26.4888999
40
1.6264743
50
278.6465625
51
332.205897
0
ARC
8
DEFAULT_255_2_778
10
20.6796871
20
26.5008451
40
1.6381067
50
269.981616
51
278.5424654
0
ARC
8
DEFAULT_255_2_778
10
20.6766933
20
26.4804269
40
1.6176903
50
241.8417123
51
270.0874202
0
ARC
8
DEFAULT_255_2_778
10
20.6803929
20
26.4883669
40
1.6264365
50
188.5975683
51
241.8588041
0
ARC
8
DEFAULT_255_2_778
10
20.6924404
20
26.4872144
40
1.6381789
50
179.9816683
51
188.4947209
0
LINE
8
DEFAULT_255_2_778
10
19.0542615
20
26.4877385
11
19.0542615
21
26.4877385
0
ARC
8
DEFAULT_255_2_778
10
20.6793676
20
22.1176472
40
1.410141
50
37.0812903
51
90.0006706
0
ARC
8
DEFAULT_255_2_778
10
20.6792638
20
22.1177891
40
1.4099991
50
89.9964539
51
142.9215758
0
LINE
8
DEFAULT_255_2_778
10
19.2291511
20
21.3877882
11
22.1292511
21
21.3877882
0
LINE
8
DEFAULT_255_2_778
10
22.1292511
20
21.3877882
11
22.1292511
21
22.9678882
0
LINE
8
DEFAULT_255_2_778
10
22.1292511
20
22.9678882
11
21.8043511
21
22.9678882
0
LINE
8
DEFAULT_255_2_778
10
19.5543511
20
22.9678882
11
19.2291511
21
22.9678882
0
LINE
8
DEFAULT_255_2_778
10
19.2291511
20
22.9678882
11
19.2291511
21
21.3877882
0
ARC
8
DEFAULT_255_2_778
10
15.671882
20
26.4902043
40
1.6177224
50
151.8422222
51
180.0873324
0
ARC
8
DEFAULT_255_2_778
10
15.679764
20
26.4865605
40
1.6263911
50
98.5995563
51
151.8600801
0
ARC
8
DEFAULT_255_2_778
10
15.6785385
20
26.4747833
40
1.6378552
50
89.9817031
51
98.4955638
0
ARC
8
DEFAULT_255_2_778
10
15.6815217
20
26.4946175
40
1.6180229
50
62.1931218
51
90.087118
0
ARC
8
DEFAULT_255_2_778
10
15.6779521
20
26.4869953
40
1.6264303
50
8.6485674
51
62.2071531
0
ARC
8
DEFAULT_255_2_778
10
15.6662778
20
26.488263
40
1.6377839
50
359.981651
51
8.5433085
0
ARC
8
DEFAULT_255_2_778
10
15.6860735
20
26.485275
40
1.6179899
50
332.1926321
51
0.0872357
0
ARC
8
DEFAULT_255_2_778
10
15.6783932
20
26.4888999
40
1.6264743
50
278.6465625
51
332.205897
0
ARC
8
DEFAULT_255_2_778
10
15.6795871
20
26.5008451
40
1.6381067
50
269.981616
51
278.5424654
0
ARC
8
DEFAULT_255_2_778
10
15.6765933
20
26.4804269
40
1.6176903
50
241.8417123
51
270.0874202
0
ARC
8
DEFAULT_255_2_778
10
15.6802929
20
26.4883669
40
1.6264365
50
188.5975683
51
241.8588041
0
ARC
8
DEFAULT_255_2_778
10
15.6923404
20
26.4872144
40
1.6381789
50
179.9816683
51
188.4947209
0
LINE
8
DEFAULT_255_2_778
10
14.0541615
20
26.4877385
11
14.0541615
21
26.4877385
0
ARC
8
DEFAULT_255_2_778
10
15.6792676
20
22.1176472
40
1.410141
50
37.0812903
51
90.0006706
0
ARC
8
DEFAULT_255_2_778
10
15.6791638
20
22.1177891
40
1.4099991
50
89.9964539
51
142.9215758
0
LINE
8
DEFAULT_255_2_778
10
14.2290511
20
21.3877882
11
17.1291511
21
21.3877882
0
LINE
8
DEFAULT_255_2_778
10
17.1291511
20
21.3877882
11
17.1291511
21
22.9678882
0
LINE
8
DEFAULT_255_2_778
10
17.1291511
20
22.9678882
11
16.8042511
21
22.9678882
0
LINE
8
DEFAULT_255_2_778
10
14.5542511
20
22.9678882
11
14.2293511
21
22.9678882
0
LINE
8
DEFAULT_255_2_778
10
14.2293511
20
22.9678882
11
14.2293511
21
21.3877882
0
ARC
8
DEFAULT_255_2_778
10
20.671982
20
18.9903043
40
1.6177224
50
151.8422222
51
180.0873324
0
ARC
8
DEFAULT_255_2_778
10
20.679864
20
18.9866605
40
1.6263911
50
98.5995563
51
151.8600801
0
ARC
8
DEFAULT_255_2_778
10
20.6786385
20
18.9748833
40
1.6378552
50
89.9817031
51
98.4955638
0
ARC
8
DEFAULT_255_2_778
10
20.6816217
20
18.9947175
40
1.6180229
50
62.1931218
51
90.087118
0
ARC
8
DEFAULT_255_2_778
10
20.6780521
20
18.9870953
40
1.6264303
50
8.6485674
51
62.2071531
0
ARC
8
DEFAULT_255_2_778
10
20.6663778
20
18.988363
40
1.6377839
50
359.981651
51
8.5433085
0
ARC
8
DEFAULT_255_2_778
10
20.6861735
20
18.985375
40
1.6179899
50
332.1926321
51
0.0872357
0
ARC
8
DEFAULT_255_2_778
10
20.6784932
20
18.9889999
40
1.6264743
50
278.6465625
51
332.205897
0
ARC
8
DEFAULT_255_2_778
10
20.6796871
20
19.0009451
40
1.6381067
50
269.981616
51
278.5424654
0
ARC
8
DEFAULT_255_2_778
10
20.6766933
20
18.9805269
40
1.6176903
50
241.8417123
51
270.0874202
0
ARC
8
DEFAULT_255_2_778
10
20.6803929
20
18.9884669
40
1.6264365
50
188.5975683
51
241.8588041
0
ARC
8
DEFAULT_255_2_778
10
20.6924404
20
18.9873144
40
1.6381789
50
179.9816683
51
188.4947209
0
LINE
8
DEFAULT_255_2_778
10
19.0542615
20
18.9878385
11
19.0542615
21
18.9878385
0
ARC
8
DEFAULT_255_2_778
10
20.6793676
20
14.6177472
40
1.410141
50
37.0812903
51
90.0006706
0
ARC
8
DEFAULT_255_2_778
10
20.6792638
20
14.6178891
40
1.4099991
50
89.9964539
51
142.9215758
0
LINE
8
DEFAULT_255_2_778
10
19.2291511
20
13.8878882
11
22.1292511
21
13.8878882
0
LINE
8
DEFAULT_255_2_778
10
22.1292511
20
13.8878882
11
22.1292511
21
15.4679882
0
LINE
8
DEFAULT_255_2_778
10
22.1292511
20
15.4679882
11
21.8043511
21
15.4679882
0
LINE
8
DEFAULT_255_2_778
10
19.5543511
20
15.4679882
11
19.2291511
21
15.4679882
0
LINE
8
DEFAULT_255_2_778
10
19.2291511
20
15.4679882
11
19.2291511
21
13.8878882
0
ARC
8
DEFAULT_255_2_778
10
15.671882
20
18.9903043
40
1.6177224
50
151.8422222
51
180.0873324
0
ARC
8
DEFAULT_255_2_778
10
15.679764
20
18.9866605
40
1.6263911
50
98.5995563
51
151.8600801
0
ARC
8
DEFAULT_255_2_778
10
15.6785385
20
18.9748833
40
1.6378552
50
89.9817031
51
98.4955638
0
ARC
8
DEFAULT_255_2_778
10
15.6815217
20
18.9947175
40
1.6180229
50
62.1931218
51
90.087118
0
ARC
8
DEFAULT_255_2_778
10
15.6779521
20
18.9870953
40
1.6264303
50
8.6485674
51
62.2071531
0
ARC
8
DEFAULT_255_2_778
10
15.6662778
20
18.988363
40
1.6377839
50
359.981651
51
8.5433085
0
ARC
8
DEFAULT_255_2_778
10
15.6860735
20
18.985375
40
1.6179899
50
332.1926321
51
0.0872357
0
ARC
8
DEFAULT_255_2_778
10
15.6783932
20
18.9889999
40
1.6264743
50
278.6465625
51
332.205897
0
ARC
8
DEFAULT_255_2_778
10
15.6795871
20
19.0009451
40
1.6381067
50
269.981616
51
278.5424654
0
ARC
8
DEFAULT_255_2_778
10
15.6765933
20
18.9805269
40
1.6176903
50
241.8417123
51
270.0874202
0
ARC
8
DEFAULT_255_2_778
10
15.6802929
20
18.9884669
40
1.6264365
50
188.5975683
51
241.8588041
0
ARC
8
DEFAULT_255_2_778
10
15.6923404
20
18.9873144
40
1.6381789
50
179.9816683
51
188.4947209
0
LINE
8
DEFAULT_255_2_778
10
14.0541615
20
18.9878385
11
14.0541615
21
18.9878385
0
ARC
8
DEFAULT_255_2_778
10
15.6792676
20
14.6177472
40
1.410141
50
37.0812903
51
90.0006706
0
ARC
8
DEFAULT_255_2_778
10
15.6791638
20
14.6178891
40
1.4099991
50
89.9964539
51
142.9215758
0
LINE
8
DEFAULT_255_2_778
10
14.2290511
20
13.8878882
11
17.1291511
21
13.8878882
0
LINE
8
DEFAULT_255_2_778
10
17.1291511
20
13.8878882
11
17.1291511
21
15.4679882
0
LINE
8
DEFAULT_255_2_778
10
17.1291511
20
15.4679882
11
16.8042511
21
15.4679882
0
LINE
8
DEFAULT_255_2_778
10
14.5542511
20
15.4679882
11
14.2293511
21
15.4679882
0
LINE
8
DEFAULT_255_2_778
10
14.2293511
20
15.4679882
11
14.2293511
21
13.8878882
0
ARC
8
DEFAULT_255_2_778
10
20.671982
20
11.4902043
40
1.6177224
50
151.8422222
51
180.0873324
0
ARC
8
DEFAULT_255_2_778
10
20.679864
20
11.4865605
40
1.6263911
50
98.5995563
51
151.8600801
0
ARC
8
DEFAULT_255_2_778
10
20.6786385
20
11.4747833
40
1.6378552
50
89.9817031
51
98.4955638
0
ARC
8
DEFAULT_255_2_778
10
20.6816217
20
11.4946175
40
1.6180229
50
62.1931218
51
90.087118
0
ARC
8
DEFAULT_255_2_778
10
20.6780521
20
11.4869953
40
1.6264303
50
8.6485674
51
62.2071531
0
ARC
8
DEFAULT_255_2_778
10
20.6663778
20
11.488263
40
1.6377839
50
359.981651
51
8.5433085
0
ARC
8
DEFAULT_255_2_778
10
20.6861735
20
11.485275
40
1.6179899
50
332.1926321
51
0.0872357
0
ARC
8
DEFAULT_255_2_778
10
20.6784932
20
11.4888999
40
1.6264743
50
278.6465625
51
332.205897
0
ARC
8
DEFAULT_255_2_778
10
20.6796871
20
11.5008451
40
1.6381067
50
269.981616
51
278.5424654
0
ARC
8
DEFAULT_255_2_778
10
20.6766933
20
11.4804269
40
1.6176903
50
241.8417123
51
270.0874202
0
ARC
8
DEFAULT_255_2_778
10
20.6803929
20
11.4883669
40
1.6264365
50
188.5975683
51
241.8588041
0
ARC
8
DEFAULT_255_2_778
10
20.6924404
20
11.4872144
40
1.6381789
50
179.9816683
51
188.4947209
0
LINE
8
DEFAULT_255_2_778
10
19.0542615
20
11.4877385
11
19.0542615
21
11.4877385
0
ARC
8
DEFAULT_255_2_778
10
15.671882
20
11.4902043
40
1.6177224
50
151.8422222
51
180.0873324
0
ARC
8
DEFAULT_255_2_778
10
15.679764
20
11.4865605
40
1.6263911
50
98.5995563
51
151.8600801
0
ARC
8
DEFAULT_255_2_778
10
15.6785385
20
11.4747833
40
1.6378552
50
89.9817031
51
98.4955638
0
ARC
8
DEFAULT_255_2_778
10
15.6815217
20
11.4946175
40
1.6180229
50
62.1931218
51
90.087118
0
ARC
8
DEFAULT_255_2_778
10
15.6779521
20
11.4869953
40
1.6264303
50
8.6485674
51
62.2071531
0
ARC
8
DEFAULT_255_2_778
10
15.6662778
20
11.488263
40
1.6377839
50
359.981651
51
8.5433085
0
ARC
8
DEFAULT_255_2_778
10
15.6860735
20
11.485275
40
1.6179899
50
332.1926321
51
0.0872357
0
ARC
8
DEFAULT_255_2_778
10
15.6783932
20
11.4888999
40
1.6264743
50
278.6465625
51
332.205897
0
ARC
8
DEFAULT_255_2_778
10
15.6795871
20
11.5008451
40
1.6381067
50
269.981616
51
278.5424654
0
ARC
8
DEFAULT_255_2_778
10
15.6765933
20
11.4804269
40
1.6176903
50
241.8417123
51
270.0874202
0
ARC
8
DEFAULT_255_2_778
10
15.6802929
20
11.4883669
40
1.6264365
50
188.5975683
51
241.8588041
0
ARC
8
DEFAULT_255_2_778
10
15.6923404
20
11.4872144
40
1.6381789
50
179.9816683
51
188.4947209
0
LINE
8
DEFAULT_255_2_778
10
14.0541615
20
11.4877385
11
14.0541615
21
11.4877385
0
ENDSEC
0
EOF