0
SECTION
2
HEADER
9
$MEASUREMENT
70
1
0
ENDSEC
0
SECTION
2
TABLES
0
TABLE
2
LTYPE
0
LTYPE
72
65
70
64
2
CONTINUOUS
3
______
73
0
40
0
0
ENDTAB
0
TABLE
2
LAYER
0
LAYER
2
DEFAULT_255_2_778
70
0
62
255
6
CONTINUOUS
0
ENDTAB
0
ENDSEC
0
SECTION
2
ENTITIES
0
LINE
8
DEFAULT_255_2_778
10
8.726045
20
91.5188923
11
9.925945
21
91.5188923
0
LINE
8
DEFAULT_255_2_778
10
9.925945
20
91.5188923
11
9.925945
21
92.9187923
0
LINE
8
DEFAULT_255_2_778
10
9.925945
20
92.9187923
11
8.726045
21
92.9187923
0
LINE
8
DEFAULT_255_2_778
10
8.726045
20
92.9187923
11
8.726045
21
91.5188923
0
LINE
8
DEFAULT_255_2_778
10
10.726045
20
76.1126923
11
10.726045
21
80.4428923
0
LINE
8
DEFAULT_255_2_778
10
10.726045
20
79.1929923
11
10.926045
21
79.1929923
0
LINE
8
DEFAULT_255_2_778
10
10.926045
20
79.5768923
11
11.926145
21
79.5768923
0
LINE
8
DEFAULT_255_2_778
10
10.125945
20
72.5278923
11
10.125945
21
73.6277923
0
LINE
8
DEFAULT_255_2_778
10
3.226145
20
80.4428923
11
3.226145
21
76.1126923
0
LINE
8
DEFAULT_255_2_778
10
2.026045
20
79.1929923
11
3.225845
21
79.1929923
0
LINE
8
DEFAULT_255_2_778
10
2.326045
20
72.5278923
11
2.326045
21
73.6277923
0
LINE
8
DEFAULT_255_2_778
10
2.026045
20
75.5186923
11
1.725945
21
75.5186923
0
LINE
8
DEFAULT_255_2_778
10
0.226045
20
96.8186923
11
12.225945
21
96.8186923
0
LINE
8
DEFAULT_255_2_778
10
11.876145
20
101.3187923
11
11.876145
21
102.8186923
0
LINE
8
DEFAULT_255_2_778
10
11.876145
20
102.8186923
11
12.976045
21
102.8186923
0
LINE
8
DEFAULT_255_2_778
10
12.976045
20
102.8186923
11
12.976045
21
101.3187923
0
LINE
8
DEFAULT_255_2_778
10
8.526045
20
1.3186923
11
14.325945
21
1.3186923
0
LINE
8
DEFAULT_255_2_778
10
14.325945
20
1.3186923
11
14.325945
21
3.7687923
0
LINE
8
DEFAULT_255_2_778
10
14.325945
20
3.7687923
11
13.325845
21
3.7687923
0
LINE
8
DEFAULT_255_2_778
10
13.325845
20
3.7687923
11
13.325845
21
2.2687923
0
LINE
8
DEFAULT_255_2_778
10
13.325845
20
2.2687923
11
12.225945
21
2.2687923
0
LINE
8
DEFAULT_255_2_778
10
10.7260971
20
1.3189239
11
10.7260971
21
4.1479239
0
LINE
8
DEFAULT_255_2_778
10
1.1761971
20
4.1479239
11
1.1761971
21
2.4688239
0
LINE
8
DEFAULT_255_2_778
10
1.1761971
20
2.4688239
11
1.0261971
21
2.4688239
0
LINE
8
DEFAULT_255_2_778
10
4.3260971
20
1.3189239
11
2.5260971
21
1.3189239
0
LINE
8
DEFAULT_255_2_778
10
2.5260971
20
1.3189239
11
2.5260971
21
4.1479239
0
LINE
8
DEFAULT_255_2_778
10
11.8761971
20
1.3187239
11
11.8761971
21
-0.1811761
0
LINE
8
DEFAULT_255_2_778
10
11.8761971
20
-0.1811761
11
12.9760971
21
-0.1811761
0
LINE
8
DEFAULT_255_2_778
10
12.9760971
20
-0.1811761
11
12.9760971
21
1.3187239
0
LINE
8
DEFAULT_255_2_778
10
7.8759971
20
1.1427239
11
7.8759971
21
-0.1811761
0
LINE
8
DEFAULT_255_2_778
10
7.8759971
20
-0.1811761
11
6.7760971
21
-0.1811761
0
LINE
8
DEFAULT_255_2_778
10
6.7760971
20
-0.1811761
11
6.7760971
21
1.1427239
0
LINE
8
DEFAULT_255_2_778
10
0.2260971
20
5.7478239
11
12.2259971
21
5.7478239
0
LINE
8
DEFAULT_255_2_778
10
1.026145
20
4.1478871
11
4.326045
21
4.1478871
0
LINE
8
DEFAULT_255_2_778
10
8.526045
20
4.1478871
11
12.225945
21
4.1478871
0
LINE
8
DEFAULT_255_2_778
10
14.325945
20
1.7689871
11
12.225945
21
1.7689871
0
LINE
8
DEFAULT_255_2_778
10
12.225945
20
1.7689871
11
12.225945
21
99.3687871
0
LINE
8
DEFAULT_255_2_778
10
12.225945
20
99.3687871
11
13.325845
21
99.3687871
0
LINE
8
DEFAULT_255_2_778
10
13.325845
20
99.3687871
11
13.325845
21
97.8688871
0
LINE
8
DEFAULT_255_2_778
10
13.325845
20
97.8688871
11
14.325945
21
97.8688871
0
LINE
8
DEFAULT_255_2_778
10
14.325945
20
97.8688871
11
14.325945
21
101.3187871
0
LINE
8
DEFAULT_255_2_778
10
14.325945
20
101.3187871
11
2.526045
21
101.3187871
0
LINE
8
DEFAULT_255_2_778
10
2.526045
20
101.3187871
11
2.526045
21
97.6187871
0
LINE
8
DEFAULT_255_2_778
10
2.526045
20
97.6187871
11
1.176145
21
97.6187871
0
LINE
8
DEFAULT_255_2_778
10
1.176145
20
97.6187871
11
1.176145
21
99.1687871
0
LINE
8
DEFAULT_255_2_778
10
1.176145
20
99.1687871
11
0.226045
21
99.1687871
0
LINE
8
DEFAULT_255_2_778
10
0.226045
20
99.1687871
11
0.226045
21
2.2777871
0
LINE
8
DEFAULT_255_2_778
10
0.226045
20
2.2777871
11
1.026145
21
2.2777871
0
LINE
8
DEFAULT_255_2_778
10
1.026145
20
2.2777871
11
1.026145
21
5.7477871
0
LINE
8
DEFAULT_255_2_778
10
10.526045
20
3.3189871
11
10.526045
21
4.1478871
0
LINE
8
DEFAULT_255_2_778
10
10.726045
20
101.3187871
11
10.726045
21
104.3188871
0
LINE
8
DEFAULT_255_2_778
10
10.726045
20
104.3188871
11
9.226145
21
105.8187871
0
LINE
8
DEFAULT_255_2_778
10
9.226145
20
105.8187871
11
4.226045
21
105.8187871
0
LINE
8
DEFAULT_255_2_778
10
4.226045
20
105.8187871
11
2.726045
21
104.3188871
0
LINE
8
DEFAULT_255_2_778
10
2.726045
20
104.3188871
11
2.726045
21
101.3187871
0
LINE
8
DEFAULT_255_2_778
10
10.125945
20
72.9511871
11
2.326045
21
72.9511871
0
LINE
8
DEFAULT_255_2_778
10
2.126045
20
73.6276871
11
2.126045
21
72.5278871
0
LINE
8
DEFAULT_255_2_778
10
2.126045
20
72.5278871
11
10.325945
21
72.5278871
0
LINE
8
DEFAULT_255_2_778
10
10.325945
20
72.5278871
11
10.325945
21
73.6276871
0
LINE
8
DEFAULT_255_2_778
10
11.925945
20
75.1276871
11
2.026045
21
75.1276871
0
LINE
8
DEFAULT_255_2_778
10
11.9259428
20
73.6279582
11
2.0260428
21
73.6279582
0
LINE
8
DEFAULT_255_2_778
10
2.0260428
20
73.6279582
11
2.0260428
21
81.4278582
0
LINE
8
DEFAULT_255_2_778
10
2.0260428
20
81.4278582
11
11.9259428
21
81.4278582
0
LINE
8
DEFAULT_255_2_778
10
11.9259428
20
81.4278582
11
11.9259428
21
73.6279582
0
LINE
8
DEFAULT_255_2_778
10
11.9259106
20
76.1126239
11
3.0261106
21
76.1126239
0
LINE
8
DEFAULT_255_2_778
10
3.0261106
20
76.1126239
11
3.0261106
21
76.9786239
0
LINE
8
DEFAULT_255_2_778
10
3.0261106
20
76.9786239
11
2.0260106
21
76.9786239
0
LINE
8
DEFAULT_255_2_778
10
2.0260106
20
80.4428239
11
10.9261106
21
80.4428239
0
LINE
8
DEFAULT_255_2_778
10
10.9261106
20
80.4428239
11
10.9261106
21
78.3267239
0
LINE
8
DEFAULT_255_2_778
10
10.9261106
20
78.3267239
11
11.9262106
21
78.3267239
0
LINE
8
DEFAULT_255_2_778
10
8.5260106
20
2.3188239
11
10.7260106
21
2.3188239
0
LINE
8
DEFAULT_255_2_778
10
10.7260439
20
3.3187125
11
8.5260439
21
3.3187125
0
LINE
8
DEFAULT_255_2_778
10
12.2259439
20
74.1278125
11
11.9259439
21
74.1278125
0
LINE
8
DEFAULT_255_2_778
10
11.9259439
20
74.3188125
11
12.2259439
21
74.3188125
0
LINE
8
DEFAULT_255_2_778
10
2.0260439
20
74.1278125
11
0.2260439
21
74.1278125
0
LINE
8
DEFAULT_255_2_778
10
0.2260439
20
74.3188125
11
1.7259439
21
74.3188125
0
LINE
8
DEFAULT_255_2_778
10
1.7259439
20
74.3188125
11
1.7259439
21
77.5187125
0
LINE
8
DEFAULT_255_2_778
10
1.7259439
20
77.5187125
11
2.0260439
21
77.5187125
0
LINE
8
DEFAULT_255_2_778
10
4.3260439
20
3.2279125
11
8.5260439
21
3.2279125
0
LINE
8
DEFAULT_255_2_778
10
4.3260439
20
1.8979125
11
8.5260439
21
1.8979125
0
LINE
8
DEFAULT_255_2_778
10
4.3260605
20
5.7477663
11
4.3260605
21
1.1427663
0
LINE
8
DEFAULT_255_2_778
10
4.3260605
20
1.1427663
11
8.5260605
21
1.1427663
0
LINE
8
DEFAULT_255_2_778
10
8.5260605
20
1.1427663
11
8.5260605
21
5.7477663
0
LINE
8
DEFAULT_255_2_778
10
3.5759605
20
100.8366663
11
3.5759605
21
97.3010663
0
LINE
8
DEFAULT_255_2_778
10
3.5759605
20
97.3010663
11
11.0758605
21
97.3010663
0
LINE
8
DEFAULT_255_2_778
10
11.0758605
20
97.3010663
11
3.5759605
21
97.3010663
0
LINE
8
DEFAULT_255_2_778
10
3.5759605
20
97.3010663
11
3.5759605
21
100.8366663
0
LINE
8
DEFAULT_255_2_778
10
3.5759605
20
100.8366663
11
11.0758605
21
100.8366663
0
LINE
8
DEFAULT_255_2_778
10
11.0758605
20
100.8366663
11
11.0758605
21
97.3010663
0
LINE
8
DEFAULT_255_2_778
10
11.0758605
20
97.3010663
11
11.0758605
21
100.8366663
0
LINE
8
DEFAULT_255_2_778
10
11.0758605
20
100.8366663
11
3.5759605
21
100.8366663
0
LINE
8
DEFAULT_255_2_778
10
6.7760605
20
101.3187663
11
6.7760605
21
102.8186663
0
LINE
8
DEFAULT_255_2_778
10
6.7760605
20
102.8186663
11
7.8759605
21
102.8186663
0
LINE
8
DEFAULT_255_2_778
10
7.8759605
20
102.8186663
11
7.8759605
21
101.3187663
0
ARC
8
DEFAULT_255_2_778
10
3.7242107
20
48.9907488
40
1.6230195
50
179.9962003
51
180.1026273
0
ARC
8
DEFAULT_255_2_778
10
3.7231901
20
48.9909848
40
1.6219991
50
135.0034838
51
180.0045353
0
ARC
8
DEFAULT_255_2_778
10
3.7231849
20
48.9908626
40
1.6220819
50
89.9966758
51
135.0003015
0
ARC
8
DEFAULT_255_2_778
10
3.7233867
20
48.9899247
40
1.6230197
50
89.8973727
51
90.0037997
0
ARC
8
DEFAULT_255_2_778
10
3.728762
20
48.9952532
40
1.6176903
50
61.8417123
51
90.0874202
0
ARC
8
DEFAULT_255_2_778
10
3.7250624
20
48.9873133
40
1.6264365
50
8.5975683
51
61.8588041
0
ARC
8
DEFAULT_255_2_778
10
3.7130149
20
48.9884658
40
1.6381789
50
359.9816683
51
8.4947209
0
ARC
8
DEFAULT_255_2_778
10
3.7334733
20
48.9854758
40
1.6177224
50
331.8422222
51
0.0873324
0
ARC
8
DEFAULT_255_2_778
10
3.7255913
20
48.9891197
40
1.6263911
50
278.5995563
51
331.8600801
0
ARC
8
DEFAULT_255_2_778
10
3.7268168
20
49.0008968
40
1.6378552
50
269.9817031
51
278.4955638
0
ARC
8
DEFAULT_255_2_778
10
3.7233867
20
48.9860585
40
1.6230195
50
269.9962003
51
270.1026273
0
ARC
8
DEFAULT_255_2_778
10
3.7231849
20
48.9851207
40
1.6220819
50
224.9996985
51
270.0033242
0
ARC
8
DEFAULT_255_2_778
10
3.7231901
20
48.9849985
40
1.6219991
50
179.9954647
51
224.9965162
0
ARC
8
DEFAULT_255_2_778
10
3.7242107
20
48.9852345
40
1.6230197
50
179.8973727
51
180.0037997
0
LINE
8
DEFAULT_255_2_778
10
2.1011938
20
48.9881416
11
2.1011938
21
48.9878416
0
ARC
8
DEFAULT_255_2_778
10
3.7261098
20
44.6178326
40
1.4098555
50
37.0755236
51
90.0064508
0
ARC
8
DEFAULT_255_2_778
10
3.7258638
20
44.6176891
40
1.4099991
50
89.9964539
51
142.9215758
0
LINE
8
DEFAULT_255_2_778
10
2.6009511
20
45.4677882
11
2.2760511
21
45.4677882
0
LINE
8
DEFAULT_255_2_778
10
2.2760511
20
45.4677882
11
2.2760511
21
43.8876882
0
LINE
8
DEFAULT_255_2_778
10
2.2760511
20
43.8876882
11
5.1761511
21
43.8876882
0
LINE
8
DEFAULT_255_2_778
10
5.1761511
20
43.8876882
11
5.1761511
21
45.4677882
0
LINE
8
DEFAULT_255_2_778
10
5.1761511
20
45.4677882
11
4.8509511
21
45.4677882
0
ARC
8
DEFAULT_255_2_778
10
3.7242107
20
41.4905488
40
1.6230195
50
179.9962003
51
180.1026273
0
ARC
8
DEFAULT_255_2_778
10
3.7231901
20
41.4907848
40
1.6219991
50
135.0034838
51
180.0045353
0
ARC
8
DEFAULT_255_2_778
10
3.7231849
20
41.4906626
40
1.6220819
50
89.9966758
51
135.0003015
0
ARC
8
DEFAULT_255_2_778
10
3.7233867
20
41.4897247
40
1.6230197
50
89.8973727
51
90.0037997
0
ARC
8
DEFAULT_255_2_778
10
3.7287596
20
41.4950211
40
1.6177224
50
61.8422222
51
90.0873324
0
ARC
8
DEFAULT_255_2_778
10
3.7251158
20
41.4871392
40
1.6263911
50
8.5995563
51
61.8600801
0
ARC
8
DEFAULT_255_2_778
10
3.7133386
20
41.4883647
40
1.6378552
50
359.9817031
51
8.4955638
0
ARC
8
DEFAULT_255_2_778
10
3.7331728
20
41.4853814
40
1.6180229
50
332.1931218
51
0.087118
0
ARC
8
DEFAULT_255_2_778
10
3.7255506
20
41.488951
40
1.6264303
50
278.6485674
51
332.2071531
0
ARC
8
DEFAULT_255_2_778
10
3.7268183
20
41.5006254
40
1.6377839
50
269.981651
51
278.5433085
0
ARC
8
DEFAULT_255_2_778
10
3.7233867
20
41.4858585
40
1.6230195
50
269.9962003
51
270.1026273
0
ARC
8
DEFAULT_255_2_778
10
3.7231849
20
41.4849207
40
1.6220819
50
224.9996985
51
270.0033242
0
ARC
8
DEFAULT_255_2_778
10
3.7231901
20
41.4847985
40
1.6219991
50
179.9954647
51
224.9965162
0
ARC
8
DEFAULT_255_2_778
10
3.7242107
20
41.4850345
40
1.6230197
50
179.8973727
51
180.0037997
0
LINE
8
DEFAULT_255_2_778
10
2.1011938
20
41.4879416
11
2.1011938
21
41.4876416
0
ARC
8
DEFAULT_255_2_778
10
3.7242107
20
63.9907488
40
1.6230195
50
179.9962003
51
180.1026273
0
ARC
8
DEFAULT_255_2_778
10
3.7231901
20
63.9909848
40
1.6219991
50
135.0034838
51
180.0045353
0
ARC
8
DEFAULT_255_2_778
10
3.7231849
20
63.9908626
40
1.6220819
50
89.9966758
51
135.0003015
0
ARC
8
DEFAULT_255_2_778
10
3.7233867
20
63.9899247
40
1.6230197
50
89.8973727
51
90.0037997
0
ARC
8
DEFAULT_255_2_778
10
3.7287596
20
63.9952211
40
1.6177224
50
61.8422222
51
90.0873324
0
ARC
8
DEFAULT_255_2_778
10
3.7251158
20
63.9873392
40
1.6263911
50
8.5995563
51
61.8600801
0
ARC
8
DEFAULT_255_2_778
10
3.7133386
20
63.9885647
40
1.6378552
50
359.9817031
51
8.4955638
0
ARC
8
DEFAULT_255_2_778
10
3.7331728
20
63.9855814
40
1.6180229
50
332.1931218
51
0.087118
0
ARC
8
DEFAULT_255_2_778
10
3.7255506
20
63.989151
40
1.6264303
50
278.6485674
51
332.2071531
0
ARC
8
DEFAULT_255_2_778
10
3.7268183
20
64.0008254
40
1.6377839
50
269.981651
51
278.5433085
0
ARC
8
DEFAULT_255_2_778
10
3.7233867
20
63.9860585
40
1.6230195
50
269.9962003
51
270.1026273
0
ARC
8
DEFAULT_255_2_778
10
3.7231849
20
63.9851207
40
1.6220819
50
224.9996985
51
270.0033242
0
ARC
8
DEFAULT_255_2_778
10
3.7231901
20
63.9849985
40
1.6219991
50
179.9954647
51
224.9965162
0
ARC
8
DEFAULT_255_2_778
10
3.7242107
20
63.9852345
40
1.6230197
50
179.8973727
51
180.0037997
0
LINE
8
DEFAULT_255_2_778
10
2.1011938
20
63.9881416
11
2.1011938
21
63.9878416
0
ARC
8
DEFAULT_255_2_778
10
3.7261098
20
67.1180193
40
1.4098555
50
37.0755236
51
90.0064508
0
ARC
8
DEFAULT_255_2_778
10
3.7258638
20
67.1178759
40
1.4099991
50
89.9964539
51
142.9215758
0
LINE
8
DEFAULT_255_2_778
10
2.2760511
20
66.387975
11
5.1761511
21
66.387975
0
LINE
8
DEFAULT_255_2_778
10
5.1761511
20
66.387975
11
5.1761511
21
67.967975
0
LINE
8
DEFAULT_255_2_778
10
5.1761511
20
67.967975
11
4.8509511
21
67.967975
0
LINE
8
DEFAULT_255_2_778
10
2.6009511
20
67.967975
11
2.2760511
21
67.967975
0
LINE
8
DEFAULT_255_2_778
10
2.2760511
20
67.967975
11
2.2760511
21
66.387975
0
ARC
8
DEFAULT_255_2_778
10
8.7263676
20
67.1174472
40
1.410141
50
37.0812903
51
90.0006706
0
ARC
8
DEFAULT_255_2_778
10
8.7262638
20
67.1175891
40
1.4099991
50
89.9964539
51
142.9215758
0
LINE
8
DEFAULT_255_2_778
10
7.2761511
20
67.9676882
11
7.2761511
21
66.3875882
0
LINE
8
DEFAULT_255_2_778
10
7.2761511
20
66.3875882
11
10.1762511
21
66.3875882
0
LINE
8
DEFAULT_255_2_778
10
10.1762511
20
66.3875882
11
10.1762511
21
67.9676882
0
LINE
8
DEFAULT_255_2_778
10
10.1762511
20
67.9676882
11
9.8513511
21
67.9676882
0
LINE
8
DEFAULT_255_2_778
10
7.6013511
20
67.9676882
11
7.2764511
21
67.9676882
0
ARC
8
DEFAULT_255_2_778
10
8.718982
20
63.9904043
40
1.6177224
50
151.8422222
51
180.0873324
0
ARC
8
DEFAULT_255_2_778
10
8.726864
20
63.9867605
40
1.6263911
50
98.5995563
51
151.8600801
0
ARC
8
DEFAULT_255_2_778
10
8.7256385
20
63.9749833
40
1.6378552
50
89.9817031
51
98.4955638
0
ARC
8
DEFAULT_255_2_778
10
8.7286217
20
63.9948175
40
1.6180229
50
62.1931218
51
90.087118
0
ARC
8
DEFAULT_255_2_778
10
8.7250521
20
63.9871953
40
1.6264303
50
8.6485674
51
62.2071531
0
ARC
8
DEFAULT_255_2_778
10
8.7133778
20
63.988463
40
1.6377839
50
359.981651
51
8.5433085
0
ARC
8
DEFAULT_255_2_778
10
8.7331735
20
63.985475
40
1.6179899
50
332.1926321
51
0.0872357
0
ARC
8
DEFAULT_255_2_778
10
8.7254932
20
63.9890999
40
1.6264743
50
278.6465625
51
332.205897
0
ARC
8
DEFAULT_255_2_778
10
8.7266871
20
64.0010451
40
1.6381067
50
269.981616
51
278.5424654
0
ARC
8
DEFAULT_255_2_778
10
8.7236933
20
63.9806269
40
1.6176903
50
241.8417123
51
270.0874202
0
ARC
8
DEFAULT_255_2_778
10
8.7273929
20
63.9885669
40
1.6264365
50
188.5975683
51
241.8588041
0
ARC
8
DEFAULT_255_2_778
10
8.7394404
20
63.9874144
40
1.6381789
50
179.9816683
51
188.4947209
0
LINE
8
DEFAULT_255_2_778
10
7.1012615
20
63.9879385
11
7.1012615
21
63.9879385
0
ARC
8
DEFAULT_255_2_778
10
8.7263676
20
59.6175472
40
1.410141
50
37.0812903
51
90.0006706
0
ARC
8
DEFAULT_255_2_778
10
8.7262638
20
59.6176891
40
1.4099991
50
89.9964539
51
142.9215758
0
LINE
8
DEFAULT_255_2_778
10
7.2761511
20
58.8876882
11
10.1762511
21
58.8876882
0
LINE
8
DEFAULT_255_2_778
10
10.1762511
20
58.8876882
11
10.1762511
21
60.4677882
0
LINE
8
DEFAULT_255_2_778
10
10.1762511
20
60.4677882
11
9.8513511
21
60.4677882
0
LINE
8
DEFAULT_255_2_778
10
7.6013511
20
60.4677882
11
7.2764511
21
60.4677882
0
LINE
8
DEFAULT_255_2_778
10
7.2764511
20
60.4677882
11
7.2764511
21
58.8876882
0
ARC
8
DEFAULT_255_2_778
10
3.7261098
20
14.6180326
40
1.4098555
50
37.0755236
51
90.0064508
0
ARC
8
DEFAULT_255_2_778
10
3.7258638
20
14.6178891
40
1.4099991
50
89.9964539
51
142.9215758
0
LINE
8
DEFAULT_255_2_778
10
2.2760511
20
13.8878882
11
5.1761511
21
13.8878882
0
LINE
8
DEFAULT_255_2_778
10
5.1761511
20
13.8878882
11
5.1761511
21
15.4679882
0
LINE
8
DEFAULT_255_2_778
10
5.1761511
20
15.4679882
11
4.8509511
21
15.4679882
0
LINE
8
DEFAULT_255_2_778
10
2.6009511
20
15.4679882
11
2.2760511
21
15.4679882
0
LINE
8
DEFAULT_255_2_778
10
2.2760511
20
15.4679882
11
2.2760511
21
13.8878882
0
ARC
8
DEFAULT_255_2_778
10
3.7242107
20
11.4905488
40
1.6230195
50
179.9962003
51
180.1026273
0
ARC
8
DEFAULT_255_2_778
10
3.7235961
20
11.4907166
40
1.6224051
50
135.009422
51
180.0021282
0
ARC
8
DEFAULT_255_2_778
10
3.7232188
20
11.4903393
40
1.6224051
50
89.9978718
51
134.990578
0
ARC
8
DEFAULT_255_2_778
10
3.7233867
20
11.4897247
40
1.6230197
50
89.8973727
51
90.0037997
0
ARC
8
DEFAULT_255_2_778
10
3.7287596
20
11.4950211
40
1.6177224
50
61.8422222
51
90.0873324
0
ARC
8
DEFAULT_255_2_778
10
3.7251158
20
11.4871392
40
1.6263911
50
8.5995563
51
61.8600801
0
ARC
8
DEFAULT_255_2_778
10
3.7133386
20
11.4883647
40
1.6378552
50
359.9817031
51
8.4955638
0
ARC
8
DEFAULT_255_2_778
10
3.7331728
20
11.4853814
40
1.6180229
50
332.1931218
51
0.087118
0
ARC
8
DEFAULT_255_2_778
10
3.7255506
20
11.488951
40
1.6264303
50
278.6485674
51
332.2071531
0
ARC
8
DEFAULT_255_2_778
10
3.7268183
20
11.5006254
40
1.6377839
50
269.981651
51
278.5433085
0
ARC
8
DEFAULT_255_2_778
10
3.7233867
20
11.4858585
40
1.6230195
50
269.9962003
51
270.1026273
0
ARC
8
DEFAULT_255_2_778
10
3.7231849
20
11.4849207
40
1.6220819
50
224.9996985
51
270.0033242
0
ARC
8
DEFAULT_255_2_778
10
3.7231901
20
11.4847985
40
1.6219991
50
179.9954647
51
224.9965162
0
ARC
8
DEFAULT_255_2_778
10
3.7242107
20
11.4850345
40
1.6230197
50
179.8973727
51
180.0037997
0
LINE
8
DEFAULT_255_2_778
10
2.1011938
20
11.4879416
11
2.1011938
21
11.4876416
0
ARC
8
DEFAULT_255_2_778
10
8.718982
20
56.4902043
40
1.6177224
50
151.8422222
51
180.0873324
0
ARC
8
DEFAULT_255_2_778
10
8.726864
20
56.4865605
40
1.6263911
50
98.5995563
51
151.8600801
0
ARC
8
DEFAULT_255_2_778
10
8.7256385
20
56.4747833
40
1.6378552
50
89.9817031
51
98.4955638
0
ARC
8
DEFAULT_255_2_778
10
8.7286217
20
56.4946175
40
1.6180229
50
62.1931218
51
90.087118
0
ARC
8
DEFAULT_255_2_778
10
8.7250521
20
56.4869953
40
1.6264303
50
8.6485674
51
62.2071531
0
ARC
8
DEFAULT_255_2_778
10
8.7133778
20
56.488263
40
1.6377839
50
359.981651
51
8.5433085
0
ARC
8
DEFAULT_255_2_778
10
8.7331735
20
56.485275
40
1.6179899
50
332.1926321
51
0.0872357
0
ARC
8
DEFAULT_255_2_778
10
8.7254932
20
56.4888999
40
1.6264743
50
278.6465625
51
332.205897
0
ARC
8
DEFAULT_255_2_778
10
8.7266871
20
56.5008451
40
1.6381067
50
269.981616
51
278.5424654
0
ARC
8
DEFAULT_255_2_778
10
8.7236933
20
56.4804269
40
1.6176903
50
241.8417123
51
270.0874202
0
ARC
8
DEFAULT_255_2_778
10
8.7273929
20
56.4883669
40
1.6264365
50
188.5975683
51
241.8588041
0
ARC
8
DEFAULT_255_2_778
10
8.7394404
20
56.4872144
40
1.6381789
50
179.9816683
51
188.4947209
0
LINE
8
DEFAULT_255_2_778
10
7.1012615
20
56.4877385
11
7.1012615
21
56.4877385
0
ARC
8
DEFAULT_255_2_778
10
8.7263676
20
52.117734
40
1.410141
50
37.0812903
51
90.0006706
0
ARC
8
DEFAULT_255_2_778
10
8.7262638
20
52.1178759
40
1.4099991
50
89.9964539
51
142.9215758
0
LINE
8
DEFAULT_255_2_778
10
7.2761511
20
51.387975
11
10.1762511
21
51.387975
0
LINE
8
DEFAULT_255_2_778
10
10.1762511
20
51.387975
11
10.1762511
21
52.967975
0
LINE
8
DEFAULT_255_2_778
10
10.1762511
20
52.967975
11
9.8513511
21
52.967975
0
LINE
8
DEFAULT_255_2_778
10
7.6013511
20
52.967975
11
7.2764511
21
52.967975
0
LINE
8
DEFAULT_255_2_778
10
7.2764511
20
52.967975
11
7.2764511
21
51.387975
0
ARC
8
DEFAULT_255_2_778
10
3.7242107
20
56.4906488
40
1.6230195
50
179.9962003
51
180.1026273
0
ARC
8
DEFAULT_255_2_778
10
3.7235961
20
56.4908166
40
1.6224051
50
135.009422
51
180.0021282
0
ARC
8
DEFAULT_255_2_778
10
3.7232188
20
56.4904393
40
1.6224051
50
89.9978718
51
134.990578
0
ARC
8
DEFAULT_255_2_778
10
3.7233867
20
56.4898247
40
1.6230197
50
89.8973727
51
90.0037997
0
ARC
8
DEFAULT_255_2_778
10
3.7287596
20
56.4951211
40
1.6177224
50
61.8422222
51
90.0873324
0
ARC
8
DEFAULT_255_2_778
10
3.7251158
20
56.4872392
40
1.6263911
50
8.5995563
51
61.8600801
0
ARC
8
DEFAULT_255_2_778
10
3.7133386
20
56.4884647
40
1.6378552
50
359.9817031
51
8.4955638
0
ARC
8
DEFAULT_255_2_778
10
3.7331728
20
56.4854814
40
1.6180229
50
332.1931218
51
0.087118
0
ARC
8
DEFAULT_255_2_778
10
3.7255506
20
56.489051
40
1.6264303
50
278.6485674
51
332.2071531
0
ARC
8
DEFAULT_255_2_778
10
3.7268183
20
56.5007254
40
1.6377839
50
269.981651
51
278.5433085
0
ARC
8
DEFAULT_255_2_778
10
3.7233867
20
56.4859585
40
1.6230195
50
269.9962003
51
270.1026273
0
ARC
8
DEFAULT_255_2_778
10
3.7231849
20
56.4850207
40
1.6220819
50
224.9996985
51
270.0033242
0
ARC
8
DEFAULT_255_2_778
10
3.7231901
20
56.4848985
40
1.6219991
50
179.9954647
51
224.9965162
0
ARC
8
DEFAULT_255_2_778
10
3.7242107
20
56.4851345
40
1.6230197
50
179.8973727
51
180.0037997
0
LINE
8
DEFAULT_255_2_778
10
2.1011938
20
56.4880416
11
2.1011938
21
56.4877416
0
ARC
8
DEFAULT_255_2_778
10
3.7261098
20
52.1180326
40
1.4098555
50
37.0755236
51
90.0064508
0
ARC
8
DEFAULT_255_2_778
10
3.7258638
20
52.1178891
40
1.4099991
50
89.9964539
51
142.9215758
0
LINE
8
DEFAULT_255_2_778
10
5.1761511
20
51.3878882
11
5.1761511
21
52.9679882
0
LINE
8
DEFAULT_255_2_778
10
5.1761511
20
52.9679882
11
4.8509511
21
52.9679882
0
LINE
8
DEFAULT_255_2_778
10
2.6009511
20
52.9679882
11
2.2760511
21
52.9679882
0
LINE
8
DEFAULT_255_2_778
10
2.2760511
20
52.9679882
11
2.2760511
21
51.3878882
0
LINE
8
DEFAULT_255_2_778
10
2.2760511
20
51.3878882
11
5.1761511
21
51.3878882
0
ARC
8
DEFAULT_255_2_778
10
3.7261098
20
59.6181326
40
1.4098555
50
37.0755236
51
90.0064508
0
ARC
8
DEFAULT_255_2_778
10
3.7258638
20
59.6179891
40
1.4099991
50
89.9964539
51
142.9215758
0
LINE
8
DEFAULT_255_2_778
10
2.2760511
20
58.8879882
11
5.1761511
21
58.8879882
0
LINE
8
DEFAULT_255_2_778
10
5.1761511
20
58.8879882
11
5.1761511
21
60.4680882
0
LINE
8
DEFAULT_255_2_778
10
5.1761511
20
60.4680882
11
4.8509511
21
60.4680882
0
LINE
8
DEFAULT_255_2_778
10
2.6009511
20
60.4680882
11
2.2760511
21
60.4680882
0
LINE
8
DEFAULT_255_2_778
10
2.2760511
20
60.4680882
11
2.2760511
21
58.8879882
0
ARC
8
DEFAULT_255_2_778
10
8.718982
20
48.9903043
40
1.6177224
50
151.8422222
51
180.0873324
0
ARC
8
DEFAULT_255_2_778
10
8.726864
20
48.9866605
40
1.6263911
50
98.5995563
51
151.8600801
0
ARC
8
DEFAULT_255_2_778
10
8.7256385
20
48.9748833
40
1.6378552
50
89.9817031
51
98.4955638
0
ARC
8
DEFAULT_255_2_778
10
8.7286217
20
48.9947175
40
1.6180229
50
62.1931218
51
90.087118
0
ARC
8
DEFAULT_255_2_778
10
8.7250521
20
48.9870953
40
1.6264303
50
8.6485674
51
62.2071531
0
ARC
8
DEFAULT_255_2_778
10
8.7133778
20
48.988363
40
1.6377839
50
359.981651
51
8.5433085
0
ARC
8
DEFAULT_255_2_778
10
8.7331735
20
48.985375
40
1.6179899
50
332.1926321
51
0.0872357
0
ARC
8
DEFAULT_255_2_778
10
8.7254932
20
48.9889999
40
1.6264743
50
278.6465625
51
332.205897
0
ARC
8
DEFAULT_255_2_778
10
8.7266871
20
49.0009451
40
1.6381067
50
269.981616
51
278.5424654
0
ARC
8
DEFAULT_255_2_778
10
8.7236933
20
48.9805269
40
1.6176903
50
241.8417123
51
270.0874202
0
ARC
8
DEFAULT_255_2_778
10
8.7273929
20
48.9884669
40
1.6264365
50
188.5975683
51
241.8588041
0
ARC
8
DEFAULT_255_2_778
10
8.7394404
20
48.9873144
40
1.6381789
50
179.9816683
51
188.4947209
0
LINE
8
DEFAULT_255_2_778
10
7.1012615
20
48.9878385
11
7.1012615
21
48.9878385
0
ARC
8
DEFAULT_255_2_778
10
8.7263676
20
44.617834
40
1.410141
50
37.0812903
51
90.0006706
0
ARC
8
DEFAULT_255_2_778
10
8.7262638
20
44.6179759
40
1.4099991
50
89.9964539
51
142.9215758
0
LINE
8
DEFAULT_255_2_778
10
7.2761511
20
43.888075
11
10.1762511
21
43.888075
0
LINE
8
DEFAULT_255_2_778
10
10.1762511
20
43.888075
11
10.1762511
21
45.468075
0
LINE
8
DEFAULT_255_2_778
10
10.1762511
20
45.468075
11
9.8513511
21
45.468075
0
LINE
8
DEFAULT_255_2_778
10
7.6013511
20
45.468075
11
7.2764511
21
45.468075
0
LINE
8
DEFAULT_255_2_778
10
7.2764511
20
45.468075
11
7.2764511
21
43.888075
0
ARC
8
DEFAULT_255_2_778
10
8.718982
20
41.4902043
40
1.6177224
50
151.8422222
51
180.0873324
0
ARC
8
DEFAULT_255_2_778
10
8.726864
20
41.4865605
40
1.6263911
50
98.5995563
51
151.8600801
0
ARC
8
DEFAULT_255_2_778
10
8.7256385
20
41.4747833
40
1.6378552
50
89.9817031
51
98.4955638
0
ARC
8
DEFAULT_255_2_778
10
8.7286217
20
41.4946175
40
1.6180229
50
62.1931218
51
90.087118
0
ARC
8
DEFAULT_255_2_778
10
8.7250521
20
41.4869953
40
1.6264303
50
8.6485674
51
62.2071531
0
ARC
8
DEFAULT_255_2_778
10
8.7133778
20
41.488263
40
1.6377839
50
359.981651
51
8.5433085
0
ARC
8
DEFAULT_255_2_778
10
8.7331735
20
41.485275
40
1.6179899
50
332.1926321
51
0.0872357
0
ARC
8
DEFAULT_255_2_778
10
8.7254932
20
41.4888999
40
1.6264743
50
278.6465625
51
332.205897
0
ARC
8
DEFAULT_255_2_778
10
8.7266871
20
41.5008451
40
1.6381067
50
269.981616
51
278.5424654
0
ARC
8
DEFAULT_255_2_778
10
8.7236933
20
41.4804269
40
1.6176903
50
241.8417123
51
270.0874202
0
ARC
8
DEFAULT_255_2_778
10
8.7273929
20
41.4883669
40
1.6264365
50
188.5975683
51
241.8588041
0
ARC
8
DEFAULT_255_2_778
10
8.7394404
20
41.4872144
40
1.6381789
50
179.9816683
51
188.4947209
0
LINE
8
DEFAULT_255_2_778
10
7.1012615
20
41.4877385
11
7.1012615
21
41.4877385
0
ARC
8
DEFAULT_255_2_778
10
8.7263598
20
37.1175439
40
1.410331
50
37.0851367
51
90.0008928
0
ARC
8
DEFAULT_255_2_778
10
8.7262506
20
37.1178759
40
1.4099991
50
89.9964539
51
142.9215758
0
LINE
8
DEFAULT_255_2_778
10
10.1762379
20
36.387975
11
10.1762379
21
37.967975
0
LINE
8
DEFAULT_255_2_778
10
10.1762379
20
37.967975
11
9.8514379
21
37.967975
0
LINE
8
DEFAULT_255_2_778
10
7.6013379
20
37.967975
11
7.2764379
21
37.967975
0
LINE
8
DEFAULT_255_2_778
10
7.2764379
20
37.967975
11
7.2764379
21
36.387975
0
LINE
8
DEFAULT_255_2_778
10
7.2764379
20
36.387975
11
10.1765379
21
36.387975
0
ARC
8
DEFAULT_255_2_778
10
8.718982
20
33.9903043
40
1.6177224
50
151.8422222
51
180.0873324
0
ARC
8
DEFAULT_255_2_778
10
8.726864
20
33.9866605
40
1.6263911
50
98.5995563
51
151.8600801
0
ARC
8
DEFAULT_255_2_778
10
8.7256385
20
33.9748833
40
1.6378552
50
89.9817031
51
98.4955638
0
ARC
8
DEFAULT_255_2_778
10
8.7286217
20
33.9947175
40
1.6180229
50
62.1931218
51
90.087118
0
ARC
8
DEFAULT_255_2_778
10
8.7250521
20
33.9870953
40
1.6264303
50
8.6485674
51
62.2071531
0
ARC
8
DEFAULT_255_2_778
10
8.7133778
20
33.988363
40
1.6377839
50
359.981651
51
8.5433085
0
ARC
8
DEFAULT_255_2_778
10
8.7331735
20
33.985375
40
1.6179899
50
332.1926321
51
0.0872357
0
ARC
8
DEFAULT_255_2_778
10
8.7254932
20
33.9889999
40
1.6264743
50
278.6465625
51
332.205897
0
ARC
8
DEFAULT_255_2_778
10
8.7266871
20
34.0009451
40
1.6381067
50
269.981616
51
278.5424654
0
ARC
8
DEFAULT_255_2_778
10
8.7236933
20
33.9805269
40
1.6176903
50
241.8417123
51
270.0874202
0
ARC
8
DEFAULT_255_2_778
10
8.7273929
20
33.9884669
40
1.6264365
50
188.5975683
51
241.8588041
0
ARC
8
DEFAULT_255_2_778
10
8.7394404
20
33.9873144
40
1.6381789
50
179.9816683
51
188.4947209
0
LINE
8
DEFAULT_255_2_778
10
7.1012615
20
33.9878385
11
7.1012615
21
33.9878385
0
ARC
8
DEFAULT_255_2_778
10
8.7261385
20
29.6176899
40
1.4099984
50
37.0784003
51
90.0035516
0
ARC
8
DEFAULT_255_2_778
10
8.7259638
20
29.6176891
40
1.4099991
50
89.9964539
51
142.9215758
0
LINE
8
DEFAULT_255_2_778
10
7.6010511
20
30.4677882
11
7.2761511
21
30.4677882
0
LINE
8
DEFAULT_255_2_778
10
7.2761511
20
30.4677882
11
7.2761511
21
28.8876882
0
LINE
8
DEFAULT_255_2_778
10
7.2761511
20
28.8876882
11
10.1762511
21
28.8876882
0
LINE
8
DEFAULT_255_2_778
10
10.1762511
20
28.8876882
11
10.1762511
21
30.4677882
0
LINE
8
DEFAULT_255_2_778
10
10.1762511
20
30.4677882
11
9.8513511
21
30.4677882
0
ARC
8
DEFAULT_255_2_778
10
3.7242107
20
33.9907488
40
1.6230195
50
179.9962003
51
180.1026273
0
ARC
8
DEFAULT_255_2_778
10
3.7235961
20
33.9909166
40
1.6224051
50
135.009422
51
180.0021282
0
ARC
8
DEFAULT_255_2_778
10
3.7232188
20
33.9905393
40
1.6224051
50
89.9978718
51
134.990578
0
ARC
8
DEFAULT_255_2_778
10
3.7233867
20
33.9899247
40
1.6230197
50
89.8973727
51
90.0037997
0
ARC
8
DEFAULT_255_2_778
10
3.7287596
20
33.9952211
40
1.6177224
50
61.8422222
51
90.0873324
0
ARC
8
DEFAULT_255_2_778
10
3.7251158
20
33.9873392
40
1.6263911
50
8.5995563
51
61.8600801
0
ARC
8
DEFAULT_255_2_778
10
3.7133386
20
33.9885647
40
1.6378552
50
359.9817031
51
8.4955638
0
ARC
8
DEFAULT_255_2_778
10
3.7331728
20
33.9855814
40
1.6180229
50
332.1931218
51
0.087118
0
ARC
8
DEFAULT_255_2_778
10
3.7255506
20
33.989151
40
1.6264303
50
278.6485674
51
332.2071531
0
ARC
8
DEFAULT_255_2_778
10
3.7268183
20
34.0008254
40
1.6377839
50
269.981651
51
278.5433085
0
ARC
8
DEFAULT_255_2_778
10
3.7233867
20
33.9860585
40
1.6230195
50
269.9962003
51
270.1026273
0
ARC
8
DEFAULT_255_2_778
10
3.7231849
20
33.9851207
40
1.6220819
50
224.9996985
51
270.0033242
0
ARC
8
DEFAULT_255_2_778
10
3.7231901
20
33.9849985
40
1.6219991
50
179.9954647
51
224.9965162
0
ARC
8
DEFAULT_255_2_778
10
3.7242107
20
33.9852345
40
1.6230197
50
179.8973727
51
180.0037997
0
LINE
8
DEFAULT_255_2_778
10
2.1011938
20
33.9881416
11
2.1011938
21
33.9878416
0
ARC
8
DEFAULT_255_2_778
10
3.7261098
20
29.6181193
40
1.4098555
50
37.0755236
51
90.0064508
0
ARC
8
DEFAULT_255_2_778
10
3.7258638
20
29.6179759
40
1.4099991
50
89.9964539
51
142.9215758
0
LINE
8
DEFAULT_255_2_778
10
2.2760511
20
28.888075
11
5.1761511
21
28.888075
0
LINE
8
DEFAULT_255_2_778
10
5.1761511
20
28.888075
11
5.1761511
21
30.468075
0
LINE
8
DEFAULT_255_2_778
10
5.1761511
20
30.468075
11
4.8509511
21
30.468075
0
LINE
8
DEFAULT_255_2_778
10
2.6009511
20
30.468075
11
2.2760511
21
30.468075
0
LINE
8
DEFAULT_255_2_778
10
2.2760511
20
30.468075
11
2.2760511
21
28.888075
0
ARC
8
DEFAULT_255_2_778
10
3.7261098
20
37.1177326
40
1.4098555
50
37.0755236
51
90.0064508
0
ARC
8
DEFAULT_255_2_778
10
3.7258638
20
37.1175891
40
1.4099991
50
89.9964539
51
142.9215758
0
LINE
8
DEFAULT_255_2_778
10
2.2760511
20
37.9676882
11
2.2760511
21
36.3875882
0
LINE
8
DEFAULT_255_2_778
10
2.2760511
20
36.3875882
11
5.1761511
21
36.3875882
0
LINE
8
DEFAULT_255_2_778
10
5.1761511
20
36.3875882
11
5.1761511
21
37.9676882
0
LINE
8
DEFAULT_255_2_778
10
5.1761511
20
37.9676882
11
4.8509511
21
37.9676882
0
LINE
8
DEFAULT_255_2_778
10
2.6009511
20
37.9676882
11
2.2760511
21
37.9676882
0
ARC
8
DEFAULT_255_2_778
10
3.7242107
20
18.9906488
40
1.6230195
50
179.9962003
51
180.1026273
0
ARC
8
DEFAULT_255_2_778
10
3.7231901
20
18.9908848
40
1.6219991
50
135.0034838
51
180.0045353
0
ARC
8
DEFAULT_255_2_778
10
3.7231849
20
18.9907626
40
1.6220819
50
89.9966758
51
135.0003015
0
ARC
8
DEFAULT_255_2_778
10
3.7233867
20
18.9898247
40
1.6230197
50
89.8973727
51
90.0037997
0
ARC
8
DEFAULT_255_2_778
10
3.7287596
20
18.9951211
40
1.6177224
50
61.8422222
51
90.0873324
0
ARC
8
DEFAULT_255_2_778
10
3.7251158
20
18.9872392
40
1.6263911
50
8.5995563
51
61.8600801
0
ARC
8
DEFAULT_255_2_778
10
3.7133386
20
18.9884647
40
1.6378552
50
359.9817031
51
8.4955638
0
ARC
8
DEFAULT_255_2_778
10
3.7331728
20
18.9854814
40
1.6180229
50
332.1931218
51
0.087118
0
ARC
8
DEFAULT_255_2_778
10
3.7255506
20
18.989051
40
1.6264303
50
278.6485674
51
332.2071531
0
ARC
8
DEFAULT_255_2_778
10
3.7268183
20
19.0007254
40
1.6377839
50
269.981651
51
278.5433085
0
ARC
8
DEFAULT_255_2_778
10
3.7233867
20
18.9859585
40
1.6230195
50
269.9962003
51
270.1026273
0
ARC
8
DEFAULT_255_2_778
10
3.7231849
20
18.9850207
40
1.6220819
50
224.9996985
51
270.0033242
0
ARC
8
DEFAULT_255_2_778
10
3.7231901
20
18.9848985
40
1.6219991
50
179.9954647
51
224.9965162
0
ARC
8
DEFAULT_255_2_778
10
3.7242107
20
18.9851345
40
1.6230197
50
179.8973727
51
180.0037997
0
LINE
8
DEFAULT_255_2_778
10
2.1011938
20
18.9880416
11
2.1011938
21
18.9877416
0
ARC
8
DEFAULT_255_2_778
10
3.7261098
20
22.1179326
40
1.4098555
50
37.0755236
51
90.0064508
0
ARC
8
DEFAULT_255_2_778
10
3.7258638
20
22.1177891
40
1.4099991
50
89.9964539
51
142.9215758
0
LINE
8
DEFAULT_255_2_778
10
2.2760511
20
21.3877882
11
5.1761511
21
21.3877882
0
LINE
8
DEFAULT_255_2_778
10
5.1761511
20
21.3877882
11
5.1761511
21
22.9678882
0
LINE
8
DEFAULT_255_2_778
10
5.1761511
20
22.9678882
11
4.8509511
21
22.9678882
0
LINE
8
DEFAULT_255_2_778
10
2.6009511
20
22.9678882
11
2.2760511
21
22.9678882
0
LINE
8
DEFAULT_255_2_778
10
2.2760511
20
22.9678882
11
2.2760511
21
21.3877882
0
ARC
8
DEFAULT_255_2_778
10
8.718982
20
18.9903043
40
1.6177224
50
151.8422222
51
180.0873324
0
ARC
8
DEFAULT_255_2_778
10
8.726864
20
18.9866605
40
1.6263911
50
98.5995563
51
151.8600801
0
ARC
8
DEFAULT_255_2_778
10
8.7256385
20
18.9748833
40
1.6378552
50
89.9817031
51
98.4955638
0
ARC
8
DEFAULT_255_2_778
10
8.7286217
20
18.9947175
40
1.6180229
50
62.1931218
51
90.087118
0
ARC
8
DEFAULT_255_2_778
10
8.7250521
20
18.9870953
40
1.6264303
50
8.6485674
51
62.2071531
0
ARC
8
DEFAULT_255_2_778
10
8.7133778
20
18.988363
40
1.6377839
50
359.981651
51
8.5433085
0
ARC
8
DEFAULT_255_2_778
10
8.7331735
20
18.985375
40
1.6179899
50
332.1926321
51
0.0872357
0
ARC
8
DEFAULT_255_2_778
10
8.7254932
20
18.9889999
40
1.6264743
50
278.6465625
51
332.205897
0
ARC
8
DEFAULT_255_2_778
10
8.7266871
20
19.0009451
40
1.6381067
50
269.981616
51
278.5424654
0
ARC
8
DEFAULT_255_2_778
10
8.7236933
20
18.9805269
40
1.6176903
50
241.8417123
51
270.0874202
0
ARC
8
DEFAULT_255_2_778
10
8.7273929
20
18.9884669
40
1.6264365
50
188.5975683
51
241.8588041
0
ARC
8
DEFAULT_255_2_778
10
8.7394404
20
18.9873144
40
1.6381789
50
179.9816683
51
188.4947209
0
LINE
8
DEFAULT_255_2_778
10
7.1012615
20
18.9878385
11
7.1012615
21
18.9878385
0
ARC
8
DEFAULT_255_2_778
10
8.7263598
20
22.1174439
40
1.410331
50
37.0851367
51
90.0008928
0
ARC
8
DEFAULT_255_2_778
10
8.7262506
20
22.1177759
40
1.4099991
50
89.9964539
51
142.9215758
0
LINE
8
DEFAULT_255_2_778
10
10.1762379
20
21.387875
11
10.1762379
21
22.967875
0
LINE
8
DEFAULT_255_2_778
10
10.1762379
20
22.967875
11
9.8514379
21
22.967875
0
LINE
8
DEFAULT_255_2_778
10
7.6013379
20
22.967875
11
7.2764379
21
22.967875
0
LINE
8
DEFAULT_255_2_778
10
7.2764379
20
22.967875
11
7.2764379
21
21.387875
0
LINE
8
DEFAULT_255_2_778
10
7.2764379
20
21.387875
11
10.1765379
21
21.387875
0
ARC
8
DEFAULT_255_2_778
10
8.718982
20
11.4902043
40
1.6177224
50
151.8422222
51
180.0873324
0
ARC
8
DEFAULT_255_2_778
10
8.726864
20
11.4865605
40
1.6263911
50
98.5995563
51
151.8600801
0
ARC
8
DEFAULT_255_2_778
10
8.7256385
20
11.4747833
40
1.6378552
50
89.9817031
51
98.4955638
0
ARC
8
DEFAULT_255_2_778
10
8.7286217
20
11.4946175
40
1.6180229
50
62.1931218
51
90.087118
0
ARC
8
DEFAULT_255_2_778
10
8.7250521
20
11.4869953
40
1.6264303
50
8.6485674
51
62.2071531
0
ARC
8
DEFAULT_255_2_778
10
8.7133778
20
11.488263
40
1.6377839
50
359.981651
51
8.5433085
0
ARC
8
DEFAULT_255_2_778
10
8.7331735
20
11.485275
40
1.6179899
50
332.1926321
51
0.0872357
0
ARC
8
DEFAULT_255_2_778
10
8.7254932
20
11.4888999
40
1.6264743
50
278.6465625
51
332.205897
0
ARC
8
DEFAULT_255_2_778
10
8.7266871
20
11.5008451
40
1.6381067
50
269.981616
51
278.5424654
0
ARC
8
DEFAULT_255_2_778
10
8.7236933
20
11.4804269
40
1.6176903
50
241.8417123
51
270.0874202
0
ARC
8
DEFAULT_255_2_778
10
8.7273929
20
11.4883669
40
1.6264365
50
188.5975683
51
241.8588041
0
ARC
8
DEFAULT_255_2_778
10
8.7394404
20
11.4872144
40
1.6381789
50
179.9816683
51
188.4947209
0
LINE
8
DEFAULT_255_2_778
10
7.1012615
20
11.4877385
11
7.1012615
21
11.4877385
0
ARC
8
DEFAULT_255_2_778
10
8.7263676
20
14.6177472
40
1.410141
50
37.0812903
51
90.0006706
0
ARC
8
DEFAULT_255_2_778
10
8.7262638
20
14.6178891
40
1.4099991
50
89.9964539
51
142.9215758
0
LINE
8
DEFAULT_255_2_778
10
7.2761511
20
13.8878882
11
10.1762511
21
13.8878882
0
LINE
8
DEFAULT_255_2_778
10
10.1762511
20
13.8878882
11
10.1762511
21
15.4679882
0
LINE
8
DEFAULT_255_2_778
10
10.1762511
20
15.4679882
11
9.8513511
21
15.4679882
0
LINE
8
DEFAULT_255_2_778
10
7.6013511
20
15.4679882
11
7.2764511
21
15.4679882
0
LINE
8
DEFAULT_255_2_778
10
7.2764511
20
15.4679882
11
7.2764511
21
13.8878882
0
LINE
8
DEFAULT_255_2_778
10
8.8263397
20
25.0877427
11
3.6262397
21
25.0877427
0
LINE
8
DEFAULT_255_2_778
10
3.6262397
20
25.0877427
11
3.6262397
21
27.8878427
0
LINE
8
DEFAULT_255_2_778
10
3.6262397
20
27.8878427
11
8.8263397
21
27.8878427
0
LINE
8
DEFAULT_255_2_778
10
8.8263397
20
27.8878427
11
8.8263397
21
25.0877427
0
ARC
8
DEFAULT_255_2_778
10
9.8262934
20
26.4878699
40
0.1999449
50
269.9842058
51
0.0157942
0
ARC
8
DEFAULT_255_2_778
10
9.8264212
20
26.4881079
40
0.1998171
50
359.947541
51
90.052459
0
LINE
8
DEFAULT_255_2_778
10
8.8261382
20
26.287925
11
9.8262382
21
26.287925
0
LINE
8
DEFAULT_255_2_778
10
9.8262382
20
26.687925
11
8.8261382
21
26.687925
0
ARC
8
DEFAULT_255_2_778
10
8.7257482
20
26.4867988
40
1.6239601
50
239.4828347
51
255.3800415
0
ARC
8
DEFAULT_255_2_778
10
8.7240869
20
26.4827687
40
1.6196412
50
255.4009231
51
267.4736578
0
ARC
8
DEFAULT_255_2_778
10
8.7245131
20
26.4887184
40
1.6256039
50
267.4678944
51
270.0003333
0
ARC
8
DEFAULT_255_2_778
10
8.7252695
20
26.4882383
40
1.625124
50
269.9736671
51
309.9150421
0
ARC
8
DEFAULT_255_2_778
10
8.7207185
20
26.491298
40
1.6303916
50
309.9687167
51
319.5069828
0
ARC
8
DEFAULT_255_2_778
10
8.7284853
20
26.4865422
40
1.6213975
50
319.4565662
51
339.409283
0
ARC
8
DEFAULT_255_2_778
10
8.7236579
20
26.4874239
40
1.6262268
50
339.4400209
51
0.0124719
0
ARC
8
DEFAULT_255_2_778
10
8.7727878
20
26.4877778
40
1.5770967
50
1e-7
51
0.1290444
0
ARC
8
DEFAULT_255_2_778
10
8.7279622
20
26.4886879
40
1.6219206
50
0.09333
51
29.7111668
0
ARC
8
DEFAULT_255_2_778
10
8.7221032
20
26.4842428
40
1.6292128
50
29.7448185
51
39.5020423
0
ARC
8
DEFAULT_255_2_778
10
8.7277515
20
26.4915527
40
1.6202061
50
39.4296368
51
62.7464138
0
ARC
8
DEFAULT_255_2_778
10
8.7244146
20
26.4833934
40
1.6289879
50
62.7734939
51
89.9984703
0
ARC
8
DEFAULT_255_2_778
10
8.7244504
20
26.4877745
40
1.6246066
50
89.9997287
51
92.8260462
0
ARC
8
DEFAULT_255_2_778
10
8.7238542
20
26.4948497
40
1.6175108
50
92.8173115
51
111.8643804
0
ARC
8
DEFAULT_255_2_778
10
8.7294326
20
26.481328
40
1.6321373
50
111.8693481
51
119.4767207
0
ARC
8
DEFAULT_255_2_778
10
2.6258372
20
26.4879642
40
0.2000302
50
89.9800103
51
179.9913489
0
ARC
8
DEFAULT_255_2_778
10
2.6257094
20
26.4878967
40
0.1999024
50
179.9719992
51
270.0566416
0
ARC
8
DEFAULT_255_2_778
10
3.7259518
20
26.4887421
40
1.6243994
50
59.4668286
51
75.2978255
0
ARC
8
DEFAULT_255_2_778
10
3.7276223
20
26.4927667
40
1.6200828
50
75.3188441
51
87.4349696
0
ARC
8
DEFAULT_255_2_778
10
3.727179
20
26.4865227
40
1.6263404
50
87.4292125
51
90.0002706
0
ARC
8
DEFAULT_255_2_778
10
3.726368
20
26.4873349
40
1.6255284
50
89.9716873
51
130.1827604
0
ARC
8
DEFAULT_255_2_778
10
3.7305002
20
26.4849815
40
1.6299933
50
130.2403513
51
139.8496252
0
ARC
8
DEFAULT_255_2_778
10
3.723966
20
26.4885814
40
1.6226783
50
139.7980186
51
159.578985
0
ARC
8
DEFAULT_255_2_778
10
3.7283462
20
26.487884
40
1.6270268
50
159.609788
51
180.0066751
0
LINE
8
DEFAULT_255_2_778
10
2.1013195
20
26.4876944
11
2.1013195
21
26.4875302
0
ARC
8
DEFAULT_255_2_778
10
3.7238015
20
26.4865757
40
1.6224823
50
179.9662915
51
210.1920761
0
ARC
8
DEFAULT_255_2_778
10
3.7291646
20
26.4909165
40
1.6293011
50
210.2291714
51
220.1943436
0
ARC
8
DEFAULT_255_2_778
10
3.7245408
20
26.4847846
40
1.6218127
50
220.1342943
51
243.1235424
0
ARC
8
DEFAULT_255_2_778
10
3.7272465
20
26.4919792
40
1.6294535
50
243.1530428
51
270.0001598
0
ARC
8
DEFAULT_255_2_778
10
3.7272543
20
26.4885684
40
1.6260426
50
269.9998847
51
272.5696081
0
ARC
8
DEFAULT_255_2_778
10
3.7279004
20
26.4808276
40
1.6182807
50
272.5590431
51
292.5243529
0
ARC
8
DEFAULT_255_2_778
10
3.7220726
20
26.4943677
40
1.6330205
50
292.5312423
51
300.5127798
0
LINE
8
DEFAULT_255_2_778
10
3.626007
20
26.6879944
11
2.625907
21
26.6879944
0
LINE
8
DEFAULT_255_2_778
10
2.625907
20
26.2879944
11
3.626007
21
26.2879944
0
ENDSEC
0
EOF