0
SECTION
2
HEADER
9
$MEASUREMENT
70
1
0
ENDSEC
0
SECTION
2
TABLES
0
TABLE
2
LTYPE
0
LTYPE
72
65
70
64
2
CONTINUOUS
3
______
73
0
40
0
0
ENDTAB
0
TABLE
2
LAYER
0
LAYER
2
DEFAULT_255_2_778
70
0
62
255
6
CONTINUOUS
0
ENDTAB
0
ENDSEC
0
SECTION
2
ENTITIES
0
ARC
8
DEFAULT_255_2_778
10
75.3919039
20
79.0796695
40
0.3037484
50
84.9737877
51
89.9931556
0
ARC
8
DEFAULT_255_2_778
10
75.3923226
20
79.0835943
40
0.2998239
50
90.0730866
51
175.0528811
0
ARC
8
DEFAULT_255_2_778
10
75.397034
20
79.0831348
40
0.3045572
50
175.0432056
51
179.9935717
0
ARC
8
DEFAULT_255_2_778
10
75.3923918
20
79.0833381
40
0.2999152
50
180.0322992
51
265.0313076
0
LINE
8
DEFAULT_255_2_778
10
76.5848157
20
80.1180499
11
76.7848157
21
79.7717499
0
LINE
8
DEFAULT_255_2_778
10
76.7848157
20
79.7717499
11
76.0191157
21
79.3295499
0
LINE
8
DEFAULT_255_2_778
10
76.0191157
20
79.3295499
11
75.4185157
21
79.3822499
0
LINE
8
DEFAULT_255_2_778
10
75.3664157
20
78.7845499
11
76.1802157
21
78.7133499
0
LINE
8
DEFAULT_255_2_778
10
76.1802157
20
78.7133499
11
77.1849157
21
79.0790499
0
LINE
8
DEFAULT_255_2_778
10
77.1849157
20
79.0790499
11
78.4848157
21
76.8274499
0
LINE
8
DEFAULT_255_2_778
10
78.4848157
20
76.8274499
11
77.6659157
21
76.1403499
0
LINE
8
DEFAULT_255_2_778
10
77.6659157
20
76.1403499
11
77.6553157
21
76.1175499
0
LINE
8
DEFAULT_255_2_778
10
76.1554157
20
78.7154499
11
75.4828157
21
78.3270499
0
LINE
8
DEFAULT_255_2_778
10
71.9379157
20
78.8282499
11
71.2579157
21
76.2905499
0
LINE
8
DEFAULT_255_2_778
10
71.2579157
20
76.2905499
11
71.2164157
21
76.2665499
0
LINE
8
DEFAULT_255_2_778
10
79.1478646
20
76.9790406
11
76.9827646
21
75.7291406
0
LINE
8
DEFAULT_255_2_778
10
76.9827646
20
75.7291406
11
74.9827646
21
79.1933406
0
LINE
8
DEFAULT_255_2_778
10
74.9827646
20
79.1933406
11
77.1478646
21
80.4432406
0
ARC
8
DEFAULT_255_2_778
10
71.8804814
20
79.9277867
40
0.5001624
50
90.0007294
51
149.9892513
0
ARC
8
DEFAULT_255_2_778
10
71.8805678
20
79.9279253
40
0.5001678
50
150.0079494
51
179.965911
0
LINE
8
DEFAULT_255_2_778
10
71.3804001
20
79.9282229
11
71.3804
21
79.9278616
0
ARC
8
DEFAULT_255_2_778
10
71.8801617
20
79.9277639
40
0.4997617
50
179.9888012
51
210.0044964
0
LINE
8
DEFAULT_255_2_778
10
71.216675
20
73.6281491
11
80.216675
21
73.6281491
0
LINE
8
DEFAULT_255_2_778
10
80.216675
20
73.6281491
11
80.216675
21
75.1280491
0
LINE
8
DEFAULT_255_2_778
10
80.216675
20
75.1280491
11
76.579475
21
81.4280491
0
LINE
8
DEFAULT_255_2_778
10
76.579475
20
81.4280491
11
75.079575
21
81.4280491
0
LINE
8
DEFAULT_255_2_778
10
75.079575
20
81.4280491
11
74.079475
21
80.4279491
0
LINE
8
DEFAULT_255_2_778
10
74.079475
20
80.4279491
11
71.880475
21
80.4279491
0
LINE
8
DEFAULT_255_2_778
10
71.447375
20
79.6778491
11
74.940375
21
73.6278491
0
LINE
8
DEFAULT_255_2_778
10
74.016475
20
75.2280491
11
71.216375
21
75.2280491
0
LINE
8
DEFAULT_255_2_778
10
6.016475
20
64.0192491
11
7.616375
21
64.0192491
0
LINE
8
DEFAULT_255_2_778
10
7.616375
20
64.0192491
11
7.616375
21
38.6192491
0
LINE
8
DEFAULT_255_2_778
10
7.616375
20
38.6192491
11
6.016475
21
38.6192491
0
LINE
8
DEFAULT_255_2_778
10
58.216375
20
70.9280491
11
58.216375
21
74.3189491
0
LINE
8
DEFAULT_255_2_778
10
58.216375
20
74.3189491
11
71.216375
21
74.3189491
0
LINE
8
DEFAULT_255_2_778
10
71.216375
20
74.3189491
11
71.216375
21
96.8191491
0
LINE
8
DEFAULT_255_2_778
10
71.216375
20
96.8191491
11
70.716375
21
96.8191491
0
LINE
8
DEFAULT_255_2_778
10
70.716375
20
96.8191491
11
66.216275
21
101.3191491
0
LINE
8
DEFAULT_255_2_778
10
66.216275
20
101.3191491
11
4.116475
21
101.3191491
0
ARC
8
DEFAULT_255_2_778
10
58.3998961
20
3.3243779
40
1.7954174
50
299.9566853
51
325.6674358
0
ARC
8
DEFAULT_255_2_778
10
58.393082
20
3.3288797
40
1.8035833
50
325.6714259
51
359.9702961
0
ARC
8
DEFAULT_255_2_778
10
58.4038042
20
3.3279446
40
1.7928608
50
0.0000033
51
7.0116588
0
ARC
8
DEFAULT_255_2_778
10
58.3944894
20
3.3265699
40
1.8022737
50
7.0188857
51
16.3321271
0
ARC
8
DEFAULT_255_2_778
10
58.3774514
20
3.3219343
40
1.8199278
50
16.321339
51
17.8543963
0
ARC
8
DEFAULT_255_2_778
10
58.4012045
20
3.3311778
40
1.7944852
50
17.8060034
51
47.1398975
0
ARC
8
DEFAULT_255_2_778
10
58.3969406
20
3.32829
40
1.7995028
50
47.1029266
51
89.9727549
0
ARC
8
DEFAULT_255_2_778
10
58.3979546
20
3.3167425
40
1.81105
50
90.0050071
51
95.7366412
0
ARC
8
DEFAULT_255_2_778
10
58.2188295
20
3.1344908
40
2.0938326
50
66.3829031
51
90.0520024
0
ARC
8
DEFAULT_255_2_778
10
58.2135584
20
3.1257232
40
2.1039778
50
10.0537445
51
66.3470353
0
ARC
8
DEFAULT_255_2_778
10
58.2028101
20
3.128282
40
2.1141189
50
0.0010999
51
9.9346113
0
LINE
8
DEFAULT_255_2_778
10
51.7565291
20
1.3190226
11
51.7565291
21
0.9190226
0
LINE
8
DEFAULT_255_2_778
10
51.7565291
20
0.9190226
11
52.3566291
21
0.9190226
0
LINE
8
DEFAULT_255_2_778
10
52.3566291
20
0.9190226
11
52.3566291
21
0.5189226
0
LINE
8
DEFAULT_255_2_778
10
52.3566291
20
0.5189226
11
53.1567291
21
0.5189226
0
LINE
8
DEFAULT_255_2_778
10
53.1567291
20
0.5189226
11
53.1567291
21
0.1189226
0
LINE
8
DEFAULT_255_2_778
10
53.1567291
20
0.1189226
11
53.9568291
21
0.1189226
0
LINE
8
DEFAULT_255_2_778
10
53.9568291
20
0.1189226
11
53.9568291
21
-0.1810774
0
LINE
8
DEFAULT_255_2_778
10
53.9568291
20
-0.1810774
11
57.0167291
21
-0.1810774
0
LINE
8
DEFAULT_255_2_778
10
57.0167291
20
-0.1810774
11
58.5166291
21
1.3188226
0
LINE
8
DEFAULT_255_2_778
10
58.5166291
20
1.3188226
11
59.2964291
21
1.7688226
0
LINE
8
DEFAULT_255_2_778
10
58.2169291
20
5.1187226
11
58.2169291
21
8.2278226
0
LINE
8
DEFAULT_255_2_778
10
58.2169291
20
8.2278226
11
54.1669291
21
8.2278226
0
LINE
8
DEFAULT_255_2_778
10
54.1669291
20
8.2278226
11
54.1669291
21
70.9283226
0
LINE
8
DEFAULT_255_2_778
10
54.1669291
20
70.9283226
11
58.2169291
21
70.9283226
0
LINE
8
DEFAULT_255_2_778
10
58.2169291
20
70.9283226
11
54.1669291
21
70.9283226
0
LINE
8
DEFAULT_255_2_778
10
54.1669291
20
70.9283226
11
54.1669291
21
8.2284226
0
LINE
8
DEFAULT_255_2_778
10
54.1669291
20
8.2284226
11
58.2169291
21
8.2284226
0
LINE
8
DEFAULT_255_2_778
10
58.2169291
20
8.2284226
11
58.2169291
21
5.2283226
0
LINE
8
DEFAULT_255_2_778
10
60.3169291
20
3.1283226
11
60.3169291
21
2.2782226
0
LINE
8
DEFAULT_255_2_778
10
60.3169291
20
2.2782226
11
69.9167291
21
2.2782226
0
LINE
8
DEFAULT_255_2_778
10
69.9167291
20
2.2782226
11
69.9167291
21
5.7482226
0
LINE
8
DEFAULT_255_2_778
10
69.9167291
20
5.7482226
11
71.2166291
21
5.7482226
0
LINE
8
DEFAULT_255_2_778
10
71.2166291
20
5.7482226
11
71.2166291
21
74.1281226
0
LINE
8
DEFAULT_255_2_778
10
71.2166291
20
74.1281226
11
58.2166291
21
74.1281226
0
LINE
8
DEFAULT_255_2_778
10
59.9779291
20
2.4692226
11
0.2165291
21
2.4692226
0
LINE
8
DEFAULT_255_2_778
10
68.3666291
20
99.1691226
11
0.2165291
21
99.1691226
0
LINE
8
DEFAULT_255_2_778
10
16.0164471
20
49.9992742
11
12.2165471
21
49.9992742
0
LINE
8
DEFAULT_255_2_778
10
12.2165471
20
49.9992742
11
12.2165471
21
39.8691742
0
LINE
8
DEFAULT_255_2_778
10
12.2165471
20
39.8691742
11
16.0164471
21
39.8691742
0
LINE
8
DEFAULT_255_2_778
10
16.0164471
20
91.7692742
11
12.2165471
21
91.7692742
0
LINE
8
DEFAULT_255_2_778
10
12.2165471
20
91.7692742
11
12.2165471
21
52.3693742
0
LINE
8
DEFAULT_255_2_778
10
12.2165471
20
52.3693742
11
16.0164471
21
52.3693742
0
LINE
8
DEFAULT_255_2_778
10
3.0666471
20
33.4505742
11
3.0666471
21
36.1249742
0
LINE
8
DEFAULT_255_2_778
10
0.6121471
20
33.1651742
11
3.7667471
21
36.9690742
0
LINE
8
DEFAULT_255_2_778
10
3.7667471
20
36.9690742
11
4.6168471
21
36.9690742
0
LINE
8
DEFAULT_255_2_778
10
4.6168471
20
36.9690742
11
5.2301471
21
33.6191742
0
LINE
8
DEFAULT_255_2_778
10
4.7166471
20
48.2190742
11
7.6167471
21
48.2190742
0
LINE
8
DEFAULT_255_2_778
10
6.0165323
20
61.3191602
11
7.6164323
21
61.3191602
0
LINE
8
DEFAULT_255_2_778
10
6.0165323
20
43.4190602
11
7.6164323
21
43.4190602
0
LINE
8
DEFAULT_255_2_778
10
4.1165936
20
99.1691475
11
4.1165936
21
105.8191475
0
LINE
8
DEFAULT_255_2_778
10
4.1165936
20
105.8191475
11
0.2165936
21
105.8191475
0
LINE
8
DEFAULT_255_2_778
10
0.2165936
20
105.8191475
11
0.2165936
21
69.5191475
0
LINE
8
DEFAULT_255_2_778
10
0.2165936
20
69.5191475
11
4.5165936
21
69.0190475
0
LINE
8
DEFAULT_255_2_778
10
4.5165936
20
69.0190475
11
6.0164936
21
69.0190475
0
LINE
8
DEFAULT_255_2_778
10
6.0164936
20
69.0190475
11
6.0164936
21
55.4189475
0
LINE
8
DEFAULT_255_2_778
10
6.0164936
20
55.4189475
11
4.7165936
21
55.4189475
0
LINE
8
DEFAULT_255_2_778
10
4.7165936
20
55.4189475
11
4.7165936
21
47.2189475
0
LINE
8
DEFAULT_255_2_778
10
4.7165936
20
47.2189475
11
6.0164936
21
47.2189475
0
LINE
8
DEFAULT_255_2_778
10
6.0164936
20
47.2189475
11
6.0164936
21
33.6188475
0
LINE
8
DEFAULT_255_2_778
10
6.0164936
20
33.6188475
11
4.5165936
21
33.6188475
0
LINE
8
DEFAULT_255_2_778
10
4.5165936
20
33.6188475
11
0.2165936
21
33.1190475
0
LINE
8
DEFAULT_255_2_778
10
0.2165936
20
33.1190475
11
0.2165936
21
1.3190475
0
LINE
8
DEFAULT_255_2_778
10
0.2165936
20
1.3190475
11
61.7165936
21
1.3190475
0
LINE
8
DEFAULT_255_2_778
10
61.7165936
20
1.3190475
11
61.7165936
21
2.2781475
0
ARC
8
DEFAULT_255_2_778
10
64.4823355
20
3.6579105
40
2.5148426
50
278.7383412
51
279.9966483
0
ARC
8
DEFAULT_255_2_778
10
64.4841299
20
3.6446364
40
2.50145
50
270.546687
51
278.7439093
0
ARC
8
DEFAULT_255_2_778
10
64.4843492
20
3.6397679
40
2.4965796
50
270.0001327
51
270.5427206
0
ARC
8
DEFAULT_255_2_778
10
64.4850811
20
3.6440355
40
2.5008474
50
214.2497354
51
269.9833641
0
ARC
8
DEFAULT_255_2_778
10
64.4981339
20
3.652546
40
2.5164266
50
213.1046764
51
214.2426453
0
LINE
8
DEFAULT_255_2_778
10
60.3134885
20
3.2417485
11
60.1962885
21
3.3190485
0
LINE
8
DEFAULT_255_2_778
10
65.7165885
20
101.3191485
11
64.2166885
21
102.8190485
0
LINE
8
DEFAULT_255_2_778
10
64.2166885
20
102.8190485
11
61.3165885
21
102.8190485
0
LINE
8
DEFAULT_255_2_778
10
61.3165885
20
102.8190485
11
61.3165885
21
102.5190485
0
LINE
8
DEFAULT_255_2_778
10
61.3165885
20
102.5190485
11
60.5164885
21
102.5190485
0
LINE
8
DEFAULT_255_2_778
10
60.5164885
20
102.5190485
11
60.5164885
21
102.1189485
0
LINE
8
DEFAULT_255_2_778
10
60.5164885
20
102.1189485
11
59.7163885
21
102.1189485
0
LINE
8
DEFAULT_255_2_778
10
59.7163885
20
102.1189485
11
59.7163885
21
101.7189485
0
LINE
8
DEFAULT_255_2_778
10
59.7163885
20
101.7189485
11
59.1162885
21
101.7189485
0
LINE
8
DEFAULT_255_2_778
10
59.1162885
20
101.7189485
11
59.1162885
21
101.3188485
0
LINE
8
DEFAULT_255_2_778
10
59.9549885
20
4.2281485
11
60.0052885
21
4.2281485
0
LINE
8
DEFAULT_255_2_778
10
69.2513885
20
2.2781485
11
68.9852885
21
1.8982485
0
LINE
8
DEFAULT_255_2_778
10
68.9852885
20
1.8982485
11
64.9188885
21
1.1812485
0
LINE
8
DEFAULT_255_2_778
10
4.4636885
20
69.0251485
11
4.4162885
21
65.6689485
0
LINE
8
DEFAULT_255_2_778
10
4.4162885
20
65.6689485
11
3.6164885
21
65.6689485
0
LINE
8
DEFAULT_255_2_778
10
3.6164885
20
65.6689485
11
0.4459885
21
69.4923485
0
LINE
8
DEFAULT_255_2_778
10
2.3165388
20
67.236821
11
2.3165388
21
69.274921
0
LINE
8
DEFAULT_255_2_778
10
4.1165388
20
104.319221
11
0.2165388
21
104.319221
0
LINE
8
DEFAULT_255_2_778
10
16.0166388
20
38.869021
11
16.0166388
21
92.769121
0
LINE
8
DEFAULT_255_2_778
10
11.7166388
20
92.769121
11
11.7166388
21
38.869021
0
LINE
8
DEFAULT_255_2_778
10
19.0165179
20
38.8690607
11
8.7165179
21
38.8690607
0
LINE
8
DEFAULT_255_2_778
10
8.7165179
20
38.8690607
11
8.7165179
21
92.7691607
0
LINE
8
DEFAULT_255_2_778
10
8.7165179
20
92.7691607
11
19.0165179
21
92.7691607
0
LINE
8
DEFAULT_255_2_778
10
19.0165179
20
92.7691607
11
19.0165179
21
38.8690607
0
ENDSEC
0
EOF