0
SECTION
2
HEADER
9
$MEASUREMENT
70
1
0
ENDSEC
0
SECTION
2
TABLES
0
TABLE
2
LTYPE
0
LTYPE
72
65
70
64
2
CONTINUOUS
3
______
73
0
40
0
0
ENDTAB
0
TABLE
2
LAYER
0
LAYER
2
DEFAULT_255_2_778
70
0
62
255
6
CONTINUOUS
0
LAYER
2
DEFAULT_255_1_388
70
0
62
255
6
CONTINUOUS
0
LAYER
2
DEFAULT_255_2_778_1
70
0
62
255
6
CONTINUOUS
0
ENDTAB
0
ENDSEC
0
SECTION
2
ENTITIES
0
ARC
8
DEFAULT_255_2_778
10
3.5700693
20
75.805203
40
0.7914215
50
129.1312896
51
180.1450914
0
ARC
8
DEFAULT_255_2_778
10
3.5703345
20
75.8056901
40
0.7912112
50
89.854026
51
129.1684493
0
ARC
8
DEFAULT_255_2_778
10
25.7993937
20
75.8053767
40
0.7915249
50
39.4792447
51
90.147911
0
ARC
8
DEFAULT_255_2_778
10
25.7999935
20
75.8052233
40
0.7911595
50
359.8533901
51
39.5154338
0
ARC
8
DEFAULT_255_2_778
10
25.7996693
20
-1.9863492
40
0.7914836
50
309.4761667
51
0.1482649
0
ARC
8
DEFAULT_255_2_778
10
25.799398
20
-1.9867803
40
0.7913235
50
269.8517415
51
309.511178
0
ARC
8
DEFAULT_255_2_778
10
3.570342
20
-1.9867221
40
0.7913815
50
219.1282118
51
270.1454017
0
ARC
8
DEFAULT_255_2_778
10
3.5700247
20
-1.9863397
40
0.7913769
50
179.8524075
51
219.1641908
0
LINE
8
DEFAULT_255_2_778
10
3.5723503
20
76.5968989
11
25.7973503
21
76.5968989
0
LINE
8
DEFAULT_255_2_778
10
26.5911503
20
75.8031989
11
26.5911503
21
-1.9843011
0
LINE
8
DEFAULT_255_2_778
10
25.7973503
20
-2.7781011
11
3.5723503
21
-2.7781011
0
LINE
8
DEFAULT_255_2_778
10
2.7786503
20
-1.9843011
11
2.7786503
21
75.8031989
0
LINE
8
DEFAULT_255_1_388
10
10.666891
20
0.6757898
11
10.666891
21
-0.6398
0
LINE
8
DEFAULT_255_1_388
10
10.666891
20
-0.6398
11
10.4925031
21
-0.6398
0
LINE
8
DEFAULT_255_1_388
10
10.4925031
20
-0.6398
11
9.8301903
21
0.3739993
0
LINE
8
DEFAULT_255_1_388
10
9.8301903
20
0.3739993
11
9.8301903
21
-0.6398
0
LINE
8
DEFAULT_255_1_388
10
9.8301903
20
-0.6398
11
9.6558024
21
-0.6398
0
LINE
8
DEFAULT_255_1_388
10
9.6558024
20
-0.6398
11
9.6558024
21
0.6757898
0
LINE
8
DEFAULT_255_1_388
10
9.6558024
20
0.6757898
11
9.8301903
21
0.6757898
0
LINE
8
DEFAULT_255_1_388
10
9.8301903
20
0.6757898
11
10.4943102
21
-0.3425273
0
LINE
8
DEFAULT_255_1_388
10
10.4943102
20
-0.3425273
11
10.4943102
21
0.6757898
0
LINE
8
DEFAULT_255_1_388
10
10.4943102
20
0.6757898
11
10.666891
21
0.6757898
0
LINE
8
DEFAULT_255_1_388
10
11.1024091
20
0.6757898
11
11.4195602
21
0.1716009
0
LINE
8
DEFAULT_255_1_388
10
11.4195602
20
0.1716009
11
11.7349042
21
0.6757898
0
LINE
8
DEFAULT_255_1_388
10
11.7349042
20
0.6757898
11
11.9391098
21
0.6757898
0
LINE
8
DEFAULT_255_1_388
10
11.9391098
20
0.6757898
11
11.5234701
21
0.0234163
0
LINE
8
DEFAULT_255_1_388
10
11.5234701
20
0.0234163
11
11.949049
21
-0.6398
0
LINE
8
DEFAULT_255_1_388
10
11.949049
20
-0.6398
11
11.7430363
21
-0.6398
0
LINE
8
DEFAULT_255_1_388
10
11.7430363
20
-0.6398
11
11.4195602
21
-0.1265754
0
LINE
8
DEFAULT_255_1_388
10
11.4195602
20
-0.1265754
11
11.094277
21
-0.6398
0
LINE
8
DEFAULT_255_1_388
10
11.094277
20
-0.6398
11
10.8891679
21
-0.6398
0
LINE
8
DEFAULT_255_1_388
10
10.8891679
20
-0.6398
11
11.3156503
21
0.0234163
0
LINE
8
DEFAULT_255_1_388
10
11.3156503
20
0.0234163
11
10.8991071
21
0.6757898
0
LINE
8
DEFAULT_255_1_388
10
10.8991071
20
0.6757898
11
11.1024091
21
0.6757898
0
LINE
8
DEFAULT_255_1_388
10
12.4306488
20
-0.0127263
11
12.4306488
21
-0.1491645
0
LINE
8
DEFAULT_255_1_388
10
12.4306488
20
-0.1491645
11
11.9897094
21
-0.1491645
0
LINE
8
DEFAULT_255_1_388
10
11.9897094
20
-0.1491645
11
11.9897094
21
-0.0127263
0
LINE
8
DEFAULT_255_1_388
10
11.9897094
20
-0.0127263
11
12.4306488
21
-0.0127263
0
LINE
8
DEFAULT_255_1_388
10
13.5284796
20
0.6757898
11
13.5284796
21
0.5330267
0
LINE
8
DEFAULT_255_1_388
10
13.5284796
20
0.5330267
11
13.1056115
21
0.5330267
0
LINE
8
DEFAULT_255_1_388
10
13.1056115
20
0.5330267
11
13.1056115
21
-0.6398
0
LINE
8
DEFAULT_255_1_388
10
13.1056115
20
-0.6398
11
12.9330307
21
-0.6398
0
LINE
8
DEFAULT_255_1_388
10
12.9330307
20
-0.6398
11
12.9330307
21
0.5330267
0
LINE
8
DEFAULT_255_1_388
10
12.9330307
20
0.5330267
11
12.5110661
21
0.5330267
0
LINE
8
DEFAULT_255_1_388
10
12.5110661
20
0.5330267
11
12.5110661
21
0.6757898
0
LINE
8
DEFAULT_255_1_388
10
12.5110661
20
0.6757898
11
13.5284796
21
0.6757898
0
LINE
8
DEFAULT_255_1_388
10
14.5820358
20
0.2953892
11
14.4076479
21
0.2953892
0
LINE
8
DEFAULT_255_1_388
10
13.6287753
20
-0.2584958
11
13.8031632
21
-0.2584958
0
ARC
8
DEFAULT_255_1_388
10
14.4817206
20
1.3017821
40
1.4087688
50
248.9196578
51
254.1442424
0
ARC
8
DEFAULT_255_1_388
10
14.2927086
20
0.8151805
40
0.8867498
50
241.6337352
51
249.0064643
0
ARC
8
DEFAULT_255_1_388
10
14.1207399
20
0.5000764
40
0.5277799
50
230.4982261
51
241.8087583
0
ARC
8
DEFAULT_255_1_388
10
14.032517
20
0.3876686
40
0.3849419
50
227.4062979
51
229.9877433
0
ARC
8
DEFAULT_255_1_388
10
13.9776517
20
0.3341155
40
0.3084129
50
200.6782127
51
228.1765252
0
ARC
8
DEFAULT_255_1_388
10
13.9857885
20
0.3324277
40
0.315461
50
179.506278
51
199.8695278
0
ARC
8
DEFAULT_255_1_388
10
13.9847474
20
0.3407671
40
0.3144584
50
132.4834401
51
181.0242352
0
ARC
8
DEFAULT_255_1_388
10
14.0516679
20
0.2775788
40
0.4063094
50
129.2526113
51
133.4249077
0
ARC
8
DEFAULT_255_1_388
10
14.0682271
20
0.2527619
40
0.436014
50
101.9878945
51
128.8741833
0
ARC
8
DEFAULT_255_1_388
10
14.1130687
20
0.059136
40
0.6347415
50
89.5906376
51
102.3170567
0
ARC
8
DEFAULT_255_1_388
10
14.1209998
20
0.0949586
40
0.5989122
50
77.2359491
51
90.3248968
0
ARC
8
DEFAULT_255_1_388
10
14.1442929
20
0.2037554
40
0.4876594
50
63.8379856
51
77.0808925
0
ARC
8
DEFAULT_255_1_388
10
14.1755463
20
0.2619882
40
0.4216191
50
45.9863127
51
64.1608798
0
ARC
8
DEFAULT_255_1_388
10
14.2048856
20
0.295499
40
0.3771394
50
32.2747934
51
45.6544796
0
ARC
8
DEFAULT_255_1_388
10
14.2123662
20
0.2976426
40
0.3696765
50
359.6507495
51
32.6129943
0
ARC
8
DEFAULT_255_1_388
10
14.1062845
20
0.2981788
40
0.3013762
50
359.469654
51
14.983205
0
ARC
8
DEFAULT_255_1_388
10
14.1856097
20
0.3194288
40
0.2192542
50
14.9781954
51
48.2004799
0
ARC
8
DEFAULT_255_1_388
10
14.1671208
20
0.2961937
40
0.2489048
50
48.5926661
51
74.1242559
0
ARC
8
DEFAULT_255_1_388
10
14.1296011
20
0.1723607
40
0.3782845
50
73.7889321
51
86.6653996
0
ARC
8
DEFAULT_255_1_388
10
14.1180825
20
0.0365955
40
0.5145025
50
86.2642725
51
90.0533288
0
ARC
8
DEFAULT_255_1_388
10
14.1148918
20
0.0810376
40
0.4700681
50
89.669455
51
99.2313411
0
ARC
8
DEFAULT_255_1_388
10
14.0876078
20
0.2435401
40
0.3052945
50
99.0695987
51
113.7659242
0
ARC
8
DEFAULT_255_1_388
10
14.0568072
20
0.3161772
40
0.226407
50
114.0402885
51
127.9848946
0
ARC
8
DEFAULT_255_1_388
10
14.0297548
20
0.3494884
40
0.1835045
50
127.7287217
51
176.7106493
0
ARC
8
DEFAULT_255_1_388
10
14.1061214
20
0.338121
40
0.2604907
50
175.1780759
51
180.0581213
0
ARC
8
DEFAULT_255_1_388
10
14.0112557
20
0.3367411
40
0.1656287
50
179.6140658
51
228.124674
0
ARC
8
DEFAULT_255_1_388
10
14.0609915
20
0.382794
40
0.2332038
50
226.5785315
51
230.8792476
0
ARC
8
DEFAULT_255_1_388
10
14.1139401
20
0.4530908
40
0.3211664
50
231.4636401
51
241.9261664
0
ARC
8
DEFAULT_255_1_388
10
14.2486185
20
0.7009349
40
0.6032345
50
241.7177136
51
248.3259138
0
ARC
8
DEFAULT_255_1_388
10
14.4044779
20
1.0870771
40
1.0196417
50
248.2007377
51
252.4527713
0
ARC
8
DEFAULT_255_1_388
10
14.5398306
20
1.5055092
40
1.4594143
50
252.3388938
51
254.347037
0
ARC
8
DEFAULT_255_1_388
10
13.6913607
20
-1.5292905
40
1.6917621
50
71.0197462
51
74.4085467
0
ARC
8
DEFAULT_255_1_388
10
13.8820694
20
-0.9787856
40
1.1091618
50
66.1845203
51
71.086519
0
ARC
8
DEFAULT_255_1_388
10
14.0571243
20
-0.5846561
40
0.6779073
50
59.3537334
51
66.269255
0
ARC
8
DEFAULT_255_1_388
10
14.1570969
20
-0.4155223
40
0.4814366
50
49.1021732
51
59.3294421
0
ARC
8
DEFAULT_255_1_388
10
14.2491958
20
-0.3105425
40
0.3417875
50
32.7924183
51
49.2503526
0
ARC
8
DEFAULT_255_1_388
10
14.2841572
20
-0.2855689
40
0.2988789
50
31.121225
51
32.3977355
0
ARC
8
DEFAULT_255_1_388
10
14.275375
20
-0.2888272
40
0.3080861
50
8.1116803
51
30.7958224
0
ARC
8
DEFAULT_255_1_388
10
14.1842095
20
-0.3043563
40
0.4005385
50
359.8390945
51
8.4707348
0
ARC
8
DEFAULT_255_1_388
10
14.2546143
20
-0.3098249
40
0.3301608
50
337.4732479
51
0.7538283
0
ARC
8
DEFAULT_255_1_388
10
14.2747168
20
-0.3120446
40
0.3107929
50
307.5917028
51
336.4313755
0
ARC
8
DEFAULT_255_1_388
10
14.2236226
20
-0.2552491
40
0.3870096
50
307.6560665
51
308.4561779
0
ARC
8
DEFAULT_255_1_388
10
14.1970442
20
-0.2144168
40
0.435591
50
284.3733666
51
307.1426212
0
ARC
8
DEFAULT_255_1_388
10
14.1413337
20
-0.0094609
40
0.6479685
50
272.4384566
51
284.6464689
0
ARC
8
DEFAULT_255_1_388
10
14.1270721
20
0.1929434
40
0.8508149
50
269.9708517
51
272.8180721
0
ARC
8
DEFAULT_255_1_388
10
14.1222404
20
-0.0362717
40
0.6216151
50
248.2707343
51
270.4054609
0
ARC
8
DEFAULT_255_1_388
10
14.1161276
20
-0.0577327
40
0.5994203
50
246.1380358
51
248.054058
0
ARC
8
DEFAULT_255_1_388
10
14.0690418
20
-0.1566295
40
0.4899388
50
233.1671897
51
246.4951656
0
ARC
8
DEFAULT_255_1_388
10
14.0067053
20
-0.2407863
40
0.3852115
50
215.3403381
51
233.084328
0
ARC
8
DEFAULT_255_1_388
10
13.9760417
20
-0.2630907
40
0.3472969
50
179.2419235
51
215.2648426
0
ARC
8
DEFAULT_255_1_388
10
14.0623968
20
-0.2615021
40
0.259251
50
179.3355796
51
199.1045873
0
ARC
8
DEFAULT_255_1_388
10
14.025011
20
-0.2712777
40
0.2207454
50
199.8830064
51
232.7061328
0
ARC
8
DEFAULT_255_1_388
10
14.0781384
20
-0.2044544
40
0.306101
50
232.3736206
51
255.5136621
0
ARC
8
DEFAULT_255_1_388
10
14.116489
20
-0.0644823
40
0.4512213
50
255.2447928
51
267.5318292
0
ARC
8
DEFAULT_255_1_388
10
14.1263357
20
0.0741709
40
0.5901825
50
267.1564563
51
270.0294721
0
ARC
8
DEFAULT_255_1_388
10
14.1294683
20
0.0242623
40
0.5402814
50
269.6999944
51
278.1662446
0
ARC
8
DEFAULT_255_1_388
10
14.158271
20
-0.1704026
40
0.3435003
50
278.0229022
51
290.6255326
0
ARC
8
DEFAULT_255_1_388
10
14.1973877
20
-0.2747453
40
0.2320666
50
290.6616368
51
307.0374127
0
ARC
8
DEFAULT_255_1_388
10
14.2311777
20
-0.316196
40
0.1786372
50
306.3942078
51
355.303191
0
ARC
8
DEFAULT_255_1_388
10
14.173607
20
-0.3075814
40
0.2367516
50
354.3662092
51
0.0709489
0
ARC
8
DEFAULT_255_1_388
10
14.1895938
20
-0.3050439
40
0.2207761
50
359.4175379
51
16.1975911
0
ARC
8
DEFAULT_255_1_388
10
14.2408056
20
-0.2910046
40
0.1676828
50
16.4721294
51
52.6261798
0
ARC
8
DEFAULT_255_1_388
10
14.1484564
20
-0.4129394
40
0.3206412
50
52.7381828
51
62.4979144
0
ARC
8
DEFAULT_255_1_388
10
13.9926316
20
-0.7061764
40
0.6527035
50
62.2517425
51
68.1219454
0
ARC
8
DEFAULT_255_1_388
10
13.7991804
20
-1.1816049
40
1.1659797
50
68.006043
51
71.8055127
0
ARC
8
DEFAULT_255_1_388
10
13.5971712
20
-1.7874277
40
1.8045908
50
71.718361
51
73.9260743
0
LINE
8
DEFAULT_255_1_388
10
15.0067111
20
-0.0371225
11
15.0067111
21
0.0993157
0
LINE
8
DEFAULT_255_1_388
10
15.0067111
20
0.0993157
11
15.1323065
21
0.0993157
0
LINE
8
DEFAULT_255_1_388
10
14.9181618
20
0.3306282
11
14.7510023
21
0.3306282
0
LINE
8
DEFAULT_255_1_388
10
14.739256
20
-0.2928312
11
14.907319
21
-0.2928312
0
LINE
8
DEFAULT_255_1_388
10
15.1323065
20
-0.0371225
11
15.0067111
21
-0.0371225
0
ARC
8
DEFAULT_255_1_388
10
15.1290292
20
0.4809922
40
0.3816905
50
270.491971
51
281.8953028
0
ARC
8
DEFAULT_255_1_388
10
15.1561719
20
0.3570199
40
0.2547877
50
281.6690378
51
301.2943765
0
ARC
8
DEFAULT_255_1_388
10
15.175317
20
0.3219926
40
0.2149197
50
301.7834992
51
311.754567
0
ARC
8
DEFAULT_255_1_388
10
15.1856212
20
0.310565
40
0.1995326
50
311.7325027
51
354.2803031
0
ARC
8
DEFAULT_255_1_388
10
15.1038628
20
0.324628
40
0.2823461
50
353.0941646
51
0.1174696
0
ARC
8
DEFAULT_255_1_388
10
15.0520185
20
0.3299874
40
0.3342238
50
359.1804452
51
15.0452323
0
ARC
8
DEFAULT_255_1_388
10
15.2034244
20
0.3741546
40
0.1765747
50
13.957816
51
77.6713812
0
ARC
8
DEFAULT_255_1_388
10
15.1599479
20
0.2183464
40
0.3381982
50
76.111571
51
90.7028736
0
ARC
8
DEFAULT_255_1_388
10
15.1532892
20
0.249125
40
0.3074046
50
89.5321574
51
103.5319393
0
ARC
8
DEFAULT_255_1_388
10
15.1307275
20
0.3390443
40
0.2147041
50
103.2930114
51
133.5619756
0
ARC
8
DEFAULT_255_1_388
10
15.1257217
20
0.3457351
40
0.2064084
50
133.8349761
51
173.5343225
0
ARC
8
DEFAULT_255_1_388
10
15.2070874
20
0.3313144
40
0.2889266
50
172.5097183
51
180.1360699
0
ARC
8
DEFAULT_255_1_388
10
15.1000638
20
0.335188
40
0.3490913
50
155.3483706
51
180.7484035
0
ARC
8
DEFAULT_255_1_388
10
15.0945614
20
0.3319519
40
0.3454798
50
131.5745177
51
154.4799474
0
ARC
8
DEFAULT_255_1_388
10
15.1297896
20
0.2963422
40
0.3955058
50
96.9874487
51
131.9690874
0
ARC
8
DEFAULT_255_1_388
10
15.1544789
20
0.1562407
40
0.537622
50
89.8592909
51
97.7827481
0
ARC
8
DEFAULT_255_1_388
10
15.1598898
20
0.126736
40
0.5671399
50
78.3654493
51
90.4132586
0
ARC
8
DEFAULT_255_1_388
10
15.2001539
20
0.3133918
40
0.3762034
50
56.6229818
51
78.6387103
0
ARC
8
DEFAULT_255_1_388
10
15.2243369
20
0.3556846
40
0.3275964
50
47.0254604
51
56.085558
0
ARC
8
DEFAULT_255_1_388
10
15.226562
20
0.3601189
40
0.3228382
50
10.9207523
51
46.777927
0
ARC
8
DEFAULT_255_1_388
10
15.0731213
20
0.3246401
40
0.4802559
50
359.6364235
51
11.6087615
0
ARC
8
DEFAULT_255_1_388
10
15.2795379
20
0.3229404
40
0.273833
50
332.3549969
51
359.7179765
0
ARC
8
DEFAULT_255_1_388
10
15.206378
20
0.3576285
40
0.3547505
50
325.2332381
51
332.8746682
0
ARC
8
DEFAULT_255_1_388
10
15.2235363
20
0.3456763
40
0.3338396
50
292.9803892
51
325.2391113
0
ARC
8
DEFAULT_255_1_388
10
15.1924558
20
0.4061679
40
0.4016959
50
292.542178
51
293.6931461
0
ARC
8
DEFAULT_255_1_388
10
15.236813
20
-0.3203964
40
0.372079
50
57.643292
51
72.8626085
0
ARC
8
DEFAULT_255_1_388
10
15.2766965
20
-0.2557727
40
0.2961455
50
36.7246661
51
57.4701329
0
ARC
8
DEFAULT_255_1_388
10
15.2754122
20
-0.254353
40
0.2963321
50
8.054535
51
36.3561529
0
ARC
8
DEFAULT_255_1_388
10
15.1783794
20
-0.2717927
40
0.3948682
50
359.8316595
51
8.5873361
0
ARC
8
DEFAULT_255_1_388
10
15.1361268
20
-0.277203
40
0.4371398
50
343.9831631
51
0.557075
0
ARC
8
DEFAULT_255_1_388
10
15.2358318
20
-0.3045037
40
0.3337749
50
311.6358204
51
343.7652116
0
ARC
8
DEFAULT_255_1_388
10
15.1932572
20
-0.2565045
40
0.3979351
50
279.7829743
51
311.625622
0
ARC
8
DEFAULT_255_1_388
10
15.1593707
20
-0.0948358
40
0.5630417
50
269.7285092
51
280.3857694
0
ARC
8
DEFAULT_255_1_388
10
15.152402
20
-0.0994759
40
0.5584119
50
256.6827433
51
270.4412869
0
ARC
8
DEFAULT_255_1_388
10
15.1143006
20
-0.2552302
40
0.3980715
50
229.4223821
51
256.8554507
0
ARC
8
DEFAULT_255_1_388
10
15.067656
20
-0.3077317
40
0.3278564
50
181.8183354
51
229.6455015
0
ARC
8
DEFAULT_255_1_388
10
15.1846169
20
-0.2930175
40
0.4453611
50
179.9760419
51
183.2330638
0
ARC
8
DEFAULT_255_1_388
10
15.1652722
20
-0.2953219
40
0.2579652
50
179.4467996
51
196.2871626
0
ARC
8
DEFAULT_255_1_388
10
15.1104175
20
-0.3103291
40
0.2011057
50
196.5661293
51
227.7059371
0
ARC
8
DEFAULT_255_1_388
10
15.1288782
20
-0.2896845
40
0.2287994
50
227.7653015
51
257.8763321
0
ARC
8
DEFAULT_255_1_388
10
15.1541866
20
-0.1836039
40
0.3378385
50
257.4583525
51
270.4267406
0
ARC
8
DEFAULT_255_1_388
10
15.1593115
20
-0.150977
40
0.3704652
50
269.5965319
51
280.8788143
0
ARC
8
DEFAULT_255_1_388
10
15.1851343
20
-0.2799471
40
0.2389415
50
280.6347277
51
299.8594068
0
ARC
8
DEFAULT_255_1_388
10
15.2066113
20
-0.3207264
40
0.19289
50
300.3575552
51
314.5515667
0
ARC
8
DEFAULT_255_1_388
10
15.1972789
20
-0.3138975
40
0.204312
50
315.0730962
51
345.0429362
0
ARC
8
DEFAULT_255_1_388
10
15.0934296
20
-0.2836461
40
0.31246
50
344.598526
51
357.9270698
0
ARC
8
DEFAULT_255_1_388
10
14.9924601
20
-0.2767295
40
0.4136265
50
357.4755098
51
0.0224936
0
ARC
8
DEFAULT_255_1_388
10
15.1077479
20
-0.2739901
40
0.2983498
50
359.5051035
51
13.4236939
0
ARC
8
DEFAULT_255_1_388
10
15.2052568
20
-0.2490363
40
0.1977186
50
12.9497905
51
48.7550905
0
ARC
8
DEFAULT_255_1_388
10
15.184749
20
-0.2770627
40
0.2323321
50
49.509109
51
72.1832965
0
ARC
8
DEFAULT_255_1_388
10
15.1444959
20
-0.3965368
40
0.358397
50
71.9008458
51
84.3555134
0
ARC
8
DEFAULT_255_1_388
10
15.1263353
20
-0.5497288
40
0.512641
50
84.019632
51
89.3326067
0
LINE
8
DEFAULT_255_1_388
10
16.6647519
20
-0.5033618
11
16.6647519
21
-0.6398
0
LINE
8
DEFAULT_255_1_388
10
16.6647519
20
-0.6398
11
15.8027514
21
-0.6398
0
LINE
8
DEFAULT_255_1_388
10
15.8027514
20
-0.6398
11
15.8027514
21
-0.5196259
0
LINE
8
DEFAULT_255_1_388
10
15.8027514
20
-0.5196259
11
16.2581479
21
-0.0136298
0
LINE
8
DEFAULT_255_1_388
10
15.944611
20
0.2881607
11
15.7774516
21
0.2881607
0
LINE
8
DEFAULT_255_1_388
10
16.3566364
20
-0.121154
11
16.0042462
21
-0.5033618
0
LINE
8
DEFAULT_255_1_388
10
16.0042462
20
-0.5033618
11
16.6647519
21
-0.5033618
0
ARC
8
DEFAULT_255_1_388
10
14.7405538
20
1.3283983
40
2.0258655
50
318.5132526
51
320.7829045
0
ARC
8
DEFAULT_255_1_388
10
15.3353495
20
0.8442929
40
1.2589638
50
320.7372878
51
323.9739031
0
ARC
8
DEFAULT_255_1_388
10
15.7762427
20
0.5248554
40
0.7145141
50
323.8962701
51
328.64194
0
ARC
8
DEFAULT_255_1_388
10
16.0064684
20
0.3828545
40
0.4440242
50
328.8294576
51
331.7891185
0
ARC
8
DEFAULT_255_1_388
10
16.1187004
20
0.3249374
40
0.3177517
50
331.4254512
51
352.9365785
0
ARC
8
DEFAULT_255_1_388
10
16.1340004
20
0.321505
40
0.3021496
50
353.2257659
51
0.0166158
0
ARC
8
DEFAULT_255_1_388
10
16.1576765
20
0.3240894
40
0.2784847
50
359.486299
51
15.9343185
0
ARC
8
DEFAULT_255_1_388
10
16.2147032
20
0.3394269
40
0.2194403
50
16.1712913
51
43.5286088
0
ARC
8
DEFAULT_255_1_388
10
16.2233976
20
0.3481191
40
0.2071504
50
43.4417391
51
83.1661095
0
ARC
8
DEFAULT_255_1_388
10
16.2083137
20
0.2652316
40
0.2912888
50
82.160179
51
90.1505708
0
ARC
8
DEFAULT_255_1_388
10
16.2047619
20
0.2048279
40
0.3517025
50
89.5460741
51
102.5418361
0
ARC
8
DEFAULT_255_1_388
10
16.1774339
20
0.3207933
40
0.2325748
50
102.1738499
51
129.206123
0
ARC
8
DEFAULT_255_1_388
10
16.1685792
20
0.3347664
40
0.2161591
50
129.72865
51
135.753947
0
ARC
8
DEFAULT_255_1_388
10
16.1822274
20
0.3238728
40
0.2335433
50
136.1757367
51
166.3673339
0
ARC
8
DEFAULT_255_1_388
10
16.2954963
20
0.2935148
40
0.3507873
50
165.9090694
51
178.8684636
0
ARC
8
DEFAULT_255_1_388
10
16.3930734
20
0.2882263
40
0.4484624
50
178.4391136
51
180.0083808
0
ARC
8
DEFAULT_255_1_388
10
16.2351436
20
0.2926197
40
0.4577138
50
163.2878482
51
180.5581842
0
ARC
8
DEFAULT_255_1_388
10
16.1449477
20
0.3174393
40
0.3641968
50
133.4540601
51
162.947111
0
ARC
8
DEFAULT_255_1_388
10
16.1650359
20
0.2960789
40
0.3935189
50
100.7869829
51
133.4382499
0
ARC
8
DEFAULT_255_1_388
10
16.2041604
20
0.1218399
40
0.5720313
50
89.660664
51
101.3702276
0
ARC
8
DEFAULT_255_1_388
10
16.2116213
20
0.1287263
40
0.5651495
50
78.2172678
51
90.412935
0
ARC
8
DEFAULT_255_1_388
10
16.2515679
20
0.3114511
40
0.378122
50
55.9269121
51
78.4888449
0
ARC
8
DEFAULT_255_1_388
10
16.2736394
20
0.3495187
40
0.3342379
50
47.929771
51
55.4049217
0
ARC
8
DEFAULT_255_1_388
10
16.2850924
20
0.3611618
40
0.3179217
50
4.334829
51
48.0560205
0
ARC
8
DEFAULT_255_1_388
10
16.1618726
20
0.3420487
40
0.442341
50
359.9251713
51
5.5971671
0
ARC
8
DEFAULT_255_1_388
10
16.210088
20
0.3483728
40
0.3941854
50
337.8914027
51
358.9967534
0
ARC
8
DEFAULT_255_1_388
10
15.9048451
20
0.4661295
40
0.7213271
50
326.9132501
51
338.3508308
0
ARC
8
DEFAULT_255_1_388
10
15.4564562
20
0.7535105
40
1.2538973
50
319.6471833
51
327.0959558
0
ARC
8
DEFAULT_255_1_388
10
15.0251221
20
1.109305
40
1.8129975
50
317.2588228
51
319.9045804
0
LINE
8
DEFAULT_255_1_388
10
17.6668048
20
0.138169
11
17.6668048
21
-0.0786865
0
LINE
8
DEFAULT_255_1_388
10
16.8364291
20
-0.1012756
11
16.8364291
21
0.1219048
0
LINE
8
DEFAULT_255_1_388
10
17.4996454
20
-0.1238647
11
17.4996454
21
0.1499153
0
LINE
8
DEFAULT_255_1_388
10
17.0035885
20
0.1625652
11
17.0035885
21
-0.1048898
0
ARC
8
DEFAULT_255_1_388
10
16.2890382
20
-0.0841882
40
1.3777776
50
353.8440855
51
0.2287917
0
ARC
8
DEFAULT_255_1_388
10
16.81094
20
-0.1424586
40
0.852639
50
344.4934746
51
353.9763743
0
ARC
8
DEFAULT_255_1_388
10
17.1476207
20
-0.2381809
40
0.5026273
50
329.2803599
51
344.7473406
0
ARC
8
DEFAULT_255_1_388
10
17.2591703
20
-0.2993962
40
0.3754848
50
324.9361395
51
328.6153007
0
ARC
8
DEFAULT_255_1_388
10
17.3017352
20
-0.3291414
40
0.3235566
50
280.5801797
51
324.9173226
0
ARC
8
DEFAULT_255_1_388
10
17.2565981
20
-0.1411764
40
0.5167077
50
269.5979457
51
281.6732777
0
ARC
8
DEFAULT_255_1_388
10
17.2484885
20
-0.1546887
40
0.5032026
50
256.6228565
51
270.5105488
0
ARC
8
DEFAULT_255_1_388
10
17.2032627
20
-0.3288655
40
0.3233092
50
215.8618351
51
257.2787793
0
ARC
8
DEFAULT_255_1_388
10
17.3181334
20
-0.2517894
40
0.4615831
50
197.9695203
51
215.2622745
0
ARC
8
DEFAULT_255_1_388
10
17.597701
20
-0.1574359
40
0.7566307
50
187.8816486
51
198.2346584
0
ARC
8
DEFAULT_255_1_388
10
18.0430248
20
-0.0931547
40
1.2065653
50
180.8977266
51
188.0054894
0
ARC
8
DEFAULT_255_1_388
10
18.3480462
20
-0.08166
40
1.5117443
50
180.7434591
51
181.152202
0
ARC
8
DEFAULT_255_1_388
10
18.1805458
20
0.1273371
40
1.3441277
50
173.7674302
51
180.2315596
0
ARC
8
DEFAULT_255_1_388
10
17.6723327
20
0.1847779
40
0.8326847
50
164.3058537
51
173.9000553
0
ARC
8
DEFAULT_255_1_388
10
17.3447327
20
0.2791652
40
0.4917711
50
148.7922028
51
164.5682288
0
ARC
8
DEFAULT_255_1_388
10
17.2378064
20
0.3388457
40
0.3694204
50
144.5883979
51
148.1161588
0
ARC
8
DEFAULT_255_1_388
10
17.1990809
20
0.3658667
40
0.322202
50
101.6440149
51
144.5142619
0
ARC
8
DEFAULT_255_1_388
10
17.2469002
20
0.1758337
40
0.5180451
50
89.528284
51
102.5820197
0
ARC
8
DEFAULT_255_1_388
10
17.2557994
20
0.1714376
40
0.5224441
50
77.0437914
51
90.508231
0
ARC
8
DEFAULT_255_1_388
10
17.3010247
20
0.3562272
40
0.3322297
50
48.2777708
51
77.4996087
0
ARC
8
DEFAULT_255_1_388
10
17.3091987
20
0.3707557
40
0.315966
50
36.3141586
51
47.6307332
0
ARC
8
DEFAULT_255_1_388
10
17.2114709
20
0.3049159
40
0.4337313
50
18.2931065
51
35.6770203
0
ARC
8
DEFAULT_255_1_388
10
16.925355
20
0.2067107
40
0.7362203
50
8.0246996
51
18.5605636
0
ARC
8
DEFAULT_255_1_388
10
16.4569906
20
0.1375432
40
1.2096583
50
1.127539
51
8.1718423
0
ARC
8
DEFAULT_255_1_388
10
16.0921039
20
0.1232374
40
1.5747719
50
0.5432713
51
1.38669
0
ARC
8
DEFAULT_255_1_388
10
16.2978418
20
0.1539163
40
1.2018103
50
359.8092569
51
4.9408001
0
ARC
8
DEFAULT_255_1_388
10
16.7714999
20
0.19619
40
0.7262727
50
4.8364937
51
12.2906017
0
ARC
8
DEFAULT_255_1_388
10
17.0814464
20
0.2652485
40
0.4087324
50
12.0806994
51
23.8171225
0
ARC
8
DEFAULT_255_1_388
10
17.213486
20
0.3211508
40
0.2653719
50
24.2874621
51
31.3934353
0
ARC
8
DEFAULT_255_1_388
10
17.2725296
20
0.3597822
40
0.1948607
50
30.7407708
51
82.4658033
0
ARC
8
DEFAULT_255_1_388
10
17.2522957
20
0.2604017
40
0.2961198
50
81.1057101
51
90.2187368
0
ARC
8
DEFAULT_255_1_388
10
17.2482769
20
0.2894421
40
0.2670929
50
89.380395
51
105.6763916
0
ARC
8
DEFAULT_255_1_388
10
17.2276491
20
0.364432
40
0.1893189
50
105.7980655
51
149.7387869
0
ARC
8
DEFAULT_255_1_388
10
17.3473631
20
0.2924719
40
0.3289892
50
149.4208441
51
163.628295
0
ARC
8
DEFAULT_255_1_388
10
17.582586
20
0.2207345
40
0.5749004
50
163.3764549
51
172.141138
0
ARC
8
DEFAULT_255_1_388
10
17.9538582
20
0.1675582
40
0.9499585
50
172.0258462
51
178.0705453
0
ARC
8
DEFAULT_255_1_388
10
18.2960134
20
0.1513682
40
1.2924734
50
177.8639301
51
179.5036263
0
ARC
8
DEFAULT_255_1_388
10
18.1741153
20
-0.1089849
40
1.170534
50
179.7995545
51
185.246089
0
ARC
8
DEFAULT_255_1_388
10
17.7192746
20
-0.1520596
40
0.7136613
50
185.1411911
51
193.0082205
0
ARC
8
DEFAULT_255_1_388
10
17.4219007
20
-0.2223559
40
0.4080987
50
192.7897338
51
205.2507384
0
ARC
8
DEFAULT_255_1_388
10
17.3041217
20
-0.2749462
40
0.2791522
50
205.8001921
51
211.2545876
0
ARC
8
DEFAULT_255_1_388
10
17.2452756
20
-0.3143868
40
0.2084074
50
210.3789935
51
238.4007996
0
ARC
8
DEFAULT_255_1_388
10
17.2430842
20
-0.3091214
40
0.2117943
50
239.6521916
51
265.9793852
0
ARC
8
DEFAULT_255_1_388
10
17.2526691
20
-0.2334642
40
0.2879689
50
265.1324455
51
270.0603288
0
ARC
8
DEFAULT_255_1_388
10
17.2559068
20
-0.2699582
40
0.2514919
50
269.3314378
51
287.2180039
0
ARC
8
DEFAULT_255_1_388
10
17.271415
20
-0.3265709
40
0.1928357
50
287.7957942
51
329.0808983
0
ARC
8
DEFAULT_255_1_388
10
17.1636907
20
-0.2593349
40
0.319808
50
328.6635261
51
343.3325043
0
ARC
8
DEFAULT_255_1_388
10
16.9192366
20
-0.1831805
40
0.5758408
50
343.0498092
51
351.9392499
0
ARC
8
DEFAULT_255_1_388
10
16.5291688
20
-0.1256795
40
0.9701202
50
351.8071632
51
357.7957897
0
ARC
8
DEFAULT_255_1_388
10
16.1657165
20
-0.1068276
40
1.3340376
50
357.5870923
51
359.2682493
0
LINE
8
DEFAULT_255_1_388
10
18.4303168
20
0.6821148
11
18.4303168
21
-0.6398
0
LINE
8
DEFAULT_255_1_388
10
18.4303168
20
-0.6398
11
18.2622538
21
-0.6398
0
LINE
8
DEFAULT_255_1_388
10
18.2622538
20
-0.6398
11
18.2622538
21
0.474295
0
LINE
8
DEFAULT_255_1_388
10
18.2622538
20
0.474295
11
17.9252243
21
0.3505066
0
LINE
8
DEFAULT_255_1_388
10
17.9252243
20
0.3505066
11
17.9252243
21
0.5023055
0
LINE
8
DEFAULT_255_1_388
10
17.9252243
20
0.5023055
11
18.4041134
21
0.6821148
0
LINE
8
DEFAULT_255_1_388
10
18.4041134
20
0.6821148
11
18.4303168
21
0.6821148
0
ARC
8
DEFAULT_255_2_778
10
15.2720183
20
74.3171485
40
0.3780135
50
0.4109279
51
91.3333757
0
ARC
8
DEFAULT_255_2_778
10
15.2696879
20
74.3146741
40
0.3803695
50
269.0259909
51
0.7811192
0
ARC
8
DEFAULT_255_2_778
10
15.4292635
20
74.3018826
40
0.7634811
50
290.7150207
51
357.6789493
0
ARC
8
DEFAULT_255_2_778
10
15.3436879
20
74.319789
40
0.849834
50
356.7063002
51
0.0047554
0
ARC
8
DEFAULT_255_2_778
10
15.3422443
20
74.3198425
40
0.8512778
50
0.0011515
51
85.3589632
0
ARC
8
DEFAULT_255_2_778
10
15.3422371
20
74.3007769
40
0.8702827
50
85.4600549
51
90.0075769
0
ARC
8
DEFAULT_255_2_778
10
20.1735812
20
74.3107119
40
0.3843497
50
1.363792
51
90.1877013
0
ARC
8
DEFAULT_255_2_778
10
20.2329096
20
74.3041312
40
0.8684198
50
359.7643557
51
42.1181505
0
ARC
8
DEFAULT_255_2_778
10
20.2353156
20
74.3045609
40
0.866348
50
42.2037872
51
87.9292218
0
ARC
8
DEFAULT_255_2_778
10
20.2305626
20
74.2632775
40
0.9077821
50
87.7235759
51
90.0025578
0
ARC
8
DEFAULT_255_2_778
10
12.9266813
20
74.3175938
40
0.3775476
50
0.3438524
51
91.1927816
0
ARC
8
DEFAULT_255_2_778
10
12.9805692
20
74.3041272
40
0.8684602
50
359.7646302
51
42.1161032
0
ARC
8
DEFAULT_255_2_778
10
12.9830774
20
74.3046804
40
0.8662296
50
42.2002176
51
87.9268901
0
ARC
8
DEFAULT_255_2_778
10
12.9783626
20
74.2636426
40
0.9074169
50
87.7231194
51
90.002558
0
ARC
8
DEFAULT_255_2_778
10
17.559042
20
73.9123535
40
1.2841942
50
233.3100129
51
270.0348017
0
ARC
8
DEFAULT_255_2_778
10
17.5711133
20
73.9327299
40
1.3077482
50
187.7860459
51
233.4193197
0
ARC
8
DEFAULT_255_2_778
10
17.5893588
20
73.9342862
40
1.3260368
50
179.9838663
51
187.7458681
0
ARC
8
DEFAULT_255_2_778
10
17.5478523
20
73.9349052
40
1.2845303
50
143.7084173
51
180.0109545
0
ARC
8
DEFAULT_255_2_778
10
17.5629238
20
73.9298576
40
1.2996747
50
94.9692901
51
143.9223324
0
ARC
8
DEFAULT_255_2_778
10
17.5597032
20
73.9305024
40
1.2987573
50
89.9947559
51
94.8302073
0
ARC
8
DEFAULT_255_2_778
10
17.5620152
20
73.9245179
40
1.3047435
50
58.1429841
51
90.0963106
0
ARC
8
DEFAULT_255_2_778
10
17.5702244
20
73.9305054
40
1.2953307
50
3.4984463
51
58.3116148
0
ARC
8
DEFAULT_255_2_778
10
17.5704037
20
73.9344205
40
1.2949184
50
359.9973027
51
3.3260237
0
ARC
8
DEFAULT_255_2_778
10
17.385668
20
73.9323181
40
1.4796554
50
0.0060895
51
0.0790519
0
ARC
8
DEFAULT_255_2_778
10
17.5607837
20
73.9326189
40
1.3045398
50
315.0179824
51
359.9936925
0
ARC
8
DEFAULT_255_2_778
10
17.561074
20
73.932191
40
1.3040319
50
269.9947129
51
315.0222645
0
LINE
8
DEFAULT_255_2_778
10
17.5609537
20
72.6281591
11
17.5598221
21
72.6281596
0
ARC
8
DEFAULT_255_2_778
10
17.5640812
20
73.9306789
40
0.7580313
50
269.6780691
51
315.5292436
0
ARC
8
DEFAULT_255_2_778
10
17.5610107
20
73.9299556
40
0.7597205
50
315.7303962
51
0.2857903
0
ARC
8
DEFAULT_255_2_778
10
17.8487376
20
73.9342059
40
0.4719845
50
359.944048
51
0.0186519
0
ARC
8
DEFAULT_255_2_778
10
17.5687772
20
73.9332282
40
0.7519457
50
0.086204
51
85.4319233
0
ARC
8
DEFAULT_255_2_778
10
17.5599609
20
73.8908015
40
0.7949581
50
85.0420495
51
90.0100075
0
ARC
8
DEFAULT_255_2_778
10
17.5579396
20
73.9475196
40
0.7382424
50
89.8538973
51
89.9999976
0
ARC
8
DEFAULT_255_2_778
10
17.558077
20
73.9345721
40
0.7511899
50
90.01048
51
134.9443097
0
ARC
8
DEFAULT_255_2_778
10
17.5582947
20
73.9343899
40
0.7514726
50
134.9462486
51
180.0023145
0
ARC
8
DEFAULT_255_2_778
10
17.5708624
20
73.9304552
40
0.7640503
50
179.7072119
51
222.5790813
0
ARC
8
DEFAULT_255_2_778
10
17.5579296
20
73.9194152
40
0.7470579
50
222.6267201
51
270.1451401
0
ARC
8
DEFAULT_255_2_778
10
9.564442
20
73.9123535
40
1.2841942
50
233.3100129
51
270.0348017
0
ARC
8
DEFAULT_255_2_778
10
9.5765133
20
73.9327299
40
1.3077482
50
187.7860459
51
233.4193197
0
ARC
8
DEFAULT_255_2_778
10
9.5947588
20
73.9342862
40
1.3260368
50
179.9838663
51
187.7458681
0
ARC
8
DEFAULT_255_2_778
10
9.5533136
20
73.934924
40
1.2845916
50
143.7114698
51
180.0117952
0
ARC
8
DEFAULT_255_2_778
10
9.5683755
20
73.9297703
40
1.299791
50
95.4071875
51
143.9213067
0
ARC
8
DEFAULT_255_2_778
10
9.565082
20
73.9308475
40
1.2984121
50
89.9938197
51
95.266981
0
ARC
8
DEFAULT_255_2_778
10
9.5673999
20
73.924719
40
1.3045424
50
58.1404634
51
90.0956514
0
ARC
8
DEFAULT_255_2_778
10
9.5754868
20
73.9305012
40
1.2953683
50
3.4985319
51
58.3092733
0
ARC
8
DEFAULT_255_2_778
10
9.5757037
20
73.9344205
40
1.2949184
50
359.9973027
51
3.3260236
0
ARC
8
DEFAULT_255_2_778
10
9.390968
20
73.9323181
40
1.4796554
50
0.0060895
51
0.0790519
0
ARC
8
DEFAULT_255_2_778
10
9.5660837
20
73.9326189
40
1.3045398
50
315.0179824
51
359.9936925
0
ARC
8
DEFAULT_255_2_778
10
9.566398
20
73.9321333
40
1.3039742
50
269.9980398
51
315.0233127
0
LINE
8
DEFAULT_255_2_778
10
9.5663534
20
72.6281591
11
9.5652221
21
72.6281596
0
ARC
8
DEFAULT_255_2_778
10
9.5694412
20
73.9306812
40
0.7580334
50
269.6810953
51
315.6152252
0
ARC
8
DEFAULT_255_2_778
10
9.5663839
20
73.9300058
40
0.7597504
50
315.8129036
51
0.3254485
0
ARC
8
DEFAULT_255_2_778
10
9.5738176
20
73.9329242
40
0.7523058
50
0.1093155
51
85.7820321
0
ARC
8
DEFAULT_255_2_778
10
9.5653381
20
73.891394
40
0.7943655
50
85.3923987
51
90.0083732
0
ARC
8
DEFAULT_255_2_778
10
9.5633385
20
73.9466025
40
0.7391595
50
89.8539942
51
89.9999859
0
ARC
8
DEFAULT_255_2_778
10
9.563405
20
73.934746
40
0.7510159
50
90.0050654
51
134.9497993
0
ARC
8
DEFAULT_255_2_778
10
9.5632746
20
73.934564
40
0.7510526
50
134.9329452
51
180.0155944
0
ARC
8
DEFAULT_255_2_778
10
9.5762945
20
73.9304289
40
0.7640826
50
179.7052536
51
222.5741919
0
ARC
8
DEFAULT_255_2_778
10
9.5632805
20
73.919384
40
0.7470269
50
222.6256588
51
270.1489141
0
LINE
8
DEFAULT_255_2_778
10
14.0768221
20
75.1504596
11
14.0768221
21
72.6876596
0
LINE
8
DEFAULT_255_2_778
10
14.0768221
20
72.6876596
11
14.6203221
21
72.6876596
0
LINE
8
DEFAULT_255_2_778
10
14.6203221
20
72.6876596
11
14.6203221
21
74.6950596
0
LINE
8
DEFAULT_255_2_778
10
14.6203221
20
74.6950596
11
15.2632221
21
74.6950596
0
LINE
8
DEFAULT_255_2_778
10
15.2632221
20
73.9343596
11
14.7986221
21
73.9343596
0
LINE
8
DEFAULT_255_2_778
10
14.7986221
20
73.9343596
11
15.6397221
21
72.6873596
0
LINE
8
DEFAULT_255_2_778
10
15.6397221
20
72.6873596
11
16.3126221
21
72.6873596
0
LINE
8
DEFAULT_255_2_778
10
16.3126221
20
72.6873596
11
15.6993221
21
73.5877596
0
LINE
8
DEFAULT_255_2_778
10
15.3421221
20
75.1710596
11
14.6200221
21
75.1710596
0
LINE
8
DEFAULT_255_2_778
10
14.6200221
20
75.1710596
11
14.0766221
21
75.1504596
0
LINE
8
DEFAULT_255_2_778
10
14.0766221
20
75.1504596
11
14.0768221
21
75.1504596
0
LINE
8
DEFAULT_255_2_778
10
19.0142221
20
75.1504596
11
19.0142221
21
72.6876596
0
LINE
8
DEFAULT_255_2_778
10
19.0142221
20
72.6876596
11
19.5577221
21
72.6876596
0
LINE
8
DEFAULT_255_2_778
10
19.5577221
20
72.6876596
11
19.5577221
21
74.6950596
0
LINE
8
DEFAULT_255_2_778
10
19.5577221
20
74.6950596
11
20.1723221
21
74.6950596
0
LINE
8
DEFAULT_255_2_778
10
20.5578221
20
74.3198596
11
20.5578221
21
72.6876596
0
LINE
8
DEFAULT_255_2_778
10
20.5578221
20
72.6876596
11
21.1013221
21
72.6876596
0
LINE
8
DEFAULT_255_2_778
10
21.1013221
20
72.6876596
11
21.1013221
21
74.3005596
0
LINE
8
DEFAULT_255_2_778
10
20.2305221
20
75.1710596
11
19.5577221
21
75.1710596
0
LINE
8
DEFAULT_255_2_778
10
19.5577221
20
75.1710596
11
19.0142221
21
75.1504596
0
LINE
8
DEFAULT_255_2_778
10
19.0142221
20
75.1504596
11
19.0142221
21
75.1504596
0
LINE
8
DEFAULT_255_2_778
10
11.0196221
20
75.1504596
11
11.0196221
21
72.6876596
0
LINE
8
DEFAULT_255_2_778
10
11.0196221
20
72.6876596
11
11.5628221
21
72.6876596
0
LINE
8
DEFAULT_255_2_778
10
11.5628221
20
72.6876596
11
11.5628221
21
74.6950596
0
LINE
8
DEFAULT_255_2_778
10
11.5628221
20
74.6950596
11
12.1671221
21
74.6950596
0
LINE
8
DEFAULT_255_2_778
10
12.1671221
20
74.6950596
11
12.1671221
21
72.6876596
0
LINE
8
DEFAULT_255_2_778
10
12.1671221
20
72.6876596
11
12.7105221
21
72.6876596
0
LINE
8
DEFAULT_255_2_778
10
12.7105221
20
72.6876596
11
12.7105221
21
74.6950596
0
LINE
8
DEFAULT_255_2_778
10
12.7105221
20
74.6950596
11
12.9188221
21
74.6950596
0
LINE
8
DEFAULT_255_2_778
10
13.3042221
20
74.3198596
11
13.3042221
21
72.6876596
0
LINE
8
DEFAULT_255_2_778
10
13.3042221
20
72.6876596
11
13.8490221
21
72.6876596
0
LINE
8
DEFAULT_255_2_778
10
13.8490221
20
72.6876596
11
13.8490221
21
74.3005596
0
LINE
8
DEFAULT_255_2_778
10
12.9783221
20
75.1710596
11
11.5731221
21
75.1710596
0
LINE
8
DEFAULT_255_2_778
10
11.5731221
20
75.1710596
11
11.0193221
21
75.1504596
0
LINE
8
DEFAULT_255_2_778
10
11.0193221
20
75.1504596
11
11.0196221
21
75.1504596
0
LINE
8
DEFAULT_255_2_778
10
17.5598221
20
72.6281596
11
17.5598221
21
72.6281596
0
LINE
8
DEFAULT_255_2_778
10
9.5652221
20
72.6281596
11
9.5652221
21
72.6281596
0
LINE
8
DEFAULT_255_2_778
10
9.3932417
20
60.721908
11
10.7161417
21
60.721908
0
LINE
8
DEFAULT_255_2_778
10
10.7161417
20
60.721908
11
10.7161417
21
35.586508
0
LINE
8
DEFAULT_255_2_778
10
9.3932834
20
35.5864333
11
12.0390834
21
35.5864333
0
LINE
8
DEFAULT_255_2_778
10
12.0390834
20
35.5864333
11
12.0390834
21
30.2947333
0
LINE
8
DEFAULT_255_2_778
10
12.0390834
20
30.2947333
11
9.3932834
21
30.2947333
0
LINE
8
DEFAULT_255_2_778
10
9.3932834
20
30.2947333
11
9.3932834
21
35.5864333
0
ARC
8
DEFAULT_255_2_778_1
10
13.1928591
20
30.397177
40
4.816461
50
120.9442904
51
122.351755
0
ARC
8
DEFAULT_255_2_778_1
10
12.7462523
20
31.1008039
40
3.9830657
50
122.3407904
51
124.1946752
0
ARC
8
DEFAULT_255_2_778_1
10
12.3063464
20
31.7473306
40
3.2010724
50
124.1855758
51
126.4338849
0
ARC
8
DEFAULT_255_2_778_1
10
11.9204129
20
32.2700611
40
2.5513094
50
126.4326926
51
128.8877368
0
ARC
8
DEFAULT_255_2_778_1
10
11.5855968
20
32.6844658
40
2.0185498
50
128.8749205
51
131.8726567
0
ARC
8
DEFAULT_255_2_778_1
10
11.2884677
20
33.0154854
40
1.5737356
50
131.8616166
51
135.4168838
0
ARC
8
DEFAULT_255_2_778_1
10
11.025668
20
33.2736765
40
1.2053256
50
135.3893975
51
139.9687014
0
ARC
8
DEFAULT_255_2_778_1
10
10.7927889
20
33.4685102
40
0.9016937
50
139.9301659
51
145.9260426
0
ARC
8
DEFAULT_255_2_778_1
10
10.596654
20
33.6005104
40
0.6652776
50
145.8787362
51
153.8146208
0
ARC
8
DEFAULT_255_2_778_1
10
10.4445553
20
33.6748797
40
0.4959714
50
153.770634
51
164.3484794
0
ARC
8
DEFAULT_255_2_778_1
10
10.3432387
20
33.7030786
40
0.3908039
50
164.3220276
51
179.8083066
0
ARC
8
DEFAULT_255_2_778_1
10
10.3642789
20
33.711215
40
0.4118985
50
180.9499449
51
213.8111542
0
ARC
8
DEFAULT_255_2_778_1
10
10.6401828
20
33.8807896
40
0.73561
50
212.8271214
51
224.258472
0
ARC
8
DEFAULT_255_2_778_1
10
11.0230335
20
34.2501236
40
1.267567
50
224.1376218
51
231.4508261
0
ARC
8
DEFAULT_255_2_778_1
10
11.6657195
20
35.0531168
40
2.2960809
50
231.3955893
51
236.1256478
0
ARC
8
DEFAULT_255_2_778_1
10
13.4980223
20
37.7996293
40
5.5976905
50
236.2233172
51
239.1314682
0
ARC
8
DEFAULT_255_2_778_1
10
25.447927
20
57.5273568
40
28.6623793
50
238.8606853
51
239.0711101
0
ARC
8
DEFAULT_255_2_778_1
10
6.2757281
20
25.4302653
40
8.7248518
50
57.2420924
51
59.4062964
0
ARC
8
DEFAULT_255_2_778_1
10
9.5034241
20
30.4612102
40
2.747542
50
52.8289294
51
57.079028
0
ARC
8
DEFAULT_255_2_778_1
10
10.2780783
20
31.4815488
40
1.466457
50
46.3041868
51
52.8596521
0
ARC
8
DEFAULT_255_2_778_1
10
10.7103073
20
31.9316842
40
0.8424061
50
36.2174211
51
46.4090895
0
ARC
8
DEFAULT_255_2_778_1
10
10.9948088
20
32.1365128
40
0.4918609
50
17.400375
51
36.5489745
0
ARC
8
DEFAULT_255_2_778_1
10
11.1088994
20
32.1763754
40
0.3710912
50
0.0676858
51
16.7951297
0
ARC
8
DEFAULT_255_2_778_1
10
11.0878613
20
32.1782428
40
0.3921317
50
343.8035191
51
359.7912046
0
ARC
8
DEFAULT_255_2_778_1
10
10.9815912
20
32.2087167
40
0.5026844
50
333.2506233
51
343.8465691
0
ARC
8
DEFAULT_255_2_778_1
10
10.8277757
20
32.2854313
40
0.6745679
50
325.6600948
51
333.3122657
0
ARC
8
DEFAULT_255_2_778_1
10
10.6323344
20
32.4182296
40
0.9108568
50
319.7560915
51
325.6976089
0
ARC
8
DEFAULT_255_2_778_1
10
10.404199
20
32.6100002
40
1.2088854
50
315.4577584
51
319.8037947
0
ARC
8
DEFAULT_255_2_778_1
10
10.1408127
20
32.8688507
40
1.5781764
50
311.7298824
51
315.4670864
0
ARC
8
DEFAULT_255_2_778_1
10
9.8317879
20
33.2144074
40
2.0417554
50
308.723055
51
311.7470879
0
ARC
8
DEFAULT_255_2_778_1
10
9.477589
20
33.6556492
40
2.6075745
50
306.1165163
51
308.7300151
0
ARC
8
DEFAULT_255_2_778_1
10
9.0746091
20
34.2069523
40
3.2904564
50
303.9559446
51
306.1266333
0
ARC
8
DEFAULT_255_2_778_1
10
8.6630432
20
34.816215
40
4.0257023
50
302.3733397
51
303.9712246
0
ARC
8
DEFAULT_255_2_778_1
10
8.2434347
20
35.4777058
40
4.8090549
50
300.9434827
51
302.3758078
0
LINE
8
DEFAULT_255_2_778
10
10.7161417
20
30.294808
11
10.7161417
21
5.159408
0
LINE
8
DEFAULT_255_2_778
10
10.7161417
20
5.159408
11
9.3932417
21
5.159408
0
LINE
8
DEFAULT_255_1_388
10
4.8809318
20
68.2883382
11
4.8809318
21
68.1519
0
LINE
8
DEFAULT_255_1_388
10
4.8809318
20
68.1519
11
4.0189313
21
68.1519
0
LINE
8
DEFAULT_255_1_388
10
4.0189313
20
68.1519
11
4.0189313
21
68.2720741
0
LINE
8
DEFAULT_255_1_388
10
4.0189313
20
68.2720741
11
4.4743278
21
68.7780702
0
LINE
8
DEFAULT_255_1_388
10
4.1607909
20
69.0798607
11
3.9936315
21
69.0798607
0
LINE
8
DEFAULT_255_1_388
10
4.5728163
20
68.670546
11
4.2204262
21
68.2883382
0
LINE
8
DEFAULT_255_1_388
10
4.2204262
20
68.2883382
11
4.8809318
21
68.2883382
0
ARC
8
DEFAULT_255_1_388
10
2.9567337
20
70.1200983
40
2.0258655
50
318.5132526
51
320.7829045
0
ARC
8
DEFAULT_255_1_388
10
3.5515294
20
69.6359929
40
1.2589638
50
320.7372878
51
323.9739031
0
ARC
8
DEFAULT_255_1_388
10
3.9924226
20
69.3165554
40
0.7145141
50
323.8962701
51
328.64194
0
ARC
8
DEFAULT_255_1_388
10
4.2226484
20
69.1745545
40
0.4440242
50
328.8294576
51
331.7891185
0
ARC
8
DEFAULT_255_1_388
10
4.3348804
20
69.1166374
40
0.3177517
50
331.4254512
51
352.9365785
0
ARC
8
DEFAULT_255_1_388
10
4.3501804
20
69.113205
40
0.3021496
50
353.2257659
51
0.0166158
0
ARC
8
DEFAULT_255_1_388
10
4.3738564
20
69.1157894
40
0.2784847
50
359.486299
51
15.9343185
0
ARC
8
DEFAULT_255_1_388
10
4.4308831
20
69.1311269
40
0.2194403
50
16.1712913
51
43.5286088
0
ARC
8
DEFAULT_255_1_388
10
4.4395776
20
69.1398191
40
0.2071504
50
43.4417391
51
83.1661095
0
ARC
8
DEFAULT_255_1_388
10
4.4244937
20
69.0569316
40
0.2912888
50
82.160179
51
90.1505708
0
ARC
8
DEFAULT_255_1_388
10
4.4209418
20
68.9965279
40
0.3517025
50
89.5460741
51
102.5418361
0
ARC
8
DEFAULT_255_1_388
10
4.3936138
20
69.1124933
40
0.2325748
50
102.1738499
51
129.206123
0
ARC
8
DEFAULT_255_1_388
10
4.3847592
20
69.1264664
40
0.2161591
50
129.72865
51
135.753947
0
ARC
8
DEFAULT_255_1_388
10
4.3984074
20
69.1155728
40
0.2335433
50
136.1757367
51
166.3673339
0
ARC
8
DEFAULT_255_1_388
10
4.5116762
20
69.0852148
40
0.3507873
50
165.9090694
51
178.8684636
0
ARC
8
DEFAULT_255_1_388
10
4.6092534
20
69.0799263
40
0.4484624
50
178.4391136
51
180.0083808
0
ARC
8
DEFAULT_255_1_388
10
4.4513235
20
69.0843197
40
0.4577138
50
163.2878482
51
180.5581842
0
ARC
8
DEFAULT_255_1_388
10
4.3611276
20
69.1091393
40
0.3641968
50
133.4540601
51
162.947111
0
ARC
8
DEFAULT_255_1_388
10
4.3812158
20
69.0877789
40
0.3935189
50
100.7869829
51
133.4382499
0
ARC
8
DEFAULT_255_1_388
10
4.4203403
20
68.9135399
40
0.5720313
50
89.660664
51
101.3702276
0
ARC
8
DEFAULT_255_1_388
10
4.4278012
20
68.9204263
40
0.5651495
50
78.2172678
51
90.412935
0
ARC
8
DEFAULT_255_1_388
10
4.4677478
20
69.1031511
40
0.378122
50
55.9269121
51
78.4888449
0
ARC
8
DEFAULT_255_1_388
10
4.4898193
20
69.1412187
40
0.3342379
50
47.929771
51
55.4049217
0
ARC
8
DEFAULT_255_1_388
10
4.5012723
20
69.1528618
40
0.3179217
50
4.334829
51
48.0560205
0
ARC
8
DEFAULT_255_1_388
10
4.3780525
20
69.1337487
40
0.442341
50
359.9251713
51
5.5971671
0
ARC
8
DEFAULT_255_1_388
10
4.426268
20
69.1400728
40
0.3941854
50
337.8914027
51
358.9967534
0
ARC
8
DEFAULT_255_1_388
10
4.121025
20
69.2578295
40
0.7213271
50
326.9132501
51
338.3508308
0
ARC
8
DEFAULT_255_1_388
10
3.6726362
20
69.5452105
40
1.2538973
50
319.6471833
51
327.0959558
0
ARC
8
DEFAULT_255_1_388
10
3.241302
20
69.901005
40
1.8129975
50
317.2588228
51
319.9045804
0
LINE
8
DEFAULT_255_1_388
10
5.7637143
20
69.4674898
11
5.7637143
21
68.593743
0
LINE
8
DEFAULT_255_1_388
10
5.7637143
20
68.593743
11
5.9462343
21
68.593743
0
LINE
8
DEFAULT_255_1_388
10
5.9462343
20
68.593743
11
5.9462343
21
68.4573048
0
LINE
8
DEFAULT_255_1_388
10
5.9462343
20
68.4573048
11
5.7637143
21
68.4573048
0
LINE
8
DEFAULT_255_1_388
10
5.7637143
20
68.4573048
11
5.7637143
21
68.1519
0
LINE
8
DEFAULT_255_1_388
10
5.7637143
20
68.1519
11
5.5956513
21
68.1519
0
LINE
8
DEFAULT_255_1_388
10
5.5956513
20
68.1519
11
5.5956513
21
68.4573048
0
LINE
8
DEFAULT_255_1_388
10
5.5956513
20
68.4573048
11
4.996588
21
68.4573048
0
LINE
8
DEFAULT_255_1_388
10
4.996588
20
68.4573048
11
4.996588
21
68.5557933
0
LINE
8
DEFAULT_255_1_388
10
4.996588
20
68.5557933
11
5.5857121
21
69.4674898
0
LINE
8
DEFAULT_255_1_388
10
5.5857121
20
69.4674898
11
5.7637143
21
69.4674898
0
LINE
8
DEFAULT_255_1_388
10
5.5757729
20
69.2027455
11
5.1863366
21
68.593743
0
LINE
8
DEFAULT_255_1_388
10
5.1863366
20
68.593743
11
5.5956513
21
68.593743
0
LINE
8
DEFAULT_255_1_388
10
5.5956513
20
68.593743
11
5.5956513
21
69.238888
0
LINE
8
DEFAULT_255_1_388
10
5.5956513
20
69.238888
11
5.5757729
21
69.2027455
0
LINE
8
DEFAULT_255_1_388
10
6.201943
20
69.4674898
11
6.5760187
21
68.3823089
0
LINE
8
DEFAULT_255_1_388
10
6.5760187
20
68.3823089
11
6.9519015
21
69.4674898
0
LINE
8
DEFAULT_255_1_388
10
6.9519015
20
69.4674898
11
7.14165
21
69.4674898
0
LINE
8
DEFAULT_255_1_388
10
7.14165
20
69.4674898
11
6.6537252
21
68.1519
0
LINE
8
DEFAULT_255_1_388
10
6.6537252
20
68.1519
11
6.5001193
21
68.1519
0
LINE
8
DEFAULT_255_1_388
10
6.5001193
20
68.1519
11
6.013098
21
69.4674898
0
LINE
8
DEFAULT_255_1_388
10
6.013098
20
69.4674898
11
6.201943
21
69.4674898
0
LINE
8
DEFAULT_255_1_388
10
4.5874024
20
4.6519
11
4.1311024
21
4.6519
0
LINE
8
DEFAULT_255_1_388
10
4.1311024
20
4.6519
11
4.1311024
21
5.9674898
0
LINE
8
DEFAULT_255_1_388
10
4.1311024
20
5.9674898
11
4.5611991
21
5.9674898
0
LINE
8
DEFAULT_255_1_388
10
4.5937274
20
5.2672274
11
4.3045868
21
5.2672274
0
LINE
8
DEFAULT_255_1_388
10
4.3045868
20
5.2672274
11
4.3045868
21
4.7937596
0
LINE
8
DEFAULT_255_1_388
10
4.3045868
20
4.7937596
11
4.5910167
21
4.7937596
0
LINE
8
DEFAULT_255_1_388
10
4.3045868
20
5.8247267
11
4.3045868
21
5.4063763
0
LINE
8
DEFAULT_255_1_388
10
4.3045868
20
5.4063763
11
4.5666205
21
5.4063763
0
LINE
8
DEFAULT_255_1_388
10
4.5611991
20
5.8247267
11
4.3045868
21
5.8247267
0
ARC
8
DEFAULT_255_1_388
10
4.5654411
20
5.1386824
40
0.8288183
50
82.1256322
51
90.2932506
0
ARC
8
DEFAULT_255_1_388
10
4.6091986
20
5.444459
40
0.5199321
50
69.9044202
51
82.2857574
0
ARC
8
DEFAULT_255_1_388
10
4.6733979
20
5.6179993
40
0.3348993
50
51.1840204
51
70.018125
0
ARC
8
DEFAULT_255_1_388
10
4.7020811
20
5.6596945
40
0.2844579
50
12.1018086
51
50.421322
0
ARC
8
DEFAULT_255_1_388
10
4.5463682
20
5.6205937
40
0.4449429
50
359.5252354
51
12.8212369
0
ARC
8
DEFAULT_255_1_388
10
4.7241112
20
5.6127943
40
0.2672162
50
323.4907456
51
0.8818258
0
ARC
8
DEFAULT_255_1_388
10
4.6770525
20
5.6491523
40
0.3266736
50
298.6824053
51
323.2758285
0
ARC
8
DEFAULT_255_1_388
10
4.6363816
20
5.7167509
40
0.4055105
50
293.1994739
51
299.139634
0
ARC
8
DEFAULT_255_1_388
10
4.7120766
20
5.0321651
40
0.3229926
50
54.0009997
51
74.9168635
0
ARC
8
DEFAULT_255_1_388
10
4.7251693
20
5.0543511
40
0.2973581
50
36.3578854
51
53.5293172
0
ARC
8
DEFAULT_255_1_388
10
4.7109061
20
5.044185
40
0.3148715
50
4.8189348
51
36.3090187
0
ARC
8
DEFAULT_255_1_388
10
4.6232085
20
5.0318383
40
0.4033265
50
359.9373213
51
5.5201284
0
ARC
8
DEFAULT_255_1_388
10
4.5867415
20
5.0272733
40
0.4398126
50
344.7479357
51
0.5372278
0
ARC
8
DEFAULT_255_1_388
10
4.6982314
20
4.9972205
40
0.3243441
50
311.1785587
51
344.6887681
0
ARC
8
DEFAULT_255_1_388
10
4.6653857
20
5.0381084
40
0.3767511
50
286.0417804
51
310.8440924
0
ARC
8
DEFAULT_255_1_388
10
4.6083266
20
5.2233885
40
0.5705957
50
274.1044074
51
286.4070149
0
ARC
8
DEFAULT_255_1_388
10
4.5884482
20
5.4351901
40
0.7832907
50
269.9235077
51
274.4458593
0
ARC
8
DEFAULT_255_1_388
10
4.59362
20
5.1720462
40
0.3782955
50
269.6057074
51
281.3740795
0
ARC
8
DEFAULT_255_1_388
10
4.6195698
20
5.0490569
40
0.2526069
50
281.105298
51
302.5134029
0
ARC
8
DEFAULT_255_1_388
10
4.6361086
20
5.0193944
40
0.2187131
50
303.0365425
51
311.8818034
0
ARC
8
DEFAULT_255_1_388
10
4.6441263
20
5.0098602
40
0.2062624
50
311.9916937
51
351.7143773
0
ARC
8
DEFAULT_255_1_388
10
4.5522288
20
5.0284271
40
0.2999202
50
350.7343295
51
0.2221526
0
ARC
8
DEFAULT_255_1_388
10
4.5401376
20
5.034787
40
0.3120525
50
359.045729
51
17.2295312
0
ARC
8
DEFAULT_255_1_388
10
4.6570406
20
5.0695155
40
0.1901144
50
17.6685208
51
78.9940245
0
ARC
8
DEFAULT_255_1_388
10
4.5988767
20
4.8607011
40
0.4065575
50
76.565218
51
90.7103392
0
LINE
8
DEFAULT_255_1_388
10
4.5938364
20
5.2672274
11
4.5937274
21
5.2672274
0
ARC
8
DEFAULT_255_1_388
10
4.5691593
20
5.7759949
40
0.3696273
50
269.6064514
51
281.4533785
0
ARC
8
DEFAULT_255_1_388
10
4.5942234
20
5.6577283
40
0.2487412
50
281.2044438
51
302.5143998
0
ARC
8
DEFAULT_255_1_388
10
4.6096488
20
5.6299576
40
0.2170405
50
303.0211308
51
309.8378766
0
ARC
8
DEFAULT_255_1_388
10
4.6302605
20
5.6068486
40
0.1860946
50
309.5229446
51
356.9509628
0
ARC
8
DEFAULT_255_1_388
10
4.5556731
20
5.6175831
40
0.2612347
50
355.4699226
51
0.0498632
0
ARC
8
DEFAULT_255_1_388
10
4.5242404
20
5.6200789
40
0.2926762
50
359.5558955
51
11.2092924
0
ARC
8
DEFAULT_255_1_388
10
4.6319372
20
5.6423667
40
0.1827036
50
10.9185717
51
31.322519
0
ARC
8
DEFAULT_255_1_388
10
4.664092
20
5.6602571
40
0.1459418
50
31.8850633
51
52.1415586
0
ARC
8
DEFAULT_255_1_388
10
4.6332349
20
5.6166674
40
0.1993088
50
52.8283418
51
71.9850132
0
ARC
8
DEFAULT_255_1_388
10
4.590951
20
5.4922158
40
0.3307407
50
71.686634
51
82.8453416
0
ARC
8
DEFAULT_255_1_388
10
4.5640157
20
5.2886892
40
0.536039
50
82.6981895
51
90.1730083
0
ARC
8
DEFAULT_255_1_388
10
4.5614989
20
5.3765836
40
0.4481429
50
89.8851568
51
90.0383283
0
LINE
8
DEFAULT_255_1_388
10
5.9454598
20
5.9674898
11
5.9454598
21
5.093743
0
LINE
8
DEFAULT_255_1_388
10
5.9454598
20
5.093743
11
6.1279798
21
5.093743
0
LINE
8
DEFAULT_255_1_388
10
6.1279798
20
5.093743
11
6.1279798
21
4.9573048
0
LINE
8
DEFAULT_255_1_388
10
6.1279798
20
4.9573048
11
5.9454598
21
4.9573048
0
LINE
8
DEFAULT_255_1_388
10
5.9454598
20
4.9573048
11
5.9454598
21
4.6519
0
LINE
8
DEFAULT_255_1_388
10
5.9454598
20
4.6519
11
5.7773968
21
4.6519
0
LINE
8
DEFAULT_255_1_388
10
5.7773968
20
4.6519
11
5.7773968
21
4.9573048
0
LINE
8
DEFAULT_255_1_388
10
5.7773968
20
4.9573048
11
5.1783336
21
4.9573048
0
LINE
8
DEFAULT_255_1_388
10
5.1783336
20
4.9573048
11
5.1783336
21
5.0557933
0
LINE
8
DEFAULT_255_1_388
10
5.1783336
20
5.0557933
11
5.7674576
21
5.9674898
0
LINE
8
DEFAULT_255_1_388
10
5.7674576
20
5.9674898
11
5.9454598
21
5.9674898
0
LINE
8
DEFAULT_255_1_388
10
5.7575184
20
5.7027455
11
5.3680821
21
5.093743
0
LINE
8
DEFAULT_255_1_388
10
5.3680821
20
5.093743
11
5.7773968
21
5.093743
0
LINE
8
DEFAULT_255_1_388
10
5.7773968
20
5.093743
11
5.7773968
21
5.738888
0
LINE
8
DEFAULT_255_1_388
10
5.7773968
20
5.738888
11
5.7575184
21
5.7027455
0
LINE
8
DEFAULT_255_1_388
10
5.1154637
20
12.5894
11
4.9898682
21
12.9327545
0
LINE
8
DEFAULT_255_1_388
10
4.9898682
20
12.9327545
11
4.4386939
21
12.9327545
0
LINE
8
DEFAULT_255_1_388
10
4.4386939
20
12.9327545
11
4.3149056
21
12.5894
0
LINE
8
DEFAULT_255_1_388
10
4.3149056
20
12.5894
11
4.1359998
21
12.5894
0
LINE
8
DEFAULT_255_1_388
10
4.1359998
20
12.5894
11
4.6383816
21
13.9049898
0
LINE
8
DEFAULT_255_1_388
10
4.6383816
20
13.9049898
11
4.7901805
21
13.9049898
0
LINE
8
DEFAULT_255_1_388
10
4.7901805
20
13.9049898
11
5.2934659
21
12.5894
0
LINE
8
DEFAULT_255_1_388
10
5.2934659
20
12.5894
11
5.1154637
21
12.5894
0
LINE
8
DEFAULT_255_1_388
10
4.7142811
20
13.6908451
11
4.4911006
21
13.0755177
0
LINE
8
DEFAULT_255_1_388
10
4.4911006
20
13.0755177
11
4.938365
21
13.0755177
0
LINE
8
DEFAULT_255_1_388
10
4.938365
20
13.0755177
11
4.7142811
21
13.6908451
0
LINE
8
DEFAULT_255_1_388
10
6.1328772
20
13.9049898
11
6.1328772
21
13.031243
0
LINE
8
DEFAULT_255_1_388
10
6.1328772
20
13.031243
11
6.3153973
21
13.031243
0
LINE
8
DEFAULT_255_1_388
10
6.3153973
20
13.031243
11
6.3153973
21
12.8948048
0
LINE
8
DEFAULT_255_1_388
10
6.3153973
20
12.8948048
11
6.1328772
21
12.8948048
0
LINE
8
DEFAULT_255_1_388
10
6.1328772
20
12.8948048
11
6.1328772
21
12.5894
0
LINE
8
DEFAULT_255_1_388
10
6.1328772
20
12.5894
11
5.9648143
21
12.5894
0
LINE
8
DEFAULT_255_1_388
10
5.9648143
20
12.5894
11
5.9648143
21
12.8948048
0
LINE
8
DEFAULT_255_1_388
10
5.9648143
20
12.8948048
11
5.365751
21
12.8948048
0
LINE
8
DEFAULT_255_1_388
10
5.365751
20
12.8948048
11
5.365751
21
12.9932933
0
LINE
8
DEFAULT_255_1_388
10
5.365751
20
12.9932933
11
5.954875
21
13.9049898
0
LINE
8
DEFAULT_255_1_388
10
5.954875
20
13.9049898
11
6.1328772
21
13.9049898
0
LINE
8
DEFAULT_255_1_388
10
5.9449358
20
13.6402455
11
5.5554996
21
13.031243
0
LINE
8
DEFAULT_255_1_388
10
5.5554996
20
13.031243
11
5.9648143
21
13.031243
0
LINE
8
DEFAULT_255_1_388
10
5.9648143
20
13.031243
11
5.9648143
21
13.676388
0
LINE
8
DEFAULT_255_1_388
10
5.9648143
20
13.676388
11
5.9449358
21
13.6402455
0
LINE
8
DEFAULT_255_1_388
10
4.4551024
20
20.5269
11
3.9988024
21
20.5269
0
LINE
8
DEFAULT_255_1_388
10
3.9988024
20
20.5269
11
3.9988024
21
21.8424898
0
LINE
8
DEFAULT_255_1_388
10
3.9988024
20
21.8424898
11
4.4288991
21
21.8424898
0
LINE
8
DEFAULT_255_1_388
10
4.4614274
20
21.1422274
11
4.1722868
21
21.1422274
0
LINE
8
DEFAULT_255_1_388
10
4.1722868
20
21.1422274
11
4.1722868
21
20.6687596
0
LINE
8
DEFAULT_255_1_388
10
4.1722868
20
20.6687596
11
4.4587167
21
20.6687596
0
LINE
8
DEFAULT_255_1_388
10
4.1722868
20
21.6997267
11
4.1722868
21
21.2813763
0
LINE
8
DEFAULT_255_1_388
10
4.1722868
20
21.2813763
11
4.4343205
21
21.2813763
0
LINE
8
DEFAULT_255_1_388
10
4.4288991
20
21.6997267
11
4.1722868
21
21.6997267
0
ARC
8
DEFAULT_255_1_388
10
4.4331411
20
21.0136824
40
0.8288183
50
82.1256322
51
90.2932506
0
ARC
8
DEFAULT_255_1_388
10
4.4768986
20
21.319459
40
0.5199321
50
69.9044202
51
82.2857574
0
ARC
8
DEFAULT_255_1_388
10
4.5410979
20
21.4929993
40
0.3348993
50
51.1840204
51
70.018125
0
ARC
8
DEFAULT_255_1_388
10
4.5697811
20
21.5346945
40
0.2844579
50
12.1018086
51
50.421322
0
ARC
8
DEFAULT_255_1_388
10
4.4140682
20
21.4955937
40
0.4449429
50
359.5252354
51
12.8212369
0
ARC
8
DEFAULT_255_1_388
10
4.5918112
20
21.4877943
40
0.2672162
50
323.4907456
51
0.8818258
0
ARC
8
DEFAULT_255_1_388
10
4.5447525
20
21.5241523
40
0.3266736
50
298.6824053
51
323.2758285
0
ARC
8
DEFAULT_255_1_388
10
4.5040816
20
21.5917509
40
0.4055105
50
293.1994739
51
299.139634
0
ARC
8
DEFAULT_255_1_388
10
4.5797766
20
20.9071651
40
0.3229926
50
54.0009997
51
74.9168635
0
ARC
8
DEFAULT_255_1_388
10
4.5928693
20
20.9293511
40
0.2973581
50
36.3578854
51
53.5293172
0
ARC
8
DEFAULT_255_1_388
10
4.5786061
20
20.919185
40
0.3148715
50
4.8189348
51
36.3090187
0
ARC
8
DEFAULT_255_1_388
10
4.4909085
20
20.9068383
40
0.4033265
50
359.9373213
51
5.5201284
0
ARC
8
DEFAULT_255_1_388
10
4.4544415
20
20.9022733
40
0.4398126
50
344.7479357
51
0.5372278
0
ARC
8
DEFAULT_255_1_388
10
4.5659314
20
20.8722205
40
0.3243441
50
311.1785587
51
344.6887681
0
ARC
8
DEFAULT_255_1_388
10
4.5330857
20
20.9131084
40
0.3767511
50
286.0417804
51
310.8440924
0
ARC
8
DEFAULT_255_1_388
10
4.4760266
20
21.0983885
40
0.5705957
50
274.1044074
51
286.4070149
0
ARC
8
DEFAULT_255_1_388
10
4.4561482
20
21.3101901
40
0.7832907
50
269.9235077
51
274.4458593
0
ARC
8
DEFAULT_255_1_388
10
4.46132
20
21.0470462
40
0.3782955
50
269.6057074
51
281.3740795
0
ARC
8
DEFAULT_255_1_388
10
4.4872698
20
20.9240569
40
0.2526069
50
281.105298
51
302.5134029
0
ARC
8
DEFAULT_255_1_388
10
4.5038086
20
20.8943944
40
0.2187131
50
303.0365425
51
311.8818034
0
ARC
8
DEFAULT_255_1_388
10
4.5118263
20
20.8848602
40
0.2062624
50
311.9916937
51
351.7143773
0
ARC
8
DEFAULT_255_1_388
10
4.4199288
20
20.9034271
40
0.2999202
50
350.7343295
51
0.2221526
0
ARC
8
DEFAULT_255_1_388
10
4.4078376
20
20.909787
40
0.3120525
50
359.045729
51
17.2295312
0
ARC
8
DEFAULT_255_1_388
10
4.5247406
20
20.9445155
40
0.1901144
50
17.6685208
51
78.9940245
0
ARC
8
DEFAULT_255_1_388
10
4.4665767
20
20.7357011
40
0.4065575
50
76.565218
51
90.7103392
0
LINE
8
DEFAULT_255_1_388
10
4.4615364
20
21.1422274
11
4.4614274
21
21.1422274
0
ARC
8
DEFAULT_255_1_388
10
4.4368593
20
21.6509949
40
0.3696273
50
269.6064514
51
281.4533785
0
ARC
8
DEFAULT_255_1_388
10
4.4619234
20
21.5327283
40
0.2487412
50
281.2044438
51
302.5143998
0
ARC
8
DEFAULT_255_1_388
10
4.4773488
20
21.5049576
40
0.2170405
50
303.0211308
51
309.8378766
0
ARC
8
DEFAULT_255_1_388
10
4.4979605
20
21.4818486
40
0.1860946
50
309.5229446
51
356.9509628
0
ARC
8
DEFAULT_255_1_388
10
4.4233731
20
21.4925831
40
0.2612347
50
355.4699226
51
0.0498632
0
ARC
8
DEFAULT_255_1_388
10
4.3919404
20
21.4950789
40
0.2926762
50
359.5558955
51
11.2092924
0
ARC
8
DEFAULT_255_1_388
10
4.4996372
20
21.5173667
40
0.1827036
50
10.9185717
51
31.322519
0
ARC
8
DEFAULT_255_1_388
10
4.531792
20
21.5352571
40
0.1459418
50
31.8850633
51
52.1415586
0
ARC
8
DEFAULT_255_1_388
10
4.5009349
20
21.4916674
40
0.1993088
50
52.8283418
51
71.9850132
0
ARC
8
DEFAULT_255_1_388
10
4.458651
20
21.3672158
40
0.3307407
50
71.686634
51
82.8453416
0
ARC
8
DEFAULT_255_1_388
10
4.4317157
20
21.1636892
40
0.536039
50
82.6981895
51
90.1730083
0
ARC
8
DEFAULT_255_1_388
10
4.4291989
20
21.2515836
40
0.4481429
50
89.8851568
51
90.0383283
0
LINE
8
DEFAULT_255_1_388
10
5.3505348
20
21.1295775
11
5.3505348
21
21.2660157
0
LINE
8
DEFAULT_255_1_388
10
5.3505348
20
21.2660157
11
5.4761303
21
21.2660157
0
LINE
8
DEFAULT_255_1_388
10
5.2619855
20
21.4973282
11
5.0948261
21
21.4973282
0
LINE
8
DEFAULT_255_1_388
10
5.0830797
20
20.8738687
11
5.2511427
21
20.8738687
0
LINE
8
DEFAULT_255_1_388
10
5.4761303
20
21.1295775
11
5.3505348
21
21.1295775
0
ARC
8
DEFAULT_255_1_388
10
5.4728529
20
21.6476922
40
0.3816905
50
270.491971
51
281.8953028
0
ARC
8
DEFAULT_255_1_388
10
5.4999956
20
21.5237199
40
0.2547877
50
281.6690378
51
301.2943765
0
ARC
8
DEFAULT_255_1_388
10
5.5191407
20
21.4886926
40
0.2149197
50
301.7834992
51
311.754567
0
ARC
8
DEFAULT_255_1_388
10
5.5294449
20
21.477265
40
0.1995326
50
311.7325027
51
354.2803031
0
ARC
8
DEFAULT_255_1_388
10
5.4476865
20
21.491328
40
0.2823461
50
353.0941646
51
0.1174696
0
ARC
8
DEFAULT_255_1_388
10
5.3958423
20
21.4966874
40
0.3342238
50
359.1804452
51
15.0452323
0
ARC
8
DEFAULT_255_1_388
10
5.5472481
20
21.5408546
40
0.1765747
50
13.957816
51
77.6713812
0
ARC
8
DEFAULT_255_1_388
10
5.5037717
20
21.3850464
40
0.3381982
50
76.111571
51
90.7028736
0
ARC
8
DEFAULT_255_1_388
10
5.4971129
20
21.415825
40
0.3074046
50
89.5321574
51
103.5319393
0
ARC
8
DEFAULT_255_1_388
10
5.4745513
20
21.5057443
40
0.2147041
50
103.2930114
51
133.5619756
0
ARC
8
DEFAULT_255_1_388
10
5.4695454
20
21.5124351
40
0.2064084
50
133.8349761
51
173.5343225
0
ARC
8
DEFAULT_255_1_388
10
5.5509112
20
21.4980144
40
0.2889266
50
172.5097183
51
180.1360699
0
ARC
8
DEFAULT_255_1_388
10
5.4438876
20
21.501888
40
0.3490913
50
155.3483706
51
180.7484035
0
ARC
8
DEFAULT_255_1_388
10
5.4383851
20
21.4986519
40
0.3454798
50
131.5745177
51
154.4799474
0
ARC
8
DEFAULT_255_1_388
10
5.4736134
20
21.4630422
40
0.3955058
50
96.9874487
51
131.9690874
0
ARC
8
DEFAULT_255_1_388
10
5.4983026
20
21.3229407
40
0.537622
50
89.8592909
51
97.7827481
0
ARC
8
DEFAULT_255_1_388
10
5.5037135
20
21.293436
40
0.5671399
50
78.3654493
51
90.4132586
0
ARC
8
DEFAULT_255_1_388
10
5.5439777
20
21.4800918
40
0.3762034
50
56.6229818
51
78.6387103
0
ARC
8
DEFAULT_255_1_388
10
5.5681606
20
21.5223846
40
0.3275964
50
47.0254604
51
56.085558
0
ARC
8
DEFAULT_255_1_388
10
5.5703857
20
21.5268189
40
0.3228382
50
10.9207523
51
46.777927
0
ARC
8
DEFAULT_255_1_388
10
5.4169451
20
21.4913401
40
0.4802559
50
359.6364235
51
11.6087615
0
ARC
8
DEFAULT_255_1_388
10
5.6233616
20
21.4896404
40
0.273833
50
332.3549969
51
359.7179765
0
ARC
8
DEFAULT_255_1_388
10
5.5502017
20
21.5243285
40
0.3547505
50
325.2332381
51
332.8746682
0
ARC
8
DEFAULT_255_1_388
10
5.56736
20
21.5123763
40
0.3338396
50
292.9803892
51
325.2391113
0
ARC
8
DEFAULT_255_1_388
10
5.5362796
20
21.5728679
40
0.4016959
50
292.542178
51
293.6931461
0
ARC
8
DEFAULT_255_1_388
10
5.5806368
20
20.8463036
40
0.372079
50
57.643292
51
72.8626085
0
ARC
8
DEFAULT_255_1_388
10
5.6205202
20
20.9109273
40
0.2961455
50
36.7246661
51
57.4701329
0
ARC
8
DEFAULT_255_1_388
10
5.6192359
20
20.912347
40
0.2963321
50
8.054535
51
36.3561529
0
ARC
8
DEFAULT_255_1_388
10
5.5222032
20
20.8949073
40
0.3948682
50
359.8316595
51
8.5873361
0
ARC
8
DEFAULT_255_1_388
10
5.4799506
20
20.889497
40
0.4371398
50
343.9831631
51
0.557075
0
ARC
8
DEFAULT_255_1_388
10
5.5796555
20
20.8621963
40
0.3337749
50
311.6358204
51
343.7652116
0
ARC
8
DEFAULT_255_1_388
10
5.5370809
20
20.9101955
40
0.3979351
50
279.7829743
51
311.625622
0
ARC
8
DEFAULT_255_1_388
10
5.5031944
20
21.0718642
40
0.5630417
50
269.7285092
51
280.3857694
0
ARC
8
DEFAULT_255_1_388
10
5.4962257
20
21.0672241
40
0.5584119
50
256.6827433
51
270.4412869
0
ARC
8
DEFAULT_255_1_388
10
5.4581244
20
20.9114698
40
0.3980715
50
229.4223821
51
256.8554507
0
ARC
8
DEFAULT_255_1_388
10
5.4114797
20
20.8589683
40
0.3278564
50
181.8183354
51
229.6455015
0
ARC
8
DEFAULT_255_1_388
10
5.5284407
20
20.8736825
40
0.4453611
50
179.9760419
51
183.2330638
0
ARC
8
DEFAULT_255_1_388
10
5.5090959
20
20.8713781
40
0.2579652
50
179.4467996
51
196.2871626
0
ARC
8
DEFAULT_255_1_388
10
5.4542413
20
20.8563709
40
0.2011057
50
196.5661293
51
227.7059371
0
ARC
8
DEFAULT_255_1_388
10
5.472702
20
20.8770155
40
0.2287994
50
227.7653015
51
257.8763321
0
ARC
8
DEFAULT_255_1_388
10
5.4980103
20
20.9830961
40
0.3378385
50
257.4583525
51
270.4267406
0
ARC
8
DEFAULT_255_1_388
10
5.5031353
20
21.015723
40
0.3704652
50
269.5965319
51
280.8788143
0
ARC
8
DEFAULT_255_1_388
10
5.5289581
20
20.8867529
40
0.2389415
50
280.6347277
51
299.8594068
0
ARC
8
DEFAULT_255_1_388
10
5.550435
20
20.8459736
40
0.19289
50
300.3575552
51
314.5515667
0
ARC
8
DEFAULT_255_1_388
10
5.5411026
20
20.8528025
40
0.204312
50
315.0730962
51
345.0429362
0
ARC
8
DEFAULT_255_1_388
10
5.4372533
20
20.8830539
40
0.31246
50
344.598526
51
357.9270698
0
ARC
8
DEFAULT_255_1_388
10
5.3362838
20
20.8899705
40
0.4136265
50
357.4755098
51
0.0224936
0
ARC
8
DEFAULT_255_1_388
10
5.4515716
20
20.8927099
40
0.2983498
50
359.5051035
51
13.4236939
0
ARC
8
DEFAULT_255_1_388
10
5.5490806
20
20.9176637
40
0.1977186
50
12.9497905
51
48.7550905
0
ARC
8
DEFAULT_255_1_388
10
5.5285728
20
20.8896373
40
0.2323321
50
49.509109
51
72.1832965
0
ARC
8
DEFAULT_255_1_388
10
5.4883196
20
20.7701632
40
0.358397
50
71.9008458
51
84.3555134
0
ARC
8
DEFAULT_255_1_388
10
5.4701591
20
20.6169712
40
0.512641
50
84.019632
51
89.3326067
0
LINE
8
DEFAULT_255_1_388
10
4.9831637
20
28.4644
11
4.8575682
21
28.8077545
0
LINE
8
DEFAULT_255_1_388
10
4.8575682
20
28.8077545
11
4.3063939
21
28.8077545
0
LINE
8
DEFAULT_255_1_388
10
4.3063939
20
28.8077545
11
4.1826056
21
28.4644
0
LINE
8
DEFAULT_255_1_388
10
4.1826056
20
28.4644
11
4.0036998
21
28.4644
0
LINE
8
DEFAULT_255_1_388
10
4.0036998
20
28.4644
11
4.5060816
21
29.7799898
0
LINE
8
DEFAULT_255_1_388
10
4.5060816
20
29.7799898
11
4.6578805
21
29.7799898
0
LINE
8
DEFAULT_255_1_388
10
4.6578805
20
29.7799898
11
5.1611659
21
28.4644
0
LINE
8
DEFAULT_255_1_388
10
5.1611659
20
28.4644
11
4.9831637
21
28.4644
0
LINE
8
DEFAULT_255_1_388
10
4.5819811
20
29.5658451
11
4.3588006
21
28.9505177
0
LINE
8
DEFAULT_255_1_388
10
4.3588006
20
28.9505177
11
4.806065
21
28.9505177
0
LINE
8
DEFAULT_255_1_388
10
4.806065
20
28.9505177
11
4.5819811
21
29.5658451
0
LINE
8
DEFAULT_255_1_388
10
5.5379522
20
29.0670775
11
5.5379522
21
29.2035157
0
LINE
8
DEFAULT_255_1_388
10
5.5379522
20
29.2035157
11
5.6635477
21
29.2035157
0
LINE
8
DEFAULT_255_1_388
10
5.4494029
20
29.4348282
11
5.2822435
21
29.4348282
0
LINE
8
DEFAULT_255_1_388
10
5.2704972
20
28.8113687
11
5.4385602
21
28.8113687
0
LINE
8
DEFAULT_255_1_388
10
5.6635477
20
29.0670775
11
5.5379522
21
29.0670775
0
ARC
8
DEFAULT_255_1_388
10
5.6602704
20
29.5851922
40
0.3816905
50
270.491971
51
281.8953028
0
ARC
8
DEFAULT_255_1_388
10
5.6874131
20
29.4612199
40
0.2547877
50
281.6690378
51
301.2943765
0
ARC
8
DEFAULT_255_1_388
10
5.7065582
20
29.4261926
40
0.2149197
50
301.7834992
51
311.754567
0
ARC
8
DEFAULT_255_1_388
10
5.7168623
20
29.414765
40
0.1995326
50
311.7325027
51
354.2803031
0
ARC
8
DEFAULT_255_1_388
10
5.6351039
20
29.428828
40
0.2823461
50
353.0941646
51
0.1174696
0
ARC
8
DEFAULT_255_1_388
10
5.5832597
20
29.4341874
40
0.3342238
50
359.1804452
51
15.0452323
0
ARC
8
DEFAULT_255_1_388
10
5.7346655
20
29.4783546
40
0.1765747
50
13.957816
51
77.6713812
0
ARC
8
DEFAULT_255_1_388
10
5.6911891
20
29.3225464
40
0.3381982
50
76.111571
51
90.7028736
0
ARC
8
DEFAULT_255_1_388
10
5.6845303
20
29.353325
40
0.3074046
50
89.5321574
51
103.5319393
0
ARC
8
DEFAULT_255_1_388
10
5.6619687
20
29.4432443
40
0.2147041
50
103.2930114
51
133.5619756
0
ARC
8
DEFAULT_255_1_388
10
5.6569628
20
29.4499351
40
0.2064084
50
133.8349761
51
173.5343225
0
ARC
8
DEFAULT_255_1_388
10
5.7383286
20
29.4355144
40
0.2889266
50
172.5097183
51
180.1360699
0
ARC
8
DEFAULT_255_1_388
10
5.631305
20
29.439388
40
0.3490913
50
155.3483706
51
180.7484035
0
ARC
8
DEFAULT_255_1_388
10
5.6258026
20
29.4361519
40
0.3454798
50
131.5745177
51
154.4799474
0
ARC
8
DEFAULT_255_1_388
10
5.6610308
20
29.4005422
40
0.3955058
50
96.9874487
51
131.9690874
0
ARC
8
DEFAULT_255_1_388
10
5.6857201
20
29.2604407
40
0.537622
50
89.8592909
51
97.7827481
0
ARC
8
DEFAULT_255_1_388
10
5.691131
20
29.230936
40
0.5671399
50
78.3654493
51
90.4132586
0
ARC
8
DEFAULT_255_1_388
10
5.7313951
20
29.4175918
40
0.3762034
50
56.6229818
51
78.6387103
0
ARC
8
DEFAULT_255_1_388
10
5.755578
20
29.4598846
40
0.3275964
50
47.0254604
51
56.085558
0
ARC
8
DEFAULT_255_1_388
10
5.7578031
20
29.4643189
40
0.3228382
50
10.9207523
51
46.777927
0
ARC
8
DEFAULT_255_1_388
10
5.6043625
20
29.4288401
40
0.4802559
50
359.6364235
51
11.6087615
0
ARC
8
DEFAULT_255_1_388
10
5.8107791
20
29.4271404
40
0.273833
50
332.3549969
51
359.7179765
0
ARC
8
DEFAULT_255_1_388
10
5.7376191
20
29.4618285
40
0.3547505
50
325.2332381
51
332.8746682
0
ARC
8
DEFAULT_255_1_388
10
5.7547774
20
29.4498763
40
0.3338396
50
292.9803892
51
325.2391113
0
ARC
8
DEFAULT_255_1_388
10
5.723697
20
29.5103679
40
0.4016959
50
292.542178
51
293.6931461
0
ARC
8
DEFAULT_255_1_388
10
5.7680542
20
28.7838036
40
0.372079
50
57.643292
51
72.8626085
0
ARC
8
DEFAULT_255_1_388
10
5.8079377
20
28.8484273
40
0.2961455
50
36.7246661
51
57.4701329
0
ARC
8
DEFAULT_255_1_388
10
5.8066533
20
28.849847
40
0.2963321
50
8.054535
51
36.3561529
0
ARC
8
DEFAULT_255_1_388
10
5.7096206
20
28.8324073
40
0.3948682
50
359.8316595
51
8.5873361
0
ARC
8
DEFAULT_255_1_388
10
5.667368
20
28.826997
40
0.4371398
50
343.9831631
51
0.557075
0
ARC
8
DEFAULT_255_1_388
10
5.767073
20
28.7996963
40
0.3337749
50
311.6358204
51
343.7652116
0
ARC
8
DEFAULT_255_1_388
10
5.7244983
20
28.8476955
40
0.3979351
50
279.7829743
51
311.625622
0
ARC
8
DEFAULT_255_1_388
10
5.6906119
20
29.0093642
40
0.5630417
50
269.7285092
51
280.3857694
0
ARC
8
DEFAULT_255_1_388
10
5.6836431
20
29.0047241
40
0.5584119
50
256.6827433
51
270.4412869
0
ARC
8
DEFAULT_255_1_388
10
5.6455418
20
28.8489698
40
0.3980715
50
229.4223821
51
256.8554507
0
ARC
8
DEFAULT_255_1_388
10
5.5988971
20
28.7964683
40
0.3278564
50
181.8183354
51
229.6455015
0
ARC
8
DEFAULT_255_1_388
10
5.7158581
20
28.8111825
40
0.4453611
50
179.9760419
51
183.2330638
0
ARC
8
DEFAULT_255_1_388
10
5.6965133
20
28.8088781
40
0.2579652
50
179.4467996
51
196.2871626
0
ARC
8
DEFAULT_255_1_388
10
5.6416587
20
28.7938709
40
0.2011057
50
196.5661293
51
227.7059371
0
ARC
8
DEFAULT_255_1_388
10
5.6601194
20
28.8145155
40
0.2287994
50
227.7653015
51
257.8763321
0
ARC
8
DEFAULT_255_1_388
10
5.6854277
20
28.9205961
40
0.3378385
50
257.4583525
51
270.4267406
0
ARC
8
DEFAULT_255_1_388
10
5.6905527
20
28.953223
40
0.3704652
50
269.5965319
51
280.8788143
0
ARC
8
DEFAULT_255_1_388
10
5.7163755
20
28.8242529
40
0.2389415
50
280.6347277
51
299.8594068
0
ARC
8
DEFAULT_255_1_388
10
5.7378525
20
28.7834736
40
0.19289
50
300.3575552
51
314.5515667
0
ARC
8
DEFAULT_255_1_388
10
5.72852
20
28.7903025
40
0.204312
50
315.0730962
51
345.0429362
0
ARC
8
DEFAULT_255_1_388
10
5.6246708
20
28.8205539
40
0.31246
50
344.598526
51
357.9270698
0
ARC
8
DEFAULT_255_1_388
10
5.5237013
20
28.8274705
40
0.4136265
50
357.4755098
51
0.0224936
0
ARC
8
DEFAULT_255_1_388
10
5.638989
20
28.8302099
40
0.2983498
50
359.5051035
51
13.4236939
0
ARC
8
DEFAULT_255_1_388
10
5.736498
20
28.8551637
40
0.1977186
50
12.9497905
51
48.7550905
0
ARC
8
DEFAULT_255_1_388
10
5.7159902
20
28.8271373
40
0.2323321
50
49.509109
51
72.1832965
0
ARC
8
DEFAULT_255_1_388
10
5.675737
20
28.7076632
40
0.358397
50
71.9008458
51
84.3555134
0
ARC
8
DEFAULT_255_1_388
10
5.6575765
20
28.5544712
40
0.512641
50
84.019632
51
89.3326067
0
LINE
8
DEFAULT_255_1_388
10
4.4551024
20
36.4019
11
3.9988024
21
36.4019
0
LINE
8
DEFAULT_255_1_388
10
3.9988024
20
36.4019
11
3.9988024
21
37.7174898
0
LINE
8
DEFAULT_255_1_388
10
3.9988024
20
37.7174898
11
4.4288991
21
37.7174898
0
LINE
8
DEFAULT_255_1_388
10
4.4614274
20
37.0172274
11
4.1722868
21
37.0172274
0
LINE
8
DEFAULT_255_1_388
10
4.1722868
20
37.0172274
11
4.1722868
21
36.5437596
0
LINE
8
DEFAULT_255_1_388
10
4.1722868
20
36.5437596
11
4.4587167
21
36.5437596
0
LINE
8
DEFAULT_255_1_388
10
4.1722868
20
37.5747267
11
4.1722868
21
37.1563763
0
LINE
8
DEFAULT_255_1_388
10
4.1722868
20
37.1563763
11
4.4343205
21
37.1563763
0
LINE
8
DEFAULT_255_1_388
10
4.4288991
20
37.5747267
11
4.1722868
21
37.5747267
0
ARC
8
DEFAULT_255_1_388
10
4.4331411
20
36.8886824
40
0.8288183
50
82.1256322
51
90.2932506
0
ARC
8
DEFAULT_255_1_388
10
4.4768986
20
37.194459
40
0.5199321
50
69.9044202
51
82.2857574
0
ARC
8
DEFAULT_255_1_388
10
4.5410979
20
37.3679993
40
0.3348993
50
51.1840204
51
70.018125
0
ARC
8
DEFAULT_255_1_388
10
4.5697811
20
37.4096945
40
0.2844579
50
12.1018086
51
50.421322
0
ARC
8
DEFAULT_255_1_388
10
4.4140682
20
37.3705937
40
0.4449429
50
359.5252354
51
12.8212369
0
ARC
8
DEFAULT_255_1_388
10
4.5918112
20
37.3627943
40
0.2672162
50
323.4907456
51
0.8818258
0
ARC
8
DEFAULT_255_1_388
10
4.5447525
20
37.3991523
40
0.3266736
50
298.6824053
51
323.2758285
0
ARC
8
DEFAULT_255_1_388
10
4.5040816
20
37.4667509
40
0.4055105
50
293.1994739
51
299.139634
0
ARC
8
DEFAULT_255_1_388
10
4.5797766
20
36.7821651
40
0.3229926
50
54.0009997
51
74.9168635
0
ARC
8
DEFAULT_255_1_388
10
4.5928693
20
36.8043511
40
0.2973581
50
36.3578854
51
53.5293172
0
ARC
8
DEFAULT_255_1_388
10
4.5786061
20
36.794185
40
0.3148715
50
4.8189348
51
36.3090187
0
ARC
8
DEFAULT_255_1_388
10
4.4909085
20
36.7818383
40
0.4033265
50
359.9373213
51
5.5201284
0
ARC
8
DEFAULT_255_1_388
10
4.4544415
20
36.7772733
40
0.4398126
50
344.7479357
51
0.5372278
0
ARC
8
DEFAULT_255_1_388
10
4.5659314
20
36.7472205
40
0.3243441
50
311.1785587
51
344.6887681
0
ARC
8
DEFAULT_255_1_388
10
4.5330857
20
36.7881084
40
0.3767511
50
286.0417804
51
310.8440924
0
ARC
8
DEFAULT_255_1_388
10
4.4760266
20
36.9733885
40
0.5705957
50
274.1044074
51
286.4070149
0
ARC
8
DEFAULT_255_1_388
10
4.4561482
20
37.1851901
40
0.7832907
50
269.9235077
51
274.4458593
0
ARC
8
DEFAULT_255_1_388
10
4.46132
20
36.9220462
40
0.3782955
50
269.6057074
51
281.3740795
0
ARC
8
DEFAULT_255_1_388
10
4.4872698
20
36.7990569
40
0.2526069
50
281.105298
51
302.5134029
0
ARC
8
DEFAULT_255_1_388
10
4.5038086
20
36.7693944
40
0.2187131
50
303.0365425
51
311.8818034
0
ARC
8
DEFAULT_255_1_388
10
4.5118263
20
36.7598602
40
0.2062624
50
311.9916937
51
351.7143773
0
ARC
8
DEFAULT_255_1_388
10
4.4199288
20
36.7784271
40
0.2999202
50
350.7343295
51
0.2221526
0
ARC
8
DEFAULT_255_1_388
10
4.4078376
20
36.784787
40
0.3120525
50
359.045729
51
17.2295312
0
ARC
8
DEFAULT_255_1_388
10
4.5247406
20
36.8195155
40
0.1901144
50
17.6685208
51
78.9940245
0
ARC
8
DEFAULT_255_1_388
10
4.4665767
20
36.6107011
40
0.4065575
50
76.565218
51
90.7103392
0
LINE
8
DEFAULT_255_1_388
10
4.4615364
20
37.0172274
11
4.4614274
21
37.0172274
0
ARC
8
DEFAULT_255_1_388
10
4.4368593
20
37.5259949
40
0.3696273
50
269.6064514
51
281.4533785
0
ARC
8
DEFAULT_255_1_388
10
4.4619234
20
37.4077283
40
0.2487412
50
281.2044438
51
302.5143998
0
ARC
8
DEFAULT_255_1_388
10
4.4773488
20
37.3799576
40
0.2170405
50
303.0211308
51
309.8378766
0
ARC
8
DEFAULT_255_1_388
10
4.4979605
20
37.3568486
40
0.1860946
50
309.5229446
51
356.9509628
0
ARC
8
DEFAULT_255_1_388
10
4.4233731
20
37.3675831
40
0.2612347
50
355.4699226
51
0.0498632
0
ARC
8
DEFAULT_255_1_388
10
4.3919404
20
37.3700789
40
0.2926762
50
359.5558955
51
11.2092924
0
ARC
8
DEFAULT_255_1_388
10
4.4996372
20
37.3923667
40
0.1827036
50
10.9185717
51
31.322519
0
ARC
8
DEFAULT_255_1_388
10
4.531792
20
37.4102571
40
0.1459418
50
31.8850633
51
52.1415586
0
ARC
8
DEFAULT_255_1_388
10
4.5009349
20
37.3666674
40
0.1993088
50
52.8283418
51
71.9850132
0
ARC
8
DEFAULT_255_1_388
10
4.458651
20
37.2422158
40
0.3307407
50
71.686634
51
82.8453416
0
ARC
8
DEFAULT_255_1_388
10
4.4317157
20
37.0386892
40
0.536039
50
82.6981895
51
90.1730083
0
ARC
8
DEFAULT_255_1_388
10
4.4291989
20
37.1265836
40
0.4481429
50
89.8851568
51
90.0383283
0
LINE
8
DEFAULT_255_1_388
10
5.9694765
20
36.5383382
11
5.9694765
21
36.4019
0
LINE
8
DEFAULT_255_1_388
10
5.9694765
20
36.4019
11
5.107476
21
36.4019
0
LINE
8
DEFAULT_255_1_388
10
5.107476
20
36.4019
11
5.107476
21
36.5220741
0
LINE
8
DEFAULT_255_1_388
10
5.107476
20
36.5220741
11
5.5628725
21
37.0280702
0
LINE
8
DEFAULT_255_1_388
10
5.2493356
20
37.3298607
11
5.0821762
21
37.3298607
0
LINE
8
DEFAULT_255_1_388
10
5.661361
20
36.920546
11
5.3089708
21
36.5383382
0
LINE
8
DEFAULT_255_1_388
10
5.3089708
20
36.5383382
11
5.9694765
21
36.5383382
0
ARC
8
DEFAULT_255_1_388
10
4.0452784
20
38.3700983
40
2.0258655
50
318.5132526
51
320.7829045
0
ARC
8
DEFAULT_255_1_388
10
4.6400741
20
37.8859929
40
1.2589638
50
320.7372878
51
323.9739031
0
ARC
8
DEFAULT_255_1_388
10
5.0809673
20
37.5665554
40
0.7145141
50
323.8962701
51
328.64194
0
ARC
8
DEFAULT_255_1_388
10
5.311193
20
37.4245545
40
0.4440242
50
328.8294576
51
331.7891185
0
ARC
8
DEFAULT_255_1_388
10
5.423425
20
37.3666374
40
0.3177517
50
331.4254512
51
352.9365785
0
ARC
8
DEFAULT_255_1_388
10
5.438725
20
37.363205
40
0.3021496
50
353.2257659
51
0.0166158
0
ARC
8
DEFAULT_255_1_388
10
5.4624011
20
37.3657894
40
0.2784847
50
359.486299
51
15.9343185
0
ARC
8
DEFAULT_255_1_388
10
5.5194278
20
37.3811269
40
0.2194403
50
16.1712913
51
43.5286088
0
ARC
8
DEFAULT_255_1_388
10
5.5281222
20
37.3898191
40
0.2071504
50
43.4417391
51
83.1661095
0
ARC
8
DEFAULT_255_1_388
10
5.5130383
20
37.3069316
40
0.2912888
50
82.160179
51
90.1505708
0
ARC
8
DEFAULT_255_1_388
10
5.5094865
20
37.2465279
40
0.3517025
50
89.5460741
51
102.5418361
0
ARC
8
DEFAULT_255_1_388
10
5.4821585
20
37.3624933
40
0.2325748
50
102.1738499
51
129.206123
0
ARC
8
DEFAULT_255_1_388
10
5.4733038
20
37.3764664
40
0.2161591
50
129.72865
51
135.753947
0
ARC
8
DEFAULT_255_1_388
10
5.4869521
20
37.3655728
40
0.2335433
50
136.1757367
51
166.3673339
0
ARC
8
DEFAULT_255_1_388
10
5.6002209
20
37.3352148
40
0.3507873
50
165.9090694
51
178.8684636
0
ARC
8
DEFAULT_255_1_388
10
5.6977981
20
37.3299263
40
0.4484624
50
178.4391136
51
180.0083808
0
ARC
8
DEFAULT_255_1_388
10
5.5398682
20
37.3343197
40
0.4577138
50
163.2878482
51
180.5581842
0
ARC
8
DEFAULT_255_1_388
10
5.4496723
20
37.3591393
40
0.3641968
50
133.4540601
51
162.947111
0
ARC
8
DEFAULT_255_1_388
10
5.4697605
20
37.3377789
40
0.3935189
50
100.7869829
51
133.4382499
0
ARC
8
DEFAULT_255_1_388
10
5.508885
20
37.1635399
40
0.5720313
50
89.660664
51
101.3702276
0
ARC
8
DEFAULT_255_1_388
10
5.5163459
20
37.1704263
40
0.5651495
50
78.2172678
51
90.412935
0
ARC
8
DEFAULT_255_1_388
10
5.5562925
20
37.3531511
40
0.378122
50
55.9269121
51
78.4888449
0
ARC
8
DEFAULT_255_1_388
10
5.578364
20
37.3912187
40
0.3342379
50
47.929771
51
55.4049217
0
ARC
8
DEFAULT_255_1_388
10
5.589817
20
37.4028618
40
0.3179217
50
4.334829
51
48.0560205
0
ARC
8
DEFAULT_255_1_388
10
5.4665972
20
37.3837487
40
0.442341
50
359.9251713
51
5.5971671
0
ARC
8
DEFAULT_255_1_388
10
5.5148126
20
37.3900728
40
0.3941854
50
337.8914027
51
358.9967534
0
ARC
8
DEFAULT_255_1_388
10
5.2095697
20
37.5078295
40
0.7213271
50
326.9132501
51
338.3508308
0
ARC
8
DEFAULT_255_1_388
10
4.7611808
20
37.7952105
40
1.2538973
50
319.6471833
51
327.0959558
0
ARC
8
DEFAULT_255_1_388
10
4.3298467
20
38.151005
40
1.8129975
50
317.2588228
51
319.9045804
0
LINE
8
DEFAULT_255_1_388
10
4.9831637
20
44.3394
11
4.8575682
21
44.6827545
0
LINE
8
DEFAULT_255_1_388
10
4.8575682
20
44.6827545
11
4.3063939
21
44.6827545
0
LINE
8
DEFAULT_255_1_388
10
4.3063939
20
44.6827545
11
4.1826056
21
44.3394
0
LINE
8
DEFAULT_255_1_388
10
4.1826056
20
44.3394
11
4.0036998
21
44.3394
0
LINE
8
DEFAULT_255_1_388
10
4.0036998
20
44.3394
11
4.5060816
21
45.6549898
0
LINE
8
DEFAULT_255_1_388
10
4.5060816
20
45.6549898
11
4.6578805
21
45.6549898
0
LINE
8
DEFAULT_255_1_388
10
4.6578805
20
45.6549898
11
5.1611659
21
44.3394
0
LINE
8
DEFAULT_255_1_388
10
5.1611659
20
44.3394
11
4.9831637
21
44.3394
0
LINE
8
DEFAULT_255_1_388
10
4.5819811
20
45.4408451
11
4.3588006
21
44.8255177
0
LINE
8
DEFAULT_255_1_388
10
4.3588006
20
44.8255177
11
4.806065
21
44.8255177
0
LINE
8
DEFAULT_255_1_388
10
4.806065
20
44.8255177
11
4.5819811
21
45.4408451
0
LINE
8
DEFAULT_255_1_388
10
6.1568939
20
44.4758382
11
6.1568939
21
44.3394
0
LINE
8
DEFAULT_255_1_388
10
6.1568939
20
44.3394
11
5.2948934
21
44.3394
0
LINE
8
DEFAULT_255_1_388
10
5.2948934
20
44.3394
11
5.2948934
21
44.4595741
0
LINE
8
DEFAULT_255_1_388
10
5.2948934
20
44.4595741
11
5.7502899
21
44.9655702
0
LINE
8
DEFAULT_255_1_388
10
5.436753
20
45.2673607
11
5.2695936
21
45.2673607
0
LINE
8
DEFAULT_255_1_388
10
5.8487784
20
44.858046
11
5.4963883
21
44.4758382
0
LINE
8
DEFAULT_255_1_388
10
5.4963883
20
44.4758382
11
6.1568939
21
44.4758382
0
ARC
8
DEFAULT_255_1_388
10
4.2326958
20
46.3075983
40
2.0258655
50
318.5132526
51
320.7829045
0
ARC
8
DEFAULT_255_1_388
10
4.8274915
20
45.8234929
40
1.2589638
50
320.7372878
51
323.9739031
0
ARC
8
DEFAULT_255_1_388
10
5.2683847
20
45.5040554
40
0.7145141
50
323.8962701
51
328.64194
0
ARC
8
DEFAULT_255_1_388
10
5.4986105
20
45.3620545
40
0.4440242
50
328.8294576
51
331.7891185
0
ARC
8
DEFAULT_255_1_388
10
5.6108425
20
45.3041374
40
0.3177517
50
331.4254512
51
352.9365785
0
ARC
8
DEFAULT_255_1_388
10
5.6261425
20
45.300705
40
0.3021496
50
353.2257659
51
0.0166158
0
ARC
8
DEFAULT_255_1_388
10
5.6498185
20
45.3032894
40
0.2784847
50
359.486299
51
15.9343185
0
ARC
8
DEFAULT_255_1_388
10
5.7068452
20
45.3186269
40
0.2194403
50
16.1712913
51
43.5286088
0
ARC
8
DEFAULT_255_1_388
10
5.7155397
20
45.3273191
40
0.2071504
50
43.4417391
51
83.1661095
0
ARC
8
DEFAULT_255_1_388
10
5.7004558
20
45.2444316
40
0.2912888
50
82.160179
51
90.1505708
0
ARC
8
DEFAULT_255_1_388
10
5.6969039
20
45.1840279
40
0.3517025
50
89.5460741
51
102.5418361
0
ARC
8
DEFAULT_255_1_388
10
5.6695759
20
45.2999933
40
0.2325748
50
102.1738499
51
129.206123
0
ARC
8
DEFAULT_255_1_388
10
5.6607213
20
45.3139664
40
0.2161591
50
129.72865
51
135.753947
0
ARC
8
DEFAULT_255_1_388
10
5.6743695
20
45.3030728
40
0.2335433
50
136.1757367
51
166.3673339
0
ARC
8
DEFAULT_255_1_388
10
5.7876383
20
45.2727148
40
0.3507873
50
165.9090694
51
178.8684636
0
ARC
8
DEFAULT_255_1_388
10
5.8852155
20
45.2674263
40
0.4484624
50
178.4391136
51
180.0083808
0
ARC
8
DEFAULT_255_1_388
10
5.7272856
20
45.2718197
40
0.4577138
50
163.2878482
51
180.5581842
0
ARC
8
DEFAULT_255_1_388
10
5.6370898
20
45.2966393
40
0.3641968
50
133.4540601
51
162.947111
0
ARC
8
DEFAULT_255_1_388
10
5.6571779
20
45.2752789
40
0.3935189
50
100.7869829
51
133.4382499
0
ARC
8
DEFAULT_255_1_388
10
5.6963024
20
45.1010399
40
0.5720313
50
89.660664
51
101.3702276
0
ARC
8
DEFAULT_255_1_388
10
5.7037633
20
45.1079263
40
0.5651495
50
78.2172678
51
90.412935
0
ARC
8
DEFAULT_255_1_388
10
5.7437099
20
45.2906511
40
0.378122
50
55.9269121
51
78.4888449
0
ARC
8
DEFAULT_255_1_388
10
5.7657814
20
45.3287187
40
0.3342379
50
47.929771
51
55.4049217
0
ARC
8
DEFAULT_255_1_388
10
5.7772344
20
45.3403618
40
0.3179217
50
4.334829
51
48.0560205
0
ARC
8
DEFAULT_255_1_388
10
5.6540146
20
45.3212487
40
0.442341
50
359.9251713
51
5.5971671
0
ARC
8
DEFAULT_255_1_388
10
5.7022301
20
45.3275728
40
0.3941854
50
337.8914027
51
358.9967534
0
ARC
8
DEFAULT_255_1_388
10
5.3969871
20
45.4453295
40
0.7213271
50
326.9132501
51
338.3508308
0
ARC
8
DEFAULT_255_1_388
10
4.9485983
20
45.7327105
40
1.2538973
50
319.6471833
51
327.0959558
0
ARC
8
DEFAULT_255_1_388
10
4.5172641
20
46.088505
40
1.8129975
50
317.2588228
51
319.9045804
0
LINE
8
DEFAULT_255_1_388
10
4.4470024
20
52.2769
11
3.9907024
21
52.2769
0
LINE
8
DEFAULT_255_1_388
10
3.9907024
20
52.2769
11
3.9907024
21
53.5924898
0
LINE
8
DEFAULT_255_1_388
10
3.9907024
20
53.5924898
11
4.4207991
21
53.5924898
0
LINE
8
DEFAULT_255_1_388
10
4.4533274
20
52.8922274
11
4.1641868
21
52.8922274
0
LINE
8
DEFAULT_255_1_388
10
4.1641868
20
52.8922274
11
4.1641868
21
52.4187596
0
LINE
8
DEFAULT_255_1_388
10
4.1641868
20
52.4187596
11
4.4506167
21
52.4187596
0
LINE
8
DEFAULT_255_1_388
10
4.1641868
20
53.4497267
11
4.1641868
21
53.0313763
0
LINE
8
DEFAULT_255_1_388
10
4.1641868
20
53.0313763
11
4.4262205
21
53.0313763
0
LINE
8
DEFAULT_255_1_388
10
4.4207991
20
53.4497267
11
4.1641868
21
53.4497267
0
ARC
8
DEFAULT_255_1_388
10
4.4250411
20
52.7636824
40
0.8288183
50
82.1256322
51
90.2932506
0
ARC
8
DEFAULT_255_1_388
10
4.4687986
20
53.069459
40
0.5199321
50
69.9044202
51
82.2857574
0
ARC
8
DEFAULT_255_1_388
10
4.5329979
20
53.2429993
40
0.3348993
50
51.1840204
51
70.018125
0
ARC
8
DEFAULT_255_1_388
10
4.5616811
20
53.2846945
40
0.2844579
50
12.1018086
51
50.421322
0
ARC
8
DEFAULT_255_1_388
10
4.4059682
20
53.2455937
40
0.4449429
50
359.5252354
51
12.8212369
0
ARC
8
DEFAULT_255_1_388
10
4.5837112
20
53.2377943
40
0.2672162
50
323.4907456
51
0.8818258
0
ARC
8
DEFAULT_255_1_388
10
4.5366525
20
53.2741523
40
0.3266736
50
298.6824053
51
323.2758285
0
ARC
8
DEFAULT_255_1_388
10
4.4959816
20
53.3417509
40
0.4055105
50
293.1994739
51
299.139634
0
ARC
8
DEFAULT_255_1_388
10
4.5716766
20
52.6571651
40
0.3229926
50
54.0009997
51
74.9168635
0
ARC
8
DEFAULT_255_1_388
10
4.5847693
20
52.6793511
40
0.2973581
50
36.3578854
51
53.5293172
0
ARC
8
DEFAULT_255_1_388
10
4.5705061
20
52.669185
40
0.3148715
50
4.8189348
51
36.3090187
0
ARC
8
DEFAULT_255_1_388
10
4.4828085
20
52.6568383
40
0.4033265
50
359.9373213
51
5.5201284
0
ARC
8
DEFAULT_255_1_388
10
4.4463415
20
52.6522733
40
0.4398126
50
344.7479357
51
0.5372278
0
ARC
8
DEFAULT_255_1_388
10
4.5578314
20
52.6222205
40
0.3243441
50
311.1785587
51
344.6887681
0
ARC
8
DEFAULT_255_1_388
10
4.5249857
20
52.6631084
40
0.3767511
50
286.0417804
51
310.8440924
0
ARC
8
DEFAULT_255_1_388
10
4.4679266
20
52.8483885
40
0.5705957
50
274.1044074
51
286.4070149
0
ARC
8
DEFAULT_255_1_388
10
4.4480482
20
53.0601901
40
0.7832907
50
269.9235077
51
274.4458593
0
ARC
8
DEFAULT_255_1_388
10
4.45322
20
52.7970462
40
0.3782955
50
269.6057074
51
281.3740795
0
ARC
8
DEFAULT_255_1_388
10
4.4791698
20
52.6740569
40
0.2526069
50
281.105298
51
302.5134029
0
ARC
8
DEFAULT_255_1_388
10
4.4957086
20
52.6443944
40
0.2187131
50
303.0365425
51
311.8818034
0
ARC
8
DEFAULT_255_1_388
10
4.5037263
20
52.6348602
40
0.2062624
50
311.9916937
51
351.7143773
0
ARC
8
DEFAULT_255_1_388
10
4.4118288
20
52.6534271
40
0.2999202
50
350.7343295
51
0.2221526
0
ARC
8
DEFAULT_255_1_388
10
4.3997376
20
52.659787
40
0.3120525
50
359.045729
51
17.2295312
0
ARC
8
DEFAULT_255_1_388
10
4.5166406
20
52.6945155
40
0.1901144
50
17.6685208
51
78.9940245
0
ARC
8
DEFAULT_255_1_388
10
4.4584767
20
52.4857011
40
0.4065575
50
76.565218
51
90.7103392
0
LINE
8
DEFAULT_255_1_388
10
4.4534364
20
52.8922274
11
4.4533274
21
52.8922274
0
ARC
8
DEFAULT_255_1_388
10
4.4287593
20
53.4009949
40
0.3696273
50
269.6064514
51
281.4533785
0
ARC
8
DEFAULT_255_1_388
10
4.4538234
20
53.2827283
40
0.2487412
50
281.2044438
51
302.5143998
0
ARC
8
DEFAULT_255_1_388
10
4.4692488
20
53.2549576
40
0.2170405
50
303.0211308
51
309.8378766
0
ARC
8
DEFAULT_255_1_388
10
4.4898605
20
53.2318486
40
0.1860946
50
309.5229446
51
356.9509628
0
ARC
8
DEFAULT_255_1_388
10
4.4152731
20
53.2425831
40
0.2612347
50
355.4699226
51
0.0498632
0
ARC
8
DEFAULT_255_1_388
10
4.3838404
20
53.2450789
40
0.2926762
50
359.5558955
51
11.2092924
0
ARC
8
DEFAULT_255_1_388
10
4.4915372
20
53.2673667
40
0.1827036
50
10.9185717
51
31.322519
0
ARC
8
DEFAULT_255_1_388
10
4.523692
20
53.2852571
40
0.1459418
50
31.8850633
51
52.1415586
0
ARC
8
DEFAULT_255_1_388
10
4.4928349
20
53.2416674
40
0.1993088
50
52.8283418
51
71.9850132
0
ARC
8
DEFAULT_255_1_388
10
4.450551
20
53.1172158
40
0.3307407
50
71.686634
51
82.8453416
0
ARC
8
DEFAULT_255_1_388
10
4.4236157
20
52.9136892
40
0.536039
50
82.6981895
51
90.1730083
0
ARC
8
DEFAULT_255_1_388
10
4.4210989
20
53.0015836
40
0.4481429
50
89.8851568
51
90.0383283
0
LINE
8
DEFAULT_255_1_388
10
5.6487432
20
53.5988148
11
5.6487432
21
52.2769
0
LINE
8
DEFAULT_255_1_388
10
5.6487432
20
52.2769
11
5.4806802
21
52.2769
0
LINE
8
DEFAULT_255_1_388
10
5.4806802
20
52.2769
11
5.4806802
21
53.390995
0
LINE
8
DEFAULT_255_1_388
10
5.4806802
20
53.390995
11
5.1436506
21
53.2672066
0
LINE
8
DEFAULT_255_1_388
10
5.1436506
20
53.2672066
11
5.1436506
21
53.4190055
0
LINE
8
DEFAULT_255_1_388
10
5.1436506
20
53.4190055
11
5.6225398
21
53.5988148
0
LINE
8
DEFAULT_255_1_388
10
5.6225398
20
53.5988148
11
5.6487432
21
53.5988148
0
LINE
8
DEFAULT_255_1_388
10
4.9743637
20
60.2144
11
4.8487682
21
60.5577545
0
LINE
8
DEFAULT_255_1_388
10
4.8487682
20
60.5577545
11
4.2975939
21
60.5577545
0
LINE
8
DEFAULT_255_1_388
10
4.2975939
20
60.5577545
11
4.1738056
21
60.2144
0
LINE
8
DEFAULT_255_1_388
10
4.1738056
20
60.2144
11
3.9948998
21
60.2144
0
LINE
8
DEFAULT_255_1_388
10
3.9948998
20
60.2144
11
4.4972816
21
61.5299898
0
LINE
8
DEFAULT_255_1_388
10
4.4972816
20
61.5299898
11
4.6490805
21
61.5299898
0
LINE
8
DEFAULT_255_1_388
10
4.6490805
20
61.5299898
11
5.1523659
21
60.2144
0
LINE
8
DEFAULT_255_1_388
10
5.1523659
20
60.2144
11
4.9743637
21
60.2144
0
LINE
8
DEFAULT_255_1_388
10
4.5731811
20
61.3158451
11
4.3500006
21
60.7005177
0
LINE
8
DEFAULT_255_1_388
10
4.3500006
20
60.7005177
11
4.797265
21
60.7005177
0
LINE
8
DEFAULT_255_1_388
10
4.797265
20
60.7005177
11
4.5731811
21
61.3158451
0
LINE
8
DEFAULT_255_1_388
10
5.8354606
20
61.5363148
11
5.8354606
21
60.2144
0
LINE
8
DEFAULT_255_1_388
10
5.8354606
20
60.2144
11
5.6673976
21
60.2144
0
LINE
8
DEFAULT_255_1_388
10
5.6673976
20
60.2144
11
5.6673976
21
61.328495
0
LINE
8
DEFAULT_255_1_388
10
5.6673976
20
61.328495
11
5.3303681
21
61.2047066
0
LINE
8
DEFAULT_255_1_388
10
5.3303681
20
61.2047066
11
5.3303681
21
61.3565055
0
LINE
8
DEFAULT_255_1_388
10
5.3303681
20
61.3565055
11
5.8092572
21
61.5363148
0
LINE
8
DEFAULT_255_1_388
10
5.8092572
20
61.5363148
11
5.8354606
21
61.5363148
0
LINE
8
DEFAULT_255_1_388
10
23.1190856
20
68.929869
11
23.1190856
21
68.7130135
0
LINE
8
DEFAULT_255_1_388
10
22.2887099
20
68.6904244
11
22.2887099
21
68.9136048
0
LINE
8
DEFAULT_255_1_388
10
22.9519262
20
68.6678353
11
22.9519262
21
68.9416153
0
LINE
8
DEFAULT_255_1_388
10
22.4558693
20
68.9542652
11
22.4558693
21
68.6868102
0
ARC
8
DEFAULT_255_1_388
10
21.741319
20
68.7075118
40
1.3777776
50
353.8440855
51
0.2287917
0
ARC
8
DEFAULT_255_1_388
10
22.2632208
20
68.6492414
40
0.852639
50
344.4934746
51
353.9763743
0
ARC
8
DEFAULT_255_1_388
10
22.5999015
20
68.5535191
40
0.5026273
50
329.2803599
51
344.7473406
0
ARC
8
DEFAULT_255_1_388
10
22.7114511
20
68.4923038
40
0.3754848
50
324.9361395
51
328.6153007
0
ARC
8
DEFAULT_255_1_388
10
22.7540161
20
68.4625586
40
0.3235566
50
280.5801797
51
324.9173226
0
ARC
8
DEFAULT_255_1_388
10
22.7088789
20
68.6505236
40
0.5167077
50
269.5979457
51
281.6732777
0
ARC
8
DEFAULT_255_1_388
10
22.7007693
20
68.6370113
40
0.5032026
50
256.6228565
51
270.5105488
0
ARC
8
DEFAULT_255_1_388
10
22.6555435
20
68.4628345
40
0.3233092
50
215.8618351
51
257.2787793
0
ARC
8
DEFAULT_255_1_388
10
22.7704142
20
68.5399106
40
0.4615831
50
197.9695203
51
215.2622745
0
ARC
8
DEFAULT_255_1_388
10
23.0499818
20
68.6342641
40
0.7566307
50
187.8816486
51
198.2346584
0
ARC
8
DEFAULT_255_1_388
10
23.4953056
20
68.6985453
40
1.2065653
50
180.8977266
51
188.0054894
0
ARC
8
DEFAULT_255_1_388
10
23.800327
20
68.71004
40
1.5117443
50
180.7434591
51
181.152202
0
ARC
8
DEFAULT_255_1_388
10
23.6328266
20
68.9190371
40
1.3441277
50
173.7674302
51
180.2315596
0
ARC
8
DEFAULT_255_1_388
10
23.1246135
20
68.9764779
40
0.8326847
50
164.3058537
51
173.9000553
0
ARC
8
DEFAULT_255_1_388
10
22.7970135
20
69.0708652
40
0.4917711
50
148.7922028
51
164.5682288
0
ARC
8
DEFAULT_255_1_388
10
22.6900872
20
69.1305457
40
0.3694204
50
144.5883979
51
148.1161588
0
ARC
8
DEFAULT_255_1_388
10
22.6513618
20
69.1575667
40
0.322202
50
101.6440149
51
144.5142619
0
ARC
8
DEFAULT_255_1_388
10
22.699181
20
68.9675337
40
0.5180451
50
89.528284
51
102.5820197
0
ARC
8
DEFAULT_255_1_388
10
22.7080802
20
68.9631376
40
0.5224441
50
77.0437914
51
90.508231
0
ARC
8
DEFAULT_255_1_388
10
22.7533055
20
69.1479272
40
0.3322297
50
48.2777708
51
77.4996087
0
ARC
8
DEFAULT_255_1_388
10
22.7614795
20
69.1624557
40
0.315966
50
36.3141586
51
47.6307332
0
ARC
8
DEFAULT_255_1_388
10
22.6637518
20
69.0966159
40
0.4337313
50
18.2931065
51
35.6770203
0
ARC
8
DEFAULT_255_1_388
10
22.3776358
20
68.9984107
40
0.7362203
50
8.0246996
51
18.5605636
0
ARC
8
DEFAULT_255_1_388
10
21.9092714
20
68.9292432
40
1.2096583
50
1.127539
51
8.1718423
0
ARC
8
DEFAULT_255_1_388
10
21.5443847
20
68.9149374
40
1.5747719
50
0.5432713
51
1.38669
0
ARC
8
DEFAULT_255_1_388
10
21.7501226
20
68.9456163
40
1.2018103
50
359.8092569
51
4.9408001
0
ARC
8
DEFAULT_255_1_388
10
22.2237807
20
68.98789
40
0.7262727
50
4.8364937
51
12.2906017
0
ARC
8
DEFAULT_255_1_388
10
22.5337272
20
69.0569485
40
0.4087324
50
12.0806994
51
23.8171225
0
ARC
8
DEFAULT_255_1_388
10
22.6657668
20
69.1128508
40
0.2653719
50
24.2874621
51
31.3934353
0
ARC
8
DEFAULT_255_1_388
10
22.7248104
20
69.1514822
40
0.1948607
50
30.7407708
51
82.4658033
0
ARC
8
DEFAULT_255_1_388
10
22.7045765
20
69.0521017
40
0.2961198
50
81.1057101
51
90.2187368
0
ARC
8
DEFAULT_255_1_388
10
22.7005577
20
69.0811421
40
0.2670929
50
89.380395
51
105.6763916
0
ARC
8
DEFAULT_255_1_388
10
22.6799299
20
69.156132
40
0.1893189
50
105.7980655
51
149.7387869
0
ARC
8
DEFAULT_255_1_388
10
22.7996439
20
69.0841719
40
0.3289892
50
149.4208441
51
163.628295
0
ARC
8
DEFAULT_255_1_388
10
23.0348668
20
69.0124345
40
0.5749004
50
163.3764549
51
172.141138
0
ARC
8
DEFAULT_255_1_388
10
23.406139
20
68.9592582
40
0.9499585
50
172.0258462
51
178.0705453
0
ARC
8
DEFAULT_255_1_388
10
23.7482943
20
68.9430682
40
1.2924734
50
177.8639301
51
179.5036263
0
ARC
8
DEFAULT_255_1_388
10
23.6263961
20
68.6827151
40
1.170534
50
179.7995545
51
185.246089
0
ARC
8
DEFAULT_255_1_388
10
23.1715554
20
68.6396404
40
0.7136613
50
185.1411911
51
193.0082205
0
ARC
8
DEFAULT_255_1_388
10
22.8741815
20
68.5693441
40
0.4080987
50
192.7897338
51
205.2507384
0
ARC
8
DEFAULT_255_1_388
10
22.7564025
20
68.5167538
40
0.2791522
50
205.8001921
51
211.2545876
0
ARC
8
DEFAULT_255_1_388
10
22.6975564
20
68.4773132
40
0.2084074
50
210.3789935
51
238.4007996
0
ARC
8
DEFAULT_255_1_388
10
22.695365
20
68.4825786
40
0.2117943
50
239.6521916
51
265.9793852
0
ARC
8
DEFAULT_255_1_388
10
22.7049499
20
68.5582358
40
0.2879689
50
265.1324455
51
270.0603288
0
ARC
8
DEFAULT_255_1_388
10
22.7081876
20
68.5217418
40
0.2514919
50
269.3314378
51
287.2180039
0
ARC
8
DEFAULT_255_1_388
10
22.7236958
20
68.4651291
40
0.1928357
50
287.7957942
51
329.0808983
0
ARC
8
DEFAULT_255_1_388
10
22.6159715
20
68.5323651
40
0.319808
50
328.6635261
51
343.3325043
0
ARC
8
DEFAULT_255_1_388
10
22.3715174
20
68.6085195
40
0.5758408
50
343.0498092
51
351.9392499
0
ARC
8
DEFAULT_255_1_388
10
21.9814496
20
68.6660205
40
0.9701202
50
351.8071632
51
357.7957897
0
ARC
8
DEFAULT_255_1_388
10
21.6179973
20
68.6848724
40
1.3340376
50
357.5870923
51
359.2682493
0
LINE
8
DEFAULT_255_1_388
10
23.4380439
20
69.4674898
11
23.8121196
21
68.3823089
0
LINE
8
DEFAULT_255_1_388
10
23.8121196
20
68.3823089
11
24.1880024
21
69.4674898
0
LINE
8
DEFAULT_255_1_388
10
24.1880024
20
69.4674898
11
24.3777509
21
69.4674898
0
LINE
8
DEFAULT_255_1_388
10
24.3777509
20
69.4674898
11
23.8898261
21
68.1519
0
LINE
8
DEFAULT_255_1_388
10
23.8898261
20
68.1519
11
23.7362202
21
68.1519
0
LINE
8
DEFAULT_255_1_388
10
23.7362202
20
68.1519
11
23.2491989
21
69.4674898
0
LINE
8
DEFAULT_255_1_388
10
23.2491989
20
69.4674898
11
23.4380439
21
69.4674898
0
ENDSEC
0
EOF