0
SECTION
2
HEADER
9
$MEASUREMENT
70
1
0
ENDSEC
0
SECTION
2
TABLES
0
TABLE
2
LTYPE
0
LTYPE
72
65
70
64
2
CONTINUOUS
3
______
73
0
40
0
0
ENDTAB
0
TABLE
2
LAYER
0
LAYER
2
DEFAULT_255_2_778
70
0
62
255
6
CONTINUOUS
0
LAYER
2
DEFAULT_255_1_234
70
0
62
255
6
CONTINUOUS
0
LAYER
2
DEFAULT_255_2_778_1
70
0
62
255
6
CONTINUOUS
0
ENDTAB
0
ENDSEC
0
SECTION
2
ENTITIES
0
ARC
8
DEFAULT_255_2_778
10
3.5700693
20
59.9302032
40
0.7914215
50
129.1312896
51
180.1450914
0
ARC
8
DEFAULT_255_2_778
10
3.5703345
20
59.9306904
40
0.7912112
50
89.854026
51
129.1684493
0
ARC
8
DEFAULT_255_2_778
10
25.7993937
20
59.9303769
40
0.7915249
50
39.4792447
51
90.147911
0
ARC
8
DEFAULT_255_2_778
10
25.7999935
20
59.9302236
40
0.7911595
50
359.8533901
51
39.5154338
0
ARC
8
DEFAULT_255_2_778
10
25.7996693
20
-1.986349
40
0.7914836
50
309.4761667
51
0.1482649
0
ARC
8
DEFAULT_255_2_778
10
25.799398
20
-1.9867801
40
0.7913235
50
269.8517415
51
309.511178
0
ARC
8
DEFAULT_255_2_778
10
3.570342
20
-1.9867219
40
0.7913815
50
219.1282118
51
270.1454017
0
ARC
8
DEFAULT_255_2_778
10
3.5700247
20
-1.9863394
40
0.7913769
50
179.8524075
51
219.1641908
0
LINE
8
DEFAULT_255_2_778
10
3.5723503
20
60.7218991
11
25.7973503
21
60.7218991
0
LINE
8
DEFAULT_255_2_778
10
26.5911503
20
59.9281991
11
26.5911503
21
-1.9843009
0
LINE
8
DEFAULT_255_2_778
10
25.7973503
20
-2.7781009
11
3.5723503
21
-2.7781009
0
LINE
8
DEFAULT_255_2_778
10
2.7786503
20
-1.9843009
11
2.7786503
21
59.9281991
0
LINE
8
DEFAULT_255_1_234
10
11.0540879
20
0.5181211
11
11.0540879
21
-0.6513
0
LINE
8
DEFAULT_255_1_234
10
11.0540879
20
-0.6513
11
10.8990753
21
-0.6513
0
LINE
8
DEFAULT_255_1_234
10
10.8990753
20
-0.6513
11
10.3103489
21
0.249861
0
LINE
8
DEFAULT_255_1_234
10
10.3103489
20
0.249861
11
10.3103489
21
-0.6513
0
LINE
8
DEFAULT_255_1_234
10
10.3103489
20
-0.6513
11
10.1553364
21
-0.6513
0
LINE
8
DEFAULT_255_1_234
10
10.1553364
20
-0.6513
11
10.1553364
21
0.5181211
0
LINE
8
DEFAULT_255_1_234
10
10.1553364
20
0.5181211
11
10.3103489
21
0.5181211
0
LINE
8
DEFAULT_255_1_234
10
10.3103489
20
0.5181211
11
10.9006817
21
-0.3870558
0
LINE
8
DEFAULT_255_1_234
10
10.9006817
20
-0.3870558
11
10.9006817
21
0.5181211
0
LINE
8
DEFAULT_255_1_234
10
10.9006817
20
0.5181211
11
11.0540879
21
0.5181211
0
LINE
8
DEFAULT_255_1_234
10
11.4412177
20
0.5181211
11
11.7231317
21
0.0699501
0
LINE
8
DEFAULT_255_1_234
10
11.7231317
20
0.0699501
11
12.0034394
21
0.5181211
0
LINE
8
DEFAULT_255_1_234
10
12.0034394
20
0.5181211
11
12.1849566
21
0.5181211
0
LINE
8
DEFAULT_255_1_234
10
12.1849566
20
0.5181211
11
11.8154967
21
-0.0617704
0
LINE
8
DEFAULT_255_1_234
10
11.8154967
20
-0.0617704
11
12.1937916
21
-0.6513
0
LINE
8
DEFAULT_255_1_234
10
12.1937916
20
-0.6513
11
12.0106679
21
-0.6513
0
LINE
8
DEFAULT_255_1_234
10
12.0106679
20
-0.6513
11
11.7231317
21
-0.1950973
0
LINE
8
DEFAULT_255_1_234
10
11.7231317
20
-0.1950973
11
11.4339891
21
-0.6513
0
LINE
8
DEFAULT_255_1_234
10
11.4339891
20
-0.6513
11
11.2516687
21
-0.6513
0
LINE
8
DEFAULT_255_1_234
10
11.2516687
20
-0.6513
11
11.6307667
21
-0.0617704
0
LINE
8
DEFAULT_255_1_234
10
11.6307667
20
-0.0617704
11
11.2605036
21
0.5181211
0
LINE
8
DEFAULT_255_1_234
10
11.2605036
20
0.5181211
11
11.4412177
21
0.5181211
0
LINE
8
DEFAULT_255_1_234
10
12.6218832
20
-0.0938974
11
12.6218832
21
-0.2151766
0
LINE
8
DEFAULT_255_1_234
10
12.6218832
20
-0.2151766
11
12.2299344
21
-0.2151766
0
LINE
8
DEFAULT_255_1_234
10
12.2299344
20
-0.2151766
11
12.2299344
21
-0.0938974
0
LINE
8
DEFAULT_255_1_234
10
12.2299344
20
-0.0938974
11
12.6218832
21
-0.0938974
0
LINE
8
DEFAULT_255_1_234
10
13.5977394
20
0.5181211
11
13.5977394
21
0.3912196
0
LINE
8
DEFAULT_255_1_234
10
13.5977394
20
0.3912196
11
13.2218541
21
0.3912196
0
LINE
8
DEFAULT_255_1_234
10
13.2218541
20
0.3912196
11
13.2218541
21
-0.6513
0
LINE
8
DEFAULT_255_1_234
10
13.2218541
20
-0.6513
11
13.0684479
21
-0.6513
0
LINE
8
DEFAULT_255_1_234
10
13.0684479
20
-0.6513
11
13.0684479
21
0.3912196
0
LINE
8
DEFAULT_255_1_234
10
13.0684479
20
0.3912196
11
12.6933657
21
0.3912196
0
LINE
8
DEFAULT_255_1_234
10
12.6933657
20
0.3912196
11
12.6933657
21
0.5181211
0
LINE
8
DEFAULT_255_1_234
10
12.6933657
20
0.5181211
11
13.5977394
21
0.5181211
0
LINE
8
DEFAULT_255_1_234
10
14.5342401
20
0.1799849
11
14.3792275
21
0.1799849
0
LINE
8
DEFAULT_255_1_234
10
13.6868917
20
-0.3123606
11
13.8419042
21
-0.3123606
0
ARC
8
DEFAULT_255_1_234
10
14.4451088
20
1.0746768
40
1.252368
50
248.9199003
51
254.1439814
0
ARC
8
DEFAULT_255_1_234
10
14.2770583
20
0.6420234
40
0.788226
50
241.633709
51
249.0064503
0
ARC
8
DEFAULT_255_1_234
10
14.1241977
20
0.3619317
40
0.4691427
50
230.498225
51
241.8087113
0
ARC
8
DEFAULT_255_1_234
10
14.0457552
20
0.2619906
40
0.3421437
50
227.4064532
51
229.9881192
0
ARC
8
DEFAULT_255_1_234
10
13.9970072
20
0.2144088
40
0.2741476
50
200.6781896
51
228.1763934
0
ARC
8
DEFAULT_255_1_234
10
14.0042383
20
0.2129077
40
0.2804109
50
179.5061581
51
199.8694617
0
ARC
8
DEFAULT_255_1_234
10
14.0033135
20
0.220321
40
0.2795204
50
132.4834203
51
181.0242172
0
ARC
8
DEFAULT_255_1_234
10
14.0628717
20
0.1640704
40
0.3612768
50
129.2532479
51
133.4242687
0
ARC
8
DEFAULT_255_1_234
10
14.0775167
20
0.1420965
40
0.3875675
50
101.98776
51
128.8742646
0
ARC
8
DEFAULT_255_1_234
10
14.1173777
20
-0.0300259
40
0.5642249
50
89.5906553
51
102.3169264
0
ARC
8
DEFAULT_255_1_234
10
14.1244269
20
0.0018148
40
0.5323783
50
77.2360837
51
90.3248275
0
ARC
8
DEFAULT_255_1_234
10
14.1451349
20
0.09854
40
0.4334697
50
63.837784
51
77.0809408
0
ARC
8
DEFAULT_255_1_234
10
14.172911
20
0.1502911
40
0.3747796
50
45.9864267
51
64.1607727
0
ARC
8
DEFAULT_255_1_234
10
14.1989991
20
0.1800866
40
0.3352302
50
32.2747395
51
45.6547121
0
ARC
8
DEFAULT_255_1_234
10
14.2056432
20
0.181988
40
0.328603
50
359.6507365
51
32.6130309
0
ARC
8
DEFAULT_255_1_234
10
14.1113527
20
0.182466
40
0.2678863
50
359.469343
51
14.9832209
0
ARC
8
DEFAULT_255_1_234
10
14.181859
20
0.2013539
40
0.1948938
50
14.9781179
51
48.2004265
0
ARC
8
DEFAULT_255_1_234
10
14.1654234
20
0.1806983
40
0.2212521
50
48.5927837
51
74.1241538
0
ARC
8
DEFAULT_255_1_234
10
14.1320724
20
0.0706248
40
0.3362561
50
73.7888341
51
86.6652678
0
ARC
8
DEFAULT_255_1_234
10
14.1218289
20
-0.0501119
40
0.4573953
50
86.2640471
51
90.0526343
0
ARC
8
DEFAULT_255_1_234
10
14.1190002
20
-0.0105808
40
0.4178709
50
89.6697524
51
99.2309573
0
ARC
8
DEFAULT_255_1_234
10
14.0947453
20
0.1338964
40
0.2713749
50
99.069534
51
113.7658566
0
ARC
8
DEFAULT_255_1_234
10
14.0673644
20
0.1984677
40
0.2012469
50
114.0401004
51
127.9850673
0
ARC
8
DEFAULT_255_1_234
10
14.0433208
20
0.228073
40
0.1631167
50
127.7287463
51
176.7105154
0
ARC
8
DEFAULT_255_1_234
10
14.1111925
20
0.2179693
40
0.2315392
50
175.1779447
51
180.0581938
0
ARC
8
DEFAULT_255_1_234
10
14.0268772
20
0.2167428
40
0.1472271
50
179.6142195
51
228.1246017
0
ARC
8
DEFAULT_255_1_234
10
14.0710441
20
0.2576308
40
0.2072299
50
226.5779593
51
230.8800004
0
ARC
8
DEFAULT_255_1_234
10
14.1181519
20
0.3201636
40
0.2854818
50
231.4635071
51
241.9260842
0
ARC
8
DEFAULT_255_1_234
10
14.2378697
20
0.54048
40
0.53622
50
241.7178533
51
248.3259551
0
ARC
8
DEFAULT_255_1_234
10
14.3764069
20
0.8837064
40
0.9063478
50
248.2007737
51
252.4528373
0
ARC
8
DEFAULT_255_1_234
10
14.4967794
20
1.2558441
40
1.2974635
50
252.3391078
51
254.3469452
0
ARC
8
DEFAULT_255_1_234
10
13.7425497
20
-1.4418852
40
1.5037162
50
71.0197183
51
74.4087047
0
ARC
8
DEFAULT_255_1_234
10
13.9120182
20
-0.9526889
40
0.9859993
50
66.1847285
51
71.086374
0
ARC
8
DEFAULT_255_1_234
10
14.0676494
20
-0.60228
40
0.6025855
50
59.3536294
51
66.2691831
0
ARC
8
DEFAULT_255_1_234
10
14.1565147
20
-0.4519391
40
0.4279449
50
49.1020879
51
59.3293958
0
ARC
8
DEFAULT_255_1_234
10
14.2383887
20
-0.3586166
40
0.3038015
50
32.7919921
51
49.2505539
0
ARC
8
DEFAULT_255_1_234
10
14.2704977
20
-0.3357809
40
0.264448
50
31.1181161
51
32.4005348
0
ARC
8
DEFAULT_255_1_234
10
14.2616514
20
-0.3393221
40
0.2738556
50
8.1116974
51
30.7958831
0
ARC
8
DEFAULT_255_1_234
10
14.1806182
20
-0.3531247
40
0.3560327
50
359.8389159
51
8.4706516
0
ARC
8
DEFAULT_255_1_234
10
14.2431974
20
-0.3579863
40
0.2934776
50
337.4731098
51
0.7537279
0
ARC
8
DEFAULT_255_1_234
10
14.2610669
20
-0.3599613
40
0.2762607
50
307.5917067
51
336.4315538
0
ARC
8
DEFAULT_255_1_234
10
14.2150497
20
-0.3086898
40
0.3449979
50
307.6551545
51
308.4529766
0
ARC
8
DEFAULT_255_1_234
10
14.1920215
20
-0.273175
40
0.3871988
50
284.3734338
51
307.1424381
0
ARC
8
DEFAULT_255_1_234
10
14.1425046
20
-0.0910068
40
0.5759636
50
272.4382747
51
284.646547
0
ARC
8
DEFAULT_255_1_234
10
14.1298254
20
0.0889893
40
0.7563528
50
269.9708387
51
272.8178037
0
ARC
8
DEFAULT_255_1_234
10
14.1255294
20
-0.1148284
40
0.5525489
50
248.2707594
51
270.4055579
0
ARC
8
DEFAULT_255_1_234
10
14.1201035
20
-0.1338808
40
0.5328452
50
246.1383403
51
248.0542782
0
ARC
8
DEFAULT_255_1_234
10
14.0782414
20
-0.2218157
40
0.4355005
50
233.1670131
51
246.4950969
0
ARC
8
DEFAULT_255_1_234
10
14.0228319
20
-0.2966188
40
0.3424126
50
215.3403242
51
233.0843104
0
ARC
8
DEFAULT_255_1_234
10
13.995575
20
-0.3164451
40
0.3087104
50
179.2419209
51
215.2648451
0
ARC
8
DEFAULT_255_1_234
10
14.0723344
20
-0.3150334
40
0.2304457
50
179.335461
51
199.1045811
0
ARC
8
DEFAULT_255_1_234
10
14.0391021
20
-0.3237234
40
0.1962176
50
199.8828939
51
232.7063202
0
ARC
8
DEFAULT_255_1_234
10
14.0863289
20
-0.2643212
40
0.2720938
50
232.3738199
51
255.5136649
0
ARC
8
DEFAULT_255_1_234
10
14.1204156
20
-0.1399165
40
0.4010747
50
255.2446292
51
267.5320849
0
ARC
8
DEFAULT_255_1_234
10
14.1291779
20
-0.0166298
40
0.5246356
50
267.1557994
51
270.0286766
0
ARC
8
DEFAULT_255_1_234
10
14.1319551
20
-0.061005
40
0.4802668
50
269.7000017
51
278.1660162
0
ARC
8
DEFAULT_255_1_234
10
14.1575556
20
-0.2340485
40
0.3053425
50
278.0231263
51
290.625471
0
ARC
8
DEFAULT_255_1_234
10
14.1923243
20
-0.3267975
40
0.206291
50
290.6619762
51
307.0370976
0
ARC
8
DEFAULT_255_1_234
10
14.2223632
20
-0.3636496
40
0.1587906
50
306.3943566
51
355.3030547
0
ARC
8
DEFAULT_255_1_234
10
14.1711564
20
-0.3559887
40
0.2104809
50
354.3660432
51
0.0698737
0
ARC
8
DEFAULT_255_1_234
10
14.1853909
20
-0.3537383
40
0.1962563
50
359.417946
51
16.1971788
0
ARC
8
DEFAULT_255_1_234
10
14.2309219
20
-0.3412582
40
0.149053
50
16.4723299
51
52.6262157
0
ARC
8
DEFAULT_255_1_234
10
14.1488273
20
-0.4496567
40
0.2850296
50
52.7386432
51
62.4979148
0
ARC
8
DEFAULT_255_1_234
10
14.010335
20
-0.7102717
40
0.5801521
50
62.2515216
51
68.1220564
0
ARC
8
DEFAULT_255_1_234
10
13.8383261
20
-1.1330128
40
1.0365451
50
68.0062803
51
71.8053402
0
ARC
8
DEFAULT_255_1_234
10
13.6587633
20
-1.6715242
40
1.6042013
50
71.7183119
51
73.9258742
0
LINE
8
DEFAULT_255_1_234
10
15.4619059
20
-0.5300208
11
15.4619059
21
-0.6513
0
LINE
8
DEFAULT_255_1_234
10
15.4619059
20
-0.6513
11
14.695678
21
-0.6513
0
LINE
8
DEFAULT_255_1_234
10
14.695678
20
-0.6513
11
14.695678
21
-0.5444779
0
LINE
8
DEFAULT_255_1_234
10
14.695678
20
-0.5444779
11
15.1004776
21
-0.0947005
0
LINE
8
DEFAULT_255_1_234
10
14.8217763
20
0.1735595
11
14.6731892
21
0.1735595
0
LINE
8
DEFAULT_255_1_234
10
15.1880236
20
-0.1902782
11
14.8747858
21
-0.5300208
0
LINE
8
DEFAULT_255_1_234
10
14.8747858
20
-0.5300208
11
15.4619059
21
-0.5300208
0
ARC
8
DEFAULT_255_1_234
10
13.751461
20
1.0982527
40
1.8008286
50
318.5132453
51
320.7828378
0
ARC
8
DEFAULT_255_1_234
10
14.2801584
20
0.6679426
40
1.1191493
50
320.7372736
51
323.9737074
0
ARC
8
DEFAULT_255_1_234
10
14.672144
20
0.3839361
40
0.6350923
50
323.8961724
51
328.6421089
0
ARC
8
DEFAULT_255_1_234
10
14.8768036
20
0.2577031
40
0.3946393
50
328.8299013
51
331.789948
0
ARC
8
DEFAULT_255_1_234
10
14.9765214
20
0.2062509
40
0.2824501
50
331.4255242
51
352.9364833
0
ARC
8
DEFAULT_255_1_234
10
14.9901715
20
0.2031976
40
0.2685315
50
353.2248685
51
0.0169286
0
ARC
8
DEFAULT_255_1_234
10
15.0111592
20
0.205495
40
0.2475536
50
359.4866256
51
15.9339782
0
ARC
8
DEFAULT_255_1_234
10
15.0618577
20
0.2191286
40
0.1950618
50
16.1714718
51
43.5284424
0
ARC
8
DEFAULT_255_1_234
10
15.0695886
20
0.2268573
40
0.184134
50
43.4415429
51
83.1661404
0
ARC
8
DEFAULT_255_1_234
10
15.0561804
20
0.1531771
40
0.258926
50
82.160215
51
90.1505798
0
ARC
8
DEFAULT_255_1_234
10
15.0530231
20
0.0994865
40
0.3126255
50
89.5460705
51
102.5418777
0
ARC
8
DEFAULT_255_1_234
10
15.0287317
20
0.2025665
40
0.2067346
50
102.1739365
51
129.2061916
0
ARC
8
DEFAULT_255_1_234
10
15.0208389
20
0.2150094
40
0.1921118
50
129.7279328
51
135.7542026
0
ARC
8
DEFAULT_255_1_234
10
15.0329917
20
0.2053045
40
0.2075944
50
136.175737
51
166.3674722
0
ARC
8
DEFAULT_255_1_234
10
15.1336836
20
0.1783182
40
0.3118201
50
165.9092917
51
178.8683903
0
ARC
8
DEFAULT_255_1_234
10
15.2201697
20
0.1736179
40
0.3983935
50
178.438168
51
180.0083905
0
ARC
8
DEFAULT_255_1_234
10
15.0800299
20
0.1775231
40
0.4068601
50
163.2878735
51
180.5581814
0
ARC
8
DEFAULT_255_1_234
10
14.9998561
20
0.199584
40
0.3237344
50
133.454115
51
162.9470031
0
ARC
8
DEFAULT_255_1_234
10
15.0177102
20
0.1806
40
0.349795
50
100.7869394
51
133.4384016
0
ARC
8
DEFAULT_255_1_234
10
15.0524874
20
0.0257319
40
0.5084616
50
89.6605301
51
101.3704185
0
ARC
8
DEFAULT_255_1_234
10
15.0591212
20
0.0318496
40
0.502348
50
78.2171172
51
90.4130393
0
ARC
8
DEFAULT_255_1_234
10
15.0946291
20
0.1942637
40
0.3361092
50
55.9268222
51
78.4888551
0
ARC
8
DEFAULT_255_1_234
10
15.1142731
20
0.2281324
40
0.2970617
50
47.9292255
51
55.4054003
0
ARC
8
DEFAULT_255_1_234
10
15.1244291
20
0.2384502
40
0.2825983
50
4.3347696
51
48.0560701
0
ARC
8
DEFAULT_255_1_234
10
15.0148685
20
0.2214601
40
0.393225
50
359.925209
51
5.5967654
0
ARC
8
DEFAULT_255_1_234
10
15.0577577
20
0.2270816
40
0.3503892
50
337.8914096
51
358.9967724
0
ARC
8
DEFAULT_255_1_234
10
14.7863989
20
0.3317706
40
0.6412172
50
326.9135351
51
338.3505194
0
ARC
8
DEFAULT_255_1_234
10
14.3878293
20
0.5872284
40
1.1146189
50
319.6472867
51
327.095818
0
ARC
8
DEFAULT_255_1_234
10
14.0045296
20
0.9034
40
1.6114559
50
317.2586784
51
319.9046139
0
LINE
8
DEFAULT_255_1_234
10
16.3855558
20
-0.5300208
11
16.3855558
21
-0.6513
0
LINE
8
DEFAULT_255_1_234
10
16.3855558
20
-0.6513
11
15.6193279
21
-0.6513
0
LINE
8
DEFAULT_255_1_234
10
15.6193279
20
-0.6513
11
15.6193279
21
-0.5444779
0
LINE
8
DEFAULT_255_1_234
10
15.6193279
20
-0.5444779
11
16.0241275
21
-0.0947005
0
LINE
8
DEFAULT_255_1_234
10
15.7454262
20
0.1735595
11
15.5968391
21
0.1735595
0
LINE
8
DEFAULT_255_1_234
10
16.1116735
20
-0.1902782
11
15.7984357
21
-0.5300208
0
LINE
8
DEFAULT_255_1_234
10
15.7984357
20
-0.5300208
11
16.3855558
21
-0.5300208
0
ARC
8
DEFAULT_255_1_234
10
14.6751109
20
1.0982527
40
1.8008286
50
318.5132453
51
320.7828378
0
ARC
8
DEFAULT_255_1_234
10
15.2038083
20
0.6679426
40
1.1191493
50
320.7372736
51
323.9737074
0
ARC
8
DEFAULT_255_1_234
10
15.5957939
20
0.3839361
40
0.6350923
50
323.8961724
51
328.6421089
0
ARC
8
DEFAULT_255_1_234
10
15.8004535
20
0.2577031
40
0.3946393
50
328.8299013
51
331.789948
0
ARC
8
DEFAULT_255_1_234
10
15.9001713
20
0.2062509
40
0.2824501
50
331.4255242
51
352.9364833
0
ARC
8
DEFAULT_255_1_234
10
15.9138214
20
0.2031976
40
0.2685315
50
353.2248685
51
0.0169286
0
ARC
8
DEFAULT_255_1_234
10
15.9348091
20
0.205495
40
0.2475536
50
359.4866256
51
15.9339782
0
ARC
8
DEFAULT_255_1_234
10
15.9855076
20
0.2191286
40
0.1950618
50
16.1714718
51
43.5284424
0
ARC
8
DEFAULT_255_1_234
10
15.9932385
20
0.2268573
40
0.184134
50
43.4415429
51
83.1661404
0
ARC
8
DEFAULT_255_1_234
10
15.9798303
20
0.1531771
40
0.258926
50
82.160215
51
90.1505798
0
ARC
8
DEFAULT_255_1_234
10
15.976673
20
0.0994865
40
0.3126255
50
89.5460705
51
102.5418777
0
ARC
8
DEFAULT_255_1_234
10
15.9523816
20
0.2025665
40
0.2067346
50
102.1739365
51
129.2061916
0
ARC
8
DEFAULT_255_1_234
10
15.9444888
20
0.2150094
40
0.1921118
50
129.7279328
51
135.7542026
0
ARC
8
DEFAULT_255_1_234
10
15.9566416
20
0.2053045
40
0.2075944
50
136.175737
51
166.3674722
0
ARC
8
DEFAULT_255_1_234
10
16.0573335
20
0.1783182
40
0.3118201
50
165.9092917
51
178.8683903
0
ARC
8
DEFAULT_255_1_234
10
16.1438196
20
0.1736179
40
0.3983935
50
178.438168
51
180.0083905
0
ARC
8
DEFAULT_255_1_234
10
16.0036798
20
0.1775231
40
0.4068601
50
163.2878735
51
180.5581814
0
ARC
8
DEFAULT_255_1_234
10
15.923506
20
0.199584
40
0.3237344
50
133.454115
51
162.9470031
0
ARC
8
DEFAULT_255_1_234
10
15.9413601
20
0.1806
40
0.349795
50
100.7869394
51
133.4384016
0
ARC
8
DEFAULT_255_1_234
10
15.9761373
20
0.0257319
40
0.5084616
50
89.6605301
51
101.3704185
0
ARC
8
DEFAULT_255_1_234
10
15.9827711
20
0.0318496
40
0.502348
50
78.2171172
51
90.4130393
0
ARC
8
DEFAULT_255_1_234
10
16.018279
20
0.1942637
40
0.3361092
50
55.9268222
51
78.4888551
0
ARC
8
DEFAULT_255_1_234
10
16.037923
20
0.2281324
40
0.2970617
50
47.9292255
51
55.4054003
0
ARC
8
DEFAULT_255_1_234
10
16.0480791
20
0.2384502
40
0.2825983
50
4.3347696
51
48.0560701
0
ARC
8
DEFAULT_255_1_234
10
15.9385184
20
0.2214601
40
0.393225
50
359.925209
51
5.5967654
0
ARC
8
DEFAULT_255_1_234
10
15.9814076
20
0.2270816
40
0.3503892
50
337.8914096
51
358.9967724
0
ARC
8
DEFAULT_255_1_234
10
15.7100488
20
0.3317706
40
0.6412172
50
326.9135351
51
338.3505194
0
ARC
8
DEFAULT_255_1_234
10
15.3114792
20
0.5872284
40
1.1146189
50
319.6472867
51
327.095818
0
ARC
8
DEFAULT_255_1_234
10
14.9281795
20
0.9034
40
1.6114559
50
317.2586784
51
319.9046139
0
LINE
8
DEFAULT_255_1_234
10
17.2762755
20
0.0402327
11
17.2762755
21
-0.1525291
0
LINE
8
DEFAULT_255_1_234
10
16.5381588
20
-0.1726084
11
16.5381588
21
0.0257755
0
LINE
8
DEFAULT_255_1_234
10
17.1276884
20
-0.1926877
11
17.1276884
21
0.0506739
0
LINE
8
DEFAULT_255_1_234
10
16.6867459
20
0.0619184
11
16.6867459
21
-0.1758211
0
ARC
8
DEFAULT_255_1_234
10
16.0515645
20
-0.1574195
40
1.2247208
50
353.8441951
51
0.2287902
0
ARC
8
DEFAULT_255_1_234
10
16.5155149
20
-0.2092194
40
0.7578929
50
344.4934747
51
353.9765454
0
ARC
8
DEFAULT_255_1_234
10
16.8147739
20
-0.2943019
40
0.4467846
50
329.2803592
51
344.7472793
0
ARC
8
DEFAULT_255_1_234
10
16.9140564
20
-0.3487982
40
0.3336173
50
324.9352394
51
328.6160465
0
ARC
8
DEFAULT_255_1_234
10
16.9517672
20
-0.3751573
40
0.2876076
50
280.580143
51
324.9173126
0
ARC
8
DEFAULT_255_1_234
10
16.9116465
20
-0.2080901
40
0.4592847
50
269.5977311
51
281.6734359
0
ARC
8
DEFAULT_255_1_234
10
16.9044371
20
-0.2200827
40
0.4472986
50
256.6228859
51
270.51044
0
ARC
8
DEFAULT_255_1_234
10
16.8642348
20
-0.3749123
40
0.2873874
50
215.8618325
51
257.2788573
0
ARC
8
DEFAULT_255_1_234
10
16.966338
20
-0.3064023
40
0.4102928
50
197.9693508
51
215.2623606
0
ARC
8
DEFAULT_255_1_234
10
17.2148496
20
-0.2225291
40
0.6725652
50
187.8816417
51
198.2346507
0
ARC
8
DEFAULT_255_1_234
10
17.6106704
20
-0.1653921
40
1.0724845
50
180.8976217
51
188.0055519
0
ARC
8
DEFAULT_255_1_234
10
17.8906892
20
-0.1550223
40
1.3526448
50
180.7449369
51
181.1510016
0
ARC
8
DEFAULT_255_1_234
10
17.7329621
20
0.0306042
40
1.1948131
50
173.7675579
51
180.231553
0
ARC
8
DEFAULT_255_1_234
10
17.2811768
20
0.0816666
40
0.7401564
50
164.3058563
51
173.9002247
0
ARC
8
DEFAULT_255_1_234
10
16.9899837
20
0.1655656
40
0.4371288
50
148.7922025
51
164.568378
0
ARC
8
DEFAULT_255_1_234
10
16.8948289
20
0.2186929
40
0.3282386
50
144.5883898
51
148.1176286
0
ARC
8
DEFAULT_255_1_234
10
16.8605187
20
0.2426315
40
0.2864044
50
101.6440918
51
144.514236
0
ARC
8
DEFAULT_255_1_234
10
16.9030253
20
0.0737069
40
0.4604934
50
89.5284041
51
102.5819763
0
ARC
8
DEFAULT_255_1_234
10
16.9109341
20
0.0698018
40
0.464401
50
77.0437873
51
90.5081339
0
ARC
8
DEFAULT_255_1_234
10
16.9511343
20
0.2340615
40
0.2953195
50
48.2778575
51
77.4994676
0
ARC
8
DEFAULT_255_1_234
10
16.9583974
20
0.2469746
40
0.2808655
50
36.3142134
51
47.6305865
0
ARC
8
DEFAULT_255_1_234
10
16.8715281
20
0.1884515
40
0.3855453
50
18.2931786
51
35.6769206
0
ARC
8
DEFAULT_255_1_234
10
16.617204
20
0.1011593
40
0.654423
50
8.024666
51
18.5605216
0
ARC
8
DEFAULT_255_1_234
10
16.200896
20
0.0396792
40
1.0752407
50
1.1274072
51
8.1718305
0
ARC
8
DEFAULT_255_1_234
10
15.8773151
20
0.0269885
40
1.3990231
50
0.5424119
51
1.3863029
0
ARC
8
DEFAULT_255_1_234
10
16.0594528
20
0.0542342
40
1.0682415
50
359.8090433
51
4.9407866
0
ARC
8
DEFAULT_255_1_234
10
16.4804542
20
0.0918113
40
0.6455691
50
4.8362157
51
12.2904523
0
ARC
8
DEFAULT_255_1_234
10
16.7559657
20
0.1531965
40
0.3633074
50
12.0805627
51
23.8173984
0
ARC
8
DEFAULT_255_1_234
10
16.8733363
20
0.2028919
40
0.2358723
50
24.2871213
51
31.3935614
0
ARC
8
DEFAULT_255_1_234
10
16.925806
20
0.2372233
40
0.1732111
50
30.7407893
51
82.4657128
0
ARC
8
DEFAULT_255_1_234
10
16.9078194
20
0.1488691
40
0.263235
50
81.1060089
51
90.2184952
0
ARC
8
DEFAULT_255_1_234
10
16.9042493
20
0.1746924
40
0.2374236
50
89.3806855
51
105.6762551
0
ARC
8
DEFAULT_255_1_234
10
16.8859124
20
0.2413567
40
0.1682847
50
105.7981136
51
149.7388061
0
ARC
8
DEFAULT_255_1_234
10
16.9923202
20
0.177395
40
0.2924306
50
149.4208916
51
163.6286378
0
ARC
8
DEFAULT_255_1_234
10
17.201409
20
0.113625
40
0.5110213
50
163.3763315
51
172.1410975
0
ARC
8
DEFAULT_255_1_234
10
17.5314809
20
0.0663518
40
0.8444586
50
172.0259487
51
178.0703232
0
ARC
8
DEFAULT_255_1_234
10
17.8344898
20
0.0519906
40
1.1477868
50
177.8631668
51
179.5044149
0
ARC
8
DEFAULT_255_1_234
10
17.7272303
20
-0.1794611
40
1.0404907
50
179.7995573
51
185.2460446
0
ARC
8
DEFAULT_255_1_234
10
17.3229342
20
-0.2177487
40
0.6343885
50
185.1411642
51
193.0079639
0
ARC
8
DEFAULT_255_1_234
10
17.0585815
20
-0.2802359
40
0.3627568
50
192.7897626
51
205.2507664
0
ARC
8
DEFAULT_255_1_234
10
16.9539362
20
-0.3269585
40
0.2481908
50
205.8005384
51
211.2537509
0
ARC
8
DEFAULT_255_1_234
10
16.9015802
20
-0.362042
40
0.1852521
50
210.3789793
51
238.4008143
0
ARC
8
DEFAULT_255_1_234
10
16.8996324
20
-0.3573624
40
0.1882621
50
239.6520629
51
265.9793761
0
ARC
8
DEFAULT_255_1_234
10
16.9081524
20
-0.2901573
40
0.2559272
50
265.1315437
51
270.060332
0
ARC
8
DEFAULT_255_1_234
10
16.9110303
20
-0.3225466
40
0.2235528
50
269.3314664
51
287.2178029
0
ARC
8
DEFAULT_255_1_234
10
16.9248155
20
-0.3728721
40
0.1714108
50
287.7958004
51
329.080874
0
ARC
8
DEFAULT_255_1_234
10
16.8290612
20
-0.313107
40
0.2842745
50
328.6634704
51
343.3325132
0
ARC
8
DEFAULT_255_1_234
10
16.6117632
20
-0.2454137
40
0.5118644
50
343.0499468
51
351.9393422
0
ARC
8
DEFAULT_255_1_234
10
16.2650932
20
-0.1943051
40
0.8622784
50
351.8069023
51
357.7959224
0
ARC
8
DEFAULT_255_1_234
10
15.9415488
20
-0.1775279
40
1.1862365
50
357.5871873
51
359.2677531
0
LINE
8
DEFAULT_255_1_234
10
18.0939065
20
0.5181211
11
18.0939065
21
-0.258548
0
LINE
8
DEFAULT_255_1_234
10
18.0939065
20
-0.258548
11
18.2561476
21
-0.258548
0
LINE
8
DEFAULT_255_1_234
10
18.2561476
20
-0.258548
11
18.2561476
21
-0.3798272
0
LINE
8
DEFAULT_255_1_234
10
18.2561476
20
-0.3798272
11
18.0939065
21
-0.3798272
0
LINE
8
DEFAULT_255_1_234
10
18.0939065
20
-0.3798272
11
18.0939065
21
-0.6513
0
LINE
8
DEFAULT_255_1_234
10
18.0939065
20
-0.6513
11
17.9445162
21
-0.6513
0
LINE
8
DEFAULT_255_1_234
10
17.9445162
20
-0.6513
11
17.9445162
21
-0.3798272
0
LINE
8
DEFAULT_255_1_234
10
17.9445162
20
-0.3798272
11
17.4120119
21
-0.3798272
0
LINE
8
DEFAULT_255_1_234
10
17.4120119
20
-0.3798272
11
17.4120119
21
-0.2922813
0
LINE
8
DEFAULT_255_1_234
10
17.4120119
20
-0.2922813
11
17.9356813
21
0.5181211
0
LINE
8
DEFAULT_255_1_234
10
17.9356813
20
0.5181211
11
18.0939065
21
0.5181211
0
LINE
8
DEFAULT_255_1_234
10
17.9268463
20
0.2827912
11
17.5806784
21
-0.258548
0
LINE
8
DEFAULT_255_1_234
10
17.5806784
20
-0.258548
11
17.9445162
21
-0.258548
0
LINE
8
DEFAULT_255_1_234
10
17.9445162
20
-0.258548
11
17.9445162
21
0.3149181
0
LINE
8
DEFAULT_255_1_234
10
17.9445162
20
0.3149181
11
17.9268463
21
0.2827912
0
ARC
8
DEFAULT_255_2_778
10
15.2720183
20
58.4421485
40
0.3780135
50
0.4109279
51
91.3333757
0
ARC
8
DEFAULT_255_2_778
10
15.2696879
20
58.4396741
40
0.3803695
50
269.0259909
51
0.7811192
0
ARC
8
DEFAULT_255_2_778
10
15.4292635
20
58.4268826
40
0.7634811
50
290.7150207
51
357.6789493
0
ARC
8
DEFAULT_255_2_778
10
15.3436879
20
58.444789
40
0.849834
50
356.7063002
51
0.0047554
0
ARC
8
DEFAULT_255_2_778
10
15.3422443
20
58.4448425
40
0.8512778
50
0.0011515
51
85.3589632
0
ARC
8
DEFAULT_255_2_778
10
15.3422371
20
58.4257769
40
0.8702827
50
85.4600549
51
90.0075769
0
ARC
8
DEFAULT_255_2_778
10
20.1735812
20
58.4357119
40
0.3843497
50
1.363792
51
90.1877013
0
ARC
8
DEFAULT_255_2_778
10
20.2329096
20
58.4291312
40
0.8684198
50
359.7643557
51
42.1181505
0
ARC
8
DEFAULT_255_2_778
10
20.2353156
20
58.4295609
40
0.866348
50
42.2037872
51
87.9292218
0
ARC
8
DEFAULT_255_2_778
10
20.2305626
20
58.3882775
40
0.9077821
50
87.7235759
51
90.0025578
0
ARC
8
DEFAULT_255_2_778
10
12.9266813
20
58.4425938
40
0.3775476
50
0.3438524
51
91.1927816
0
ARC
8
DEFAULT_255_2_778
10
12.9805692
20
58.4291272
40
0.8684602
50
359.7646302
51
42.1161032
0
ARC
8
DEFAULT_255_2_778
10
12.9830774
20
58.4296804
40
0.8662296
50
42.2002176
51
87.9268901
0
ARC
8
DEFAULT_255_2_778
10
12.9783626
20
58.3886426
40
0.9074169
50
87.7231194
51
90.002558
0
ARC
8
DEFAULT_255_2_778
10
17.559042
20
58.0373535
40
1.2841942
50
233.3100129
51
270.0348017
0
ARC
8
DEFAULT_255_2_778
10
17.5711133
20
58.0577299
40
1.3077482
50
187.7860459
51
233.4193197
0
ARC
8
DEFAULT_255_2_778
10
17.5893588
20
58.0592862
40
1.3260368
50
179.9838663
51
187.7458681
0
ARC
8
DEFAULT_255_2_778
10
17.5478523
20
58.0599052
40
1.2845303
50
143.7084173
51
180.0109545
0
ARC
8
DEFAULT_255_2_778
10
17.5629238
20
58.0548576
40
1.2996747
50
94.9692901
51
143.9223324
0
ARC
8
DEFAULT_255_2_778
10
17.5597032
20
58.0555024
40
1.2987573
50
89.9947559
51
94.8302073
0
ARC
8
DEFAULT_255_2_778
10
17.5620152
20
58.0495179
40
1.3047435
50
58.1429841
51
90.0963106
0
ARC
8
DEFAULT_255_2_778
10
17.5702244
20
58.0555054
40
1.2953307
50
3.4984463
51
58.3116148
0
ARC
8
DEFAULT_255_2_778
10
17.5704037
20
58.0594205
40
1.2949184
50
359.9973027
51
3.3260237
0
ARC
8
DEFAULT_255_2_778
10
17.4410551
20
58.05785
40
1.4242677
50
5e-7
51
0.0607273
0
ARC
8
DEFAULT_255_2_778
10
17.5603672
20
58.0577908
40
1.3049558
50
315.0255717
51
0.0025997
0
ARC
8
DEFAULT_255_2_778
10
17.561074
20
58.057191
40
1.3040319
50
269.9947129
51
315.0222645
0
LINE
8
DEFAULT_255_2_778
10
17.5609537
20
56.7531591
11
17.5598221
21
56.7531596
0
ARC
8
DEFAULT_255_2_778
10
17.5640812
20
58.0556789
40
0.7580313
50
269.6780691
51
315.5292436
0
ARC
8
DEFAULT_255_2_778
10
17.5610107
20
58.0549556
40
0.7597205
50
315.7303962
51
0.2857903
0
ARC
8
DEFAULT_255_2_778
10
17.8487376
20
58.0592059
40
0.4719845
50
359.944048
51
0.0186519
0
ARC
8
DEFAULT_255_2_778
10
17.5687772
20
58.0582282
40
0.7519457
50
0.086204
51
85.4319233
0
ARC
8
DEFAULT_255_2_778
10
17.5599609
20
58.0158015
40
0.7949581
50
85.0420495
51
90.0100075
0
ARC
8
DEFAULT_255_2_778
10
17.5579396
20
58.0725196
40
0.7382424
50
89.8538973
51
89.9999976
0
ARC
8
DEFAULT_255_2_778
10
17.5580088
20
58.0599786
40
0.7507833
50
90.0052819
51
134.9571409
0
ARC
8
DEFAULT_255_2_778
10
17.5579709
20
58.0594242
40
0.751149
50
134.9252185
51
180.0049334
0
ARC
8
DEFAULT_255_2_778
10
17.5708624
20
58.0554552
40
0.7640503
50
179.7072119
51
222.5790813
0
ARC
8
DEFAULT_255_2_778
10
17.5579296
20
58.0444152
40
0.7470579
50
222.6267201
51
270.1451401
0
ARC
8
DEFAULT_255_2_778
10
9.564442
20
58.0373535
40
1.2841942
50
233.3100129
51
270.0348017
0
ARC
8
DEFAULT_255_2_778
10
9.5765133
20
58.0577299
40
1.3077482
50
187.7860459
51
233.4193197
0
ARC
8
DEFAULT_255_2_778
10
9.5947588
20
58.0592862
40
1.3260368
50
179.9838663
51
187.7458681
0
ARC
8
DEFAULT_255_2_778
10
9.5533136
20
58.059924
40
1.2845916
50
143.7114698
51
180.0117952
0
ARC
8
DEFAULT_255_2_778
10
9.5683755
20
58.0547703
40
1.299791
50
95.4071875
51
143.9213067
0
ARC
8
DEFAULT_255_2_778
10
9.565082
20
58.0558475
40
1.2984121
50
89.9938197
51
95.266981
0
ARC
8
DEFAULT_255_2_778
10
9.5673999
20
58.049719
40
1.3045424
50
58.1404634
51
90.0956514
0
ARC
8
DEFAULT_255_2_778
10
9.5754868
20
58.0555012
40
1.2953683
50
3.4985319
51
58.3092733
0
ARC
8
DEFAULT_255_2_778
10
9.5757037
20
58.0594205
40
1.2949184
50
359.9973027
51
3.3260236
0
ARC
8
DEFAULT_255_2_778
10
9.390968
20
58.0573181
40
1.4796554
50
0.0060895
51
0.0790519
0
ARC
8
DEFAULT_255_2_778
10
9.5660837
20
58.0576189
40
1.3045398
50
315.0179824
51
359.9936925
0
ARC
8
DEFAULT_255_2_778
10
9.566398
20
58.0571333
40
1.3039742
50
269.9980398
51
315.0233127
0
LINE
8
DEFAULT_255_2_778
10
9.5663534
20
56.7531591
11
9.5652221
21
56.7531596
0
ARC
8
DEFAULT_255_2_778
10
9.5694412
20
58.0556812
40
0.7580334
50
269.6810953
51
315.6152252
0
ARC
8
DEFAULT_255_2_778
10
9.5663839
20
58.0550058
40
0.7597504
50
315.8129036
51
0.3254485
0
ARC
8
DEFAULT_255_2_778
10
9.5738176
20
58.0579242
40
0.7523058
50
0.1093155
51
85.7820321
0
ARC
8
DEFAULT_255_2_778
10
9.5653381
20
58.016394
40
0.7943655
50
85.3923987
51
90.0083732
0
ARC
8
DEFAULT_255_2_778
10
9.5633385
20
58.0716025
40
0.7391595
50
89.8539942
51
89.9999859
0
ARC
8
DEFAULT_255_2_778
10
9.563405
20
58.059746
40
0.7510159
50
90.0050654
51
134.9497993
0
ARC
8
DEFAULT_255_2_778
10
9.5632746
20
58.059564
40
0.7510526
50
134.9329452
51
180.0155944
0
ARC
8
DEFAULT_255_2_778
10
9.5762945
20
58.0554289
40
0.7640826
50
179.7052536
51
222.5741919
0
ARC
8
DEFAULT_255_2_778
10
9.5632805
20
58.044384
40
0.7470269
50
222.6256588
51
270.1489141
0
LINE
8
DEFAULT_255_2_778
10
14.0768221
20
59.2754596
11
14.0768221
21
56.8126596
0
LINE
8
DEFAULT_255_2_778
10
14.0768221
20
56.8126596
11
14.6203221
21
56.8126596
0
LINE
8
DEFAULT_255_2_778
10
14.6203221
20
56.8126596
11
14.6203221
21
58.8200596
0
LINE
8
DEFAULT_255_2_778
10
14.6203221
20
58.8200596
11
15.2632221
21
58.8200596
0
LINE
8
DEFAULT_255_2_778
10
15.2632221
20
58.0593596
11
14.7986221
21
58.0593596
0
LINE
8
DEFAULT_255_2_778
10
14.7986221
20
58.0593596
11
15.6397221
21
56.8123596
0
LINE
8
DEFAULT_255_2_778
10
15.6397221
20
56.8123596
11
16.3126221
21
56.8123596
0
LINE
8
DEFAULT_255_2_778
10
16.3126221
20
56.8123596
11
15.6993221
21
57.7127596
0
LINE
8
DEFAULT_255_2_778
10
15.3421221
20
59.2960596
11
14.6200221
21
59.2960596
0
LINE
8
DEFAULT_255_2_778
10
14.6200221
20
59.2960596
11
14.0766221
21
59.2754596
0
LINE
8
DEFAULT_255_2_778
10
14.0766221
20
59.2754596
11
14.0768221
21
59.2754596
0
LINE
8
DEFAULT_255_2_778
10
19.0142221
20
59.2754596
11
19.0142221
21
56.8126596
0
LINE
8
DEFAULT_255_2_778
10
19.0142221
20
56.8126596
11
19.5577221
21
56.8126596
0
LINE
8
DEFAULT_255_2_778
10
19.5577221
20
56.8126596
11
19.5577221
21
58.8200596
0
LINE
8
DEFAULT_255_2_778
10
19.5577221
20
58.8200596
11
20.1723221
21
58.8200596
0
LINE
8
DEFAULT_255_2_778
10
20.5578221
20
58.4448596
11
20.5578221
21
56.8126596
0
LINE
8
DEFAULT_255_2_778
10
20.5578221
20
56.8126596
11
21.1013221
21
56.8126596
0
LINE
8
DEFAULT_255_2_778
10
21.1013221
20
56.8126596
11
21.1013221
21
58.4255596
0
LINE
8
DEFAULT_255_2_778
10
20.2305221
20
59.2960596
11
19.5577221
21
59.2960596
0
LINE
8
DEFAULT_255_2_778
10
19.5577221
20
59.2960596
11
19.0142221
21
59.2754596
0
LINE
8
DEFAULT_255_2_778
10
19.0142221
20
59.2754596
11
19.0142221
21
59.2754596
0
LINE
8
DEFAULT_255_2_778
10
11.0196221
20
59.2754596
11
11.0196221
21
56.8126596
0
LINE
8
DEFAULT_255_2_778
10
11.0196221
20
56.8126596
11
11.5628221
21
56.8126596
0
LINE
8
DEFAULT_255_2_778
10
11.5628221
20
56.8126596
11
11.5628221
21
58.8200596
0
LINE
8
DEFAULT_255_2_778
10
11.5628221
20
58.8200596
11
12.1671221
21
58.8200596
0
LINE
8
DEFAULT_255_2_778
10
12.1671221
20
58.8200596
11
12.1671221
21
56.8126596
0
LINE
8
DEFAULT_255_2_778
10
12.1671221
20
56.8126596
11
12.7105221
21
56.8126596
0
LINE
8
DEFAULT_255_2_778
10
12.7105221
20
56.8126596
11
12.7105221
21
58.8200596
0
LINE
8
DEFAULT_255_2_778
10
12.7105221
20
58.8200596
11
12.9188221
21
58.8200596
0
LINE
8
DEFAULT_255_2_778
10
13.3042221
20
58.4448596
11
13.3042221
21
56.8126596
0
LINE
8
DEFAULT_255_2_778
10
13.3042221
20
56.8126596
11
13.8490221
21
56.8126596
0
LINE
8
DEFAULT_255_2_778
10
13.8490221
20
56.8126596
11
13.8490221
21
58.4255596
0
LINE
8
DEFAULT_255_2_778
10
12.9783221
20
59.2960596
11
11.5731221
21
59.2960596
0
LINE
8
DEFAULT_255_2_778
10
11.5731221
20
59.2960596
11
11.0193221
21
59.2754596
0
LINE
8
DEFAULT_255_2_778
10
11.0193221
20
59.2754596
11
11.0196221
21
59.2754596
0
LINE
8
DEFAULT_255_2_778
10
17.5598221
20
56.7531596
11
17.5598221
21
56.7531596
0
LINE
8
DEFAULT_255_2_778
10
9.5652221
20
56.7531596
11
9.5652221
21
56.7531596
0
LINE
8
DEFAULT_255_2_778
10
9.3932417
20
44.8468581
11
10.7161417
21
44.8468581
0
LINE
8
DEFAULT_255_2_778
10
10.7161417
20
44.8468581
11
10.7161417
21
27.6489581
0
LINE
8
DEFAULT_255_2_778
10
9.3932834
20
27.6489333
11
12.0390834
21
27.6489333
0
LINE
8
DEFAULT_255_2_778
10
12.0390834
20
27.6489333
11
12.0390834
21
22.3572333
0
LINE
8
DEFAULT_255_2_778
10
12.0390834
20
22.3572333
11
9.3932834
21
22.3572333
0
LINE
8
DEFAULT_255_2_778
10
9.3932834
20
22.3572333
11
9.3932834
21
27.6489333
0
ARC
8
DEFAULT_255_2_778_1
10
13.1931093
20
22.4591014
40
4.8170853
50
120.9433603
51
122.3507015
0
ARC
8
DEFAULT_255_2_778_1
10
12.7461038
20
23.1633847
40
3.9829221
50
122.3397244
51
124.1937515
0
ARC
8
DEFAULT_255_2_778_1
10
12.3065747
20
23.8093798
40
3.2015802
50
124.1846593
51
126.4326997
0
ARC
8
DEFAULT_255_2_778_1
10
11.9203674
20
24.3325048
40
2.5513373
50
126.4315193
51
128.8866284
0
ARC
8
DEFAULT_255_2_778_1
10
11.5855558
20
24.7469163
40
2.0185751
50
128.8737413
51
131.8715456
0
ARC
8
DEFAULT_255_2_778_1
10
11.288321
20
25.0780578
40
1.5735995
50
131.8602881
51
135.4159792
0
ARC
8
DEFAULT_255_2_778_1
10
11.0256267
20
25.336144
40
1.2053382
50
135.3881787
51
139.9675704
0
ARC
8
DEFAULT_255_2_778_1
10
10.7927929
20
25.5309514
40
0.9017578
50
139.9292361
51
145.9248399
0
ARC
8
DEFAULT_255_2_778_1
10
10.5965937
20
25.6630002
40
0.6652613
50
145.8774658
51
153.8137102
0
ARC
8
DEFAULT_255_2_778_1
10
10.4445289
20
25.7373584
40
0.4959902
50
153.7699933
51
164.3475994
0
ARC
8
DEFAULT_255_2_778_1
10
10.3431712
20
25.7655709
40
0.3907795
50
164.3211971
51
179.8086094
0
ARC
8
DEFAULT_255_2_778_1
10
10.364224
20
25.7737045
40
0.4118868
50
180.9498805
51
213.8115801
0
ARC
8
DEFAULT_255_2_778_1
10
10.6401277
20
25.9432791
40
0.7355981
50
212.8273456
51
224.258786
0
ARC
8
DEFAULT_255_2_778_1
10
11.0230021
20
26.3126447
40
1.2675939
50
224.1380843
51
231.4510938
0
ARC
8
DEFAULT_255_2_778_1
10
11.6656086
20
27.1155497
40
2.2959891
50
231.3959152
51
236.1261501
0
ARC
8
DEFAULT_255_2_778_1
10
13.4977386
20
29.8618226
40
5.5973037
50
236.2236313
51
239.1319841
0
ARC
8
DEFAULT_255_2_778_1
10
25.44793
20
49.5903296
40
28.6628078
50
238.8610976
51
239.0715198
0
ARC
8
DEFAULT_255_2_778_1
10
6.2759964
20
17.493101
40
8.7244052
50
57.2424849
51
59.4068306
0
ARC
8
DEFAULT_255_2_778_1
10
9.5034336
20
22.5237081
40
2.7475194
50
52.8293541
51
57.0795464
0
ARC
8
DEFAULT_255_2_778_1
10
10.2780944
20
23.5440614
40
1.4664186
50
46.3045833
51
52.860304
0
ARC
8
DEFAULT_255_2_778_1
10
10.7102649
20
23.9941451
40
0.8424453
50
36.2180257
51
46.4093296
0
ARC
8
DEFAULT_255_2_778_1
10
10.994804
20
24.1990061
40
0.4918506
50
17.4004011
51
36.5495579
0
ARC
8
DEFAULT_255_2_778_1
10
11.1088821
20
24.238864
40
0.3710943
50
0.067873
51
16.7952822
0
ARC
8
DEFAULT_255_2_778_1
10
11.0878458
20
24.2407332
40
0.3921328
50
343.8036427
51
359.7911248
0
ARC
8
DEFAULT_255_2_778_1
10
10.9815867
20
24.2712038
40
0.502674
50
333.2506199
51
343.8466729
0
ARC
8
DEFAULT_255_2_778_1
10
10.8277744
20
24.3479168
40
0.6745539
50
325.6600211
51
333.3122631
0
ARC
8
DEFAULT_255_2_778_1
10
10.6323392
20
24.4807073
40
0.9108335
50
319.7561437
51
325.6977425
0
ARC
8
DEFAULT_255_2_778_1
10
10.4042094
20
24.6724727
40
1.2088543
50
315.4577629
51
319.8038562
0
ARC
8
DEFAULT_255_2_778_1
10
10.1408322
20
24.9313077
40
1.578128
50
311.7299879
51
315.4672579
0
ARC
8
DEFAULT_255_2_778_1
10
9.8318145
20
25.2768549
40
2.0416949
50
308.7231184
51
311.7471999
0
ARC
8
DEFAULT_255_2_778_1
10
9.4777678
20
25.7178927
40
2.6072594
50
306.1164816
51
308.7302597
0
ARC
8
DEFAULT_255_2_778_1
10
9.0747329
20
26.2692635
40
3.2902284
50
303.9558771
51
306.1266851
0
ARC
8
DEFAULT_255_2_778_1
10
8.6627948
20
26.879078
40
4.0261398
50
302.373487
51
303.9711747
0
ARC
8
DEFAULT_255_2_778_1
10
8.243509
20
27.5400653
40
4.8088943
50
300.9435453
51
302.3758968
0
LINE
8
DEFAULT_255_2_778
10
10.7161417
20
22.3572581
11
10.7161417
21
5.1593581
0
LINE
8
DEFAULT_255_2_778
10
10.7161417
20
5.1593581
11
9.3932417
21
5.1593581
0
LINE
8
DEFAULT_255_1_234
10
4.9274119
20
52.3866792
11
4.9274119
21
52.2654
0
LINE
8
DEFAULT_255_1_234
10
4.9274119
20
52.2654
11
4.161184
21
52.2654
0
LINE
8
DEFAULT_255_1_234
10
4.161184
20
52.2654
11
4.161184
21
52.3722221
0
LINE
8
DEFAULT_255_1_234
10
4.161184
20
52.3722221
11
4.5659836
21
52.8219995
0
LINE
8
DEFAULT_255_1_234
10
4.2872823
20
53.0902595
11
4.1386952
21
53.0902595
0
LINE
8
DEFAULT_255_1_234
10
4.6535296
20
52.7264218
11
4.3402918
21
52.3866792
0
LINE
8
DEFAULT_255_1_234
10
4.3402918
20
52.3866792
11
4.9274119
21
52.3866792
0
ARC
8
DEFAULT_255_1_234
10
3.216967
20
54.0149527
40
1.8008286
50
318.5132453
51
320.7828378
0
ARC
8
DEFAULT_255_1_234
10
3.7456644
20
53.5846426
40
1.1191493
50
320.7372736
51
323.9737074
0
ARC
8
DEFAULT_255_1_234
10
4.1376501
20
53.3006361
40
0.6350923
50
323.8961724
51
328.6421089
0
ARC
8
DEFAULT_255_1_234
10
4.3423096
20
53.1744031
40
0.3946393
50
328.8299013
51
331.789948
0
ARC
8
DEFAULT_255_1_234
10
4.4420274
20
53.1229509
40
0.2824501
50
331.4255242
51
352.9364833
0
ARC
8
DEFAULT_255_1_234
10
4.4556775
20
53.1198976
40
0.2685315
50
353.2248685
51
0.0169286
0
ARC
8
DEFAULT_255_1_234
10
4.4766652
20
53.122195
40
0.2475536
50
359.4866256
51
15.9339782
0
ARC
8
DEFAULT_255_1_234
10
4.5273637
20
53.1358286
40
0.1950618
50
16.1714718
51
43.5284424
0
ARC
8
DEFAULT_255_1_234
10
4.5350946
20
53.1435573
40
0.184134
50
43.4415429
51
83.1661404
0
ARC
8
DEFAULT_255_1_234
10
4.5216864
20
53.0698771
40
0.258926
50
82.160215
51
90.1505798
0
ARC
8
DEFAULT_255_1_234
10
4.5185291
20
53.0161865
40
0.3126255
50
89.5460705
51
102.5418777
0
ARC
8
DEFAULT_255_1_234
10
4.4942377
20
53.1192665
40
0.2067346
50
102.1739365
51
129.2061916
0
ARC
8
DEFAULT_255_1_234
10
4.4863449
20
53.1317094
40
0.1921118
50
129.7279328
51
135.7542026
0
ARC
8
DEFAULT_255_1_234
10
4.4984977
20
53.1220045
40
0.2075944
50
136.175737
51
166.3674722
0
ARC
8
DEFAULT_255_1_234
10
4.5991896
20
53.0950182
40
0.3118201
50
165.9092917
51
178.8683903
0
ARC
8
DEFAULT_255_1_234
10
4.6856757
20
53.0903179
40
0.3983935
50
178.438168
51
180.0083905
0
ARC
8
DEFAULT_255_1_234
10
4.5455359
20
53.0942231
40
0.4068601
50
163.2878735
51
180.5581814
0
ARC
8
DEFAULT_255_1_234
10
4.4653621
20
53.116284
40
0.3237344
50
133.454115
51
162.9470031
0
ARC
8
DEFAULT_255_1_234
10
4.4832162
20
53.0973
40
0.349795
50
100.7869394
51
133.4384016
0
ARC
8
DEFAULT_255_1_234
10
4.5179934
20
52.9424319
40
0.5084616
50
89.6605301
51
101.3704185
0
ARC
8
DEFAULT_255_1_234
10
4.5246273
20
52.9485496
40
0.502348
50
78.2171172
51
90.4130393
0
ARC
8
DEFAULT_255_1_234
10
4.5601351
20
53.1109637
40
0.3361092
50
55.9268222
51
78.4888551
0
ARC
8
DEFAULT_255_1_234
10
4.5797791
20
53.1448324
40
0.2970617
50
47.9292255
51
55.4054003
0
ARC
8
DEFAULT_255_1_234
10
4.5899352
20
53.1551502
40
0.2825983
50
4.3347696
51
48.0560701
0
ARC
8
DEFAULT_255_1_234
10
4.4803745
20
53.1381601
40
0.393225
50
359.925209
51
5.5967654
0
ARC
8
DEFAULT_255_1_234
10
4.5232637
20
53.1437816
40
0.3503892
50
337.8914096
51
358.9967724
0
ARC
8
DEFAULT_255_1_234
10
4.2519049
20
53.2484706
40
0.6412172
50
326.9135351
51
338.3505194
0
ARC
8
DEFAULT_255_1_234
10
3.8533353
20
53.5039284
40
1.1146189
50
319.6472867
51
327.095818
0
ARC
8
DEFAULT_255_1_234
10
3.4700356
20
53.8201
40
1.6114559
50
317.2586784
51
319.9046139
0
LINE
8
DEFAULT_255_1_234
10
5.7121127
20
53.4348211
11
5.7121127
21
52.658152
0
LINE
8
DEFAULT_255_1_234
10
5.7121127
20
52.658152
11
5.8743538
21
52.658152
0
LINE
8
DEFAULT_255_1_234
10
5.8743538
20
52.658152
11
5.8743538
21
52.5368728
0
LINE
8
DEFAULT_255_1_234
10
5.8743538
20
52.5368728
11
5.7121127
21
52.5368728
0
LINE
8
DEFAULT_255_1_234
10
5.7121127
20
52.5368728
11
5.7121127
21
52.2654
0
LINE
8
DEFAULT_255_1_234
10
5.7121127
20
52.2654
11
5.5627224
21
52.2654
0
LINE
8
DEFAULT_255_1_234
10
5.5627224
20
52.2654
11
5.5627224
21
52.5368728
0
LINE
8
DEFAULT_255_1_234
10
5.5627224
20
52.5368728
11
5.0302181
21
52.5368728
0
LINE
8
DEFAULT_255_1_234
10
5.0302181
20
52.5368728
11
5.0302181
21
52.6244187
0
LINE
8
DEFAULT_255_1_234
10
5.0302181
20
52.6244187
11
5.5538875
21
53.4348211
0
LINE
8
DEFAULT_255_1_234
10
5.5538875
20
53.4348211
11
5.7121127
21
53.4348211
0
LINE
8
DEFAULT_255_1_234
10
5.5450525
20
53.1994912
11
5.1988846
21
52.658152
0
LINE
8
DEFAULT_255_1_234
10
5.1988846
20
52.658152
11
5.5627224
21
52.658152
0
LINE
8
DEFAULT_255_1_234
10
5.5627224
20
52.658152
11
5.5627224
21
53.2316181
0
LINE
8
DEFAULT_255_1_234
10
5.5627224
20
53.2316181
11
5.5450525
21
53.1994912
0
LINE
8
DEFAULT_255_1_234
10
6.101652
20
53.4348211
11
6.434166
21
52.4702093
0
LINE
8
DEFAULT_255_1_234
10
6.434166
20
52.4702093
11
6.7682863
21
53.4348211
0
LINE
8
DEFAULT_255_1_234
10
6.7682863
20
53.4348211
11
6.9369528
21
53.4348211
0
LINE
8
DEFAULT_255_1_234
10
6.9369528
20
53.4348211
11
6.5032389
21
52.2654
0
LINE
8
DEFAULT_255_1_234
10
6.5032389
20
52.2654
11
6.3666994
21
52.2654
0
LINE
8
DEFAULT_255_1_234
10
6.3666994
20
52.2654
11
5.9337887
21
53.4348211
0
LINE
8
DEFAULT_255_1_234
10
5.9337887
20
53.4348211
11
6.101652
21
53.4348211
0
LINE
8
DEFAULT_255_1_234
10
4.5093392
20
4.6404
11
4.1037364
21
4.6404
0
LINE
8
DEFAULT_255_1_234
10
4.1037364
20
4.6404
11
4.1037364
21
5.8098211
0
LINE
8
DEFAULT_255_1_234
10
4.1037364
20
5.8098211
11
4.4860471
21
5.8098211
0
LINE
8
DEFAULT_255_1_234
10
4.5149614
20
5.1873614
11
4.2579458
21
5.1873614
0
LINE
8
DEFAULT_255_1_234
10
4.2579458
20
5.1873614
11
4.2579458
21
4.7664983
0
LINE
8
DEFAULT_255_1_234
10
4.2579458
20
4.7664983
11
4.5125519
21
4.7664983
0
LINE
8
DEFAULT_255_1_234
10
4.2579458
20
5.6829196
11
4.2579458
21
5.3110501
0
LINE
8
DEFAULT_255_1_234
10
4.2579458
20
5.3110501
11
4.4908662
21
5.3110501
0
LINE
8
DEFAULT_255_1_234
10
4.4860471
20
5.6829196
11
4.2579458
21
5.6829196
0
ARC
8
DEFAULT_255_1_234
10
4.489818
20
5.0730901
40
0.7367406
50
82.1257326
51
90.2932599
0
ARC
8
DEFAULT_255_1_234
10
4.5287135
20
5.3449013
40
0.4621653
50
69.9044149
51
82.2857423
0
ARC
8
DEFAULT_255_1_234
10
4.5857813
20
5.4991637
40
0.2976871
50
51.1838526
51
70.0181538
0
ARC
8
DEFAULT_255_1_234
10
4.6112779
20
5.536224
40
0.2528517
50
12.1017251
51
50.4214761
0
ARC
8
DEFAULT_255_1_234
10
4.4728653
20
5.5014676
40
0.3955061
50
359.5251267
51
12.8211707
0
ARC
8
DEFAULT_255_1_234
10
4.6308579
20
5.4945344
40
0.2375281
50
323.4908128
51
0.8817314
0
ARC
8
DEFAULT_255_1_234
10
4.5890266
20
5.526855
40
0.2903817
50
298.6825083
51
323.2756573
0
ARC
8
DEFAULT_255_1_234
10
4.5528629
20
5.5869649
40
0.3604842
50
293.1999386
51
299.1396394
0
ARC
8
DEFAULT_255_1_234
10
4.6201602
20
4.9784126
40
0.2871098
50
54.0011765
51
74.9167975
0
ARC
8
DEFAULT_255_1_234
10
4.6317961
20
4.9981332
40
0.2643248
50
36.3580696
51
53.5291921
0
ARC
8
DEFAULT_255_1_234
10
4.6191203
20
4.9890998
40
0.2798884
50
4.8189881
51
36.3089977
0
ARC
8
DEFAULT_255_1_234
10
4.5412038
20
4.978127
40
0.358478
50
359.9370252
51
5.5204067
0
ARC
8
DEFAULT_255_1_234
10
4.508756
20
4.9740667
40
0.3909429
50
344.7478609
51
0.5373281
0
ARC
8
DEFAULT_255_1_234
10
4.6078531
20
4.9473544
40
0.2883093
50
311.1786488
51
344.6886812
0
ARC
8
DEFAULT_255_1_234
10
4.5786578
20
4.9836987
40
0.3348923
50
286.0418249
51
310.8441291
0
ARC
8
DEFAULT_255_1_234
10
4.527941
20
5.1483807
40
0.5071869
50
274.1042341
51
286.4071509
0
ARC
8
DEFAULT_255_1_234
10
4.5102666
20
5.3367229
40
0.6963234
50
269.9236873
51
274.445647
0
ARC
8
DEFAULT_255_1_234
10
4.5148667
20
5.1027537
40
0.3362634
50
269.6055768
51
281.3740047
0
ARC
8
DEFAULT_255_1_234
10
4.5379305
20
4.9934353
40
0.224546
50
281.1055983
51
302.5132223
0
ARC
8
DEFAULT_255_1_234
10
4.5526204
20
4.9670823
40
0.1944357
50
303.0368945
51
311.8811219
0
ARC
8
DEFAULT_255_1_234
10
4.5597611
20
4.958589
40
0.1833454
50
311.9916004
51
351.7143462
0
ARC
8
DEFAULT_255_1_234
10
4.4780841
20
4.975093
40
0.2665871
50
350.7339597
51
0.2221581
0
ARC
8
DEFAULT_255_1_234
10
4.4673287
20
4.9807467
40
0.2773789
50
359.0456241
51
17.2296242
0
ARC
8
DEFAULT_255_1_234
10
4.5712404
20
5.0116163
40
0.1689915
50
17.6685481
51
78.9940892
0
ARC
8
DEFAULT_255_1_234
10
4.5195568
20
4.8261224
40
0.3612658
50
76.5635957
51
90.6980921
0
LINE
8
DEFAULT_255_1_234
10
4.5151552
20
5.1873613
11
4.5149614
21
5.1873614
0
ARC
8
DEFAULT_255_1_234
10
4.4931228
20
5.6396036
40
0.3285612
50
269.6064736
51
281.4533503
0
ARC
8
DEFAULT_255_1_234
10
4.5154048
20
5.5344688
40
0.2210975
50
281.2041486
51
302.5148063
0
ARC
8
DEFAULT_255_1_234
10
4.5290898
20
5.5098241
40
0.1929674
50
303.021671
51
309.8369575
0
ARC
8
DEFAULT_255_1_234
10
4.5474359
20
5.4892488
40
0.1654181
50
309.5228395
51
356.9509836
0
ARC
8
DEFAULT_255_1_234
10
4.4810942
20
5.4987932
40
0.2322512
50
355.4701227
51
0.0492546
0
ARC
8
DEFAULT_255_1_234
10
4.4532033
20
5.5010094
40
0.2601498
50
359.5558597
51
11.2096359
0
ARC
8
DEFAULT_255_1_234
10
4.5489323
20
5.520823
40
0.1623975
50
10.9182341
51
31.3230275
0
ARC
8
DEFAULT_255_1_234
10
4.5775056
20
5.5367214
40
0.1297302
50
31.8852677
51
52.1412565
0
ARC
8
DEFAULT_255_1_234
10
4.5500789
20
5.497975
40
0.1771663
50
52.8285564
51
71.9850297
0
ARC
8
DEFAULT_255_1_234
10
4.5124965
20
5.3873664
40
0.2939794
50
71.6863486
51
82.8455995
0
ARC
8
DEFAULT_255_1_234
10
4.4885501
20
5.2064149
40
0.476506
50
82.6984714
51
90.1729175
0
ARC
8
DEFAULT_255_1_234
10
4.4863136
20
5.3287623
40
0.3541573
50
89.8708275
51
90.0431131
0
LINE
8
DEFAULT_255_1_234
10
5.8554585
20
4.7616792
11
5.8554585
21
4.6404
0
LINE
8
DEFAULT_255_1_234
10
5.8554585
20
4.6404
11
5.0892307
21
4.6404
0
LINE
8
DEFAULT_255_1_234
10
5.0892307
20
4.6404
11
5.0892307
21
4.7472221
0
LINE
8
DEFAULT_255_1_234
10
5.0892307
20
4.7472221
11
5.4940303
21
5.1969995
0
LINE
8
DEFAULT_255_1_234
10
5.215329
20
5.4652595
11
5.0667418
21
5.4652595
0
LINE
8
DEFAULT_255_1_234
10
5.5815762
20
5.1014218
11
5.2683384
21
4.7616792
0
LINE
8
DEFAULT_255_1_234
10
5.2683384
20
4.7616792
11
5.8554585
21
4.7616792
0
ARC
8
DEFAULT_255_1_234
10
4.1450136
20
6.3899527
40
1.8008286
50
318.5132453
51
320.7828378
0
ARC
8
DEFAULT_255_1_234
10
4.673711
20
5.9596426
40
1.1191493
50
320.7372736
51
323.9737074
0
ARC
8
DEFAULT_255_1_234
10
5.0656967
20
5.6756361
40
0.6350923
50
323.8961724
51
328.6421089
0
ARC
8
DEFAULT_255_1_234
10
5.2703562
20
5.5494031
40
0.3946393
50
328.8299013
51
331.789948
0
ARC
8
DEFAULT_255_1_234
10
5.3700741
20
5.4979509
40
0.2824501
50
331.4255242
51
352.9364833
0
ARC
8
DEFAULT_255_1_234
10
5.3837241
20
5.4948976
40
0.2685315
50
353.2248685
51
0.0169286
0
ARC
8
DEFAULT_255_1_234
10
5.4047118
20
5.497195
40
0.2475536
50
359.4866256
51
15.9339782
0
ARC
8
DEFAULT_255_1_234
10
5.4554104
20
5.5108286
40
0.1950618
50
16.1714718
51
43.5284424
0
ARC
8
DEFAULT_255_1_234
10
5.4631412
20
5.5185573
40
0.184134
50
43.4415429
51
83.1661404
0
ARC
8
DEFAULT_255_1_234
10
5.449733
20
5.4448771
40
0.258926
50
82.160215
51
90.1505798
0
ARC
8
DEFAULT_255_1_234
10
5.4465758
20
5.3911865
40
0.3126255
50
89.5460705
51
102.5418777
0
ARC
8
DEFAULT_255_1_234
10
5.4222844
20
5.4942665
40
0.2067346
50
102.1739365
51
129.2061916
0
ARC
8
DEFAULT_255_1_234
10
5.4143916
20
5.5067094
40
0.1921118
50
129.7279328
51
135.7542026
0
ARC
8
DEFAULT_255_1_234
10
5.4265443
20
5.4970045
40
0.2075944
50
136.175737
51
166.3674722
0
ARC
8
DEFAULT_255_1_234
10
5.5272362
20
5.4700182
40
0.3118201
50
165.9092917
51
178.8683903
0
ARC
8
DEFAULT_255_1_234
10
5.6137224
20
5.4653179
40
0.3983935
50
178.438168
51
180.0083905
0
ARC
8
DEFAULT_255_1_234
10
5.4735826
20
5.4692231
40
0.4068601
50
163.2878735
51
180.5581814
0
ARC
8
DEFAULT_255_1_234
10
5.3934087
20
5.491284
40
0.3237344
50
133.454115
51
162.9470031
0
ARC
8
DEFAULT_255_1_234
10
5.4112629
20
5.4723
40
0.349795
50
100.7869394
51
133.4384016
0
ARC
8
DEFAULT_255_1_234
10
5.44604
20
5.3174319
40
0.5084616
50
89.6605301
51
101.3704185
0
ARC
8
DEFAULT_255_1_234
10
5.4526739
20
5.3235496
40
0.502348
50
78.2171172
51
90.4130393
0
ARC
8
DEFAULT_255_1_234
10
5.4881817
20
5.4859637
40
0.3361092
50
55.9268222
51
78.4888551
0
ARC
8
DEFAULT_255_1_234
10
5.5078257
20
5.5198324
40
0.2970617
50
47.9292255
51
55.4054003
0
ARC
8
DEFAULT_255_1_234
10
5.5179818
20
5.5301502
40
0.2825983
50
4.3347696
51
48.0560701
0
ARC
8
DEFAULT_255_1_234
10
5.4084212
20
5.5131601
40
0.393225
50
359.925209
51
5.5967654
0
ARC
8
DEFAULT_255_1_234
10
5.4513103
20
5.5187816
40
0.3503892
50
337.8914096
51
358.9967724
0
ARC
8
DEFAULT_255_1_234
10
5.1799515
20
5.6234706
40
0.6412172
50
326.9135351
51
338.3505194
0
ARC
8
DEFAULT_255_1_234
10
4.7813819
20
5.8789284
40
1.1146189
50
319.6472867
51
327.095818
0
ARC
8
DEFAULT_255_1_234
10
4.3980822
20
6.1951
40
1.6114559
50
317.2586784
51
319.9046139
0
LINE
8
DEFAULT_255_1_234
10
4.5093392
20
12.5779
11
4.1037364
21
12.5779
0
LINE
8
DEFAULT_255_1_234
10
4.1037364
20
12.5779
11
4.1037364
21
13.7473211
0
LINE
8
DEFAULT_255_1_234
10
4.1037364
20
13.7473211
11
4.4860471
21
13.7473211
0
LINE
8
DEFAULT_255_1_234
10
4.5149614
20
13.1248614
11
4.2579458
21
13.1248614
0
LINE
8
DEFAULT_255_1_234
10
4.2579458
20
13.1248614
11
4.2579458
21
12.7039983
0
LINE
8
DEFAULT_255_1_234
10
4.2579458
20
12.7039983
11
4.5125519
21
12.7039983
0
LINE
8
DEFAULT_255_1_234
10
4.2579458
20
13.6204196
11
4.2579458
21
13.2485501
0
LINE
8
DEFAULT_255_1_234
10
4.2579458
20
13.2485501
11
4.4908662
21
13.2485501
0
LINE
8
DEFAULT_255_1_234
10
4.4860471
20
13.6204196
11
4.2579458
21
13.6204196
0
ARC
8
DEFAULT_255_1_234
10
4.489818
20
13.0105901
40
0.7367406
50
82.1257326
51
90.2932599
0
ARC
8
DEFAULT_255_1_234
10
4.5287135
20
13.2824013
40
0.4621653
50
69.9044149
51
82.2857423
0
ARC
8
DEFAULT_255_1_234
10
4.5857813
20
13.4366637
40
0.2976871
50
51.1838526
51
70.0181538
0
ARC
8
DEFAULT_255_1_234
10
4.6112779
20
13.473724
40
0.2528517
50
12.1017251
51
50.4214761
0
ARC
8
DEFAULT_255_1_234
10
4.4728653
20
13.4389676
40
0.3955061
50
359.5251267
51
12.8211707
0
ARC
8
DEFAULT_255_1_234
10
4.6308579
20
13.4320344
40
0.2375281
50
323.4908128
51
0.8817314
0
ARC
8
DEFAULT_255_1_234
10
4.5890266
20
13.464355
40
0.2903817
50
298.6825083
51
323.2756573
0
ARC
8
DEFAULT_255_1_234
10
4.5528629
20
13.5244649
40
0.3604842
50
293.1999386
51
299.1396394
0
ARC
8
DEFAULT_255_1_234
10
4.6201602
20
12.9159126
40
0.2871098
50
54.0011765
51
74.9167975
0
ARC
8
DEFAULT_255_1_234
10
4.6317961
20
12.9356332
40
0.2643248
50
36.3580696
51
53.5291921
0
ARC
8
DEFAULT_255_1_234
10
4.6191203
20
12.9265998
40
0.2798884
50
4.8189881
51
36.3089977
0
ARC
8
DEFAULT_255_1_234
10
4.5412038
20
12.915627
40
0.358478
50
359.9370252
51
5.5204067
0
ARC
8
DEFAULT_255_1_234
10
4.508756
20
12.9115667
40
0.3909429
50
344.7478609
51
0.5373281
0
ARC
8
DEFAULT_255_1_234
10
4.6078531
20
12.8848544
40
0.2883093
50
311.1786488
51
344.6886812
0
ARC
8
DEFAULT_255_1_234
10
4.5786578
20
12.9211987
40
0.3348923
50
286.0418249
51
310.8441291
0
ARC
8
DEFAULT_255_1_234
10
4.527941
20
13.0858807
40
0.5071869
50
274.1042341
51
286.4071509
0
ARC
8
DEFAULT_255_1_234
10
4.5102666
20
13.2742229
40
0.6963234
50
269.9236873
51
274.445647
0
ARC
8
DEFAULT_255_1_234
10
4.5148667
20
13.0402537
40
0.3362634
50
269.6055768
51
281.3740047
0
ARC
8
DEFAULT_255_1_234
10
4.5379305
20
12.9309353
40
0.224546
50
281.1055983
51
302.5132223
0
ARC
8
DEFAULT_255_1_234
10
4.5526204
20
12.9045823
40
0.1944357
50
303.0368945
51
311.8811219
0
ARC
8
DEFAULT_255_1_234
10
4.5597611
20
12.896089
40
0.1833454
50
311.9916004
51
351.7143462
0
ARC
8
DEFAULT_255_1_234
10
4.4780841
20
12.912593
40
0.2665871
50
350.7339597
51
0.2221581
0
ARC
8
DEFAULT_255_1_234
10
4.4673287
20
12.9182467
40
0.2773789
50
359.0456241
51
17.2296242
0
ARC
8
DEFAULT_255_1_234
10
4.5712404
20
12.9491163
40
0.1689915
50
17.6685481
51
78.9940892
0
ARC
8
DEFAULT_255_1_234
10
4.5195568
20
12.7636224
40
0.3612658
50
76.5635957
51
90.6980921
0
LINE
8
DEFAULT_255_1_234
10
4.5151552
20
13.1248613
11
4.5149614
21
13.1248614
0
ARC
8
DEFAULT_255_1_234
10
4.4931228
20
13.5771036
40
0.3285612
50
269.6064736
51
281.4533503
0
ARC
8
DEFAULT_255_1_234
10
4.5154048
20
13.4719688
40
0.2210975
50
281.2041486
51
302.5148063
0
ARC
8
DEFAULT_255_1_234
10
4.5290898
20
13.4473241
40
0.1929674
50
303.021671
51
309.8369575
0
ARC
8
DEFAULT_255_1_234
10
4.5474359
20
13.4267488
40
0.1654181
50
309.5228395
51
356.9509836
0
ARC
8
DEFAULT_255_1_234
10
4.4810942
20
13.4362932
40
0.2322512
50
355.4701227
51
0.0492546
0
ARC
8
DEFAULT_255_1_234
10
4.4532033
20
13.4385094
40
0.2601498
50
359.5558597
51
11.2096359
0
ARC
8
DEFAULT_255_1_234
10
4.5489323
20
13.458323
40
0.1623975
50
10.9182341
51
31.3230275
0
ARC
8
DEFAULT_255_1_234
10
4.5775056
20
13.4742214
40
0.1297302
50
31.8852677
51
52.1412565
0
ARC
8
DEFAULT_255_1_234
10
4.5500789
20
13.435475
40
0.1771663
50
52.8285564
51
71.9850297
0
ARC
8
DEFAULT_255_1_234
10
4.5124965
20
13.3248664
40
0.2939794
50
71.6863486
51
82.8455995
0
ARC
8
DEFAULT_255_1_234
10
4.4885501
20
13.1439149
40
0.476506
50
82.6984714
51
90.1729175
0
ARC
8
DEFAULT_255_1_234
10
4.4863136
20
13.2662623
40
0.3541573
50
89.8708275
51
90.0431131
0
LINE
8
DEFAULT_255_1_234
10
5.8554585
20
12.6991792
11
5.8554585
21
12.5779
0
LINE
8
DEFAULT_255_1_234
10
5.8554585
20
12.5779
11
5.0892307
21
12.5779
0
LINE
8
DEFAULT_255_1_234
10
5.0892307
20
12.5779
11
5.0892307
21
12.6847221
0
LINE
8
DEFAULT_255_1_234
10
5.0892307
20
12.6847221
11
5.4940303
21
13.1344995
0
LINE
8
DEFAULT_255_1_234
10
5.215329
20
13.4027595
11
5.0667418
21
13.4027595
0
LINE
8
DEFAULT_255_1_234
10
5.5815762
20
13.0389218
11
5.2683384
21
12.6991792
0
LINE
8
DEFAULT_255_1_234
10
5.2683384
20
12.6991792
11
5.8554585
21
12.6991792
0
ARC
8
DEFAULT_255_1_234
10
4.1450136
20
14.3274527
40
1.8008286
50
318.5132453
51
320.7828378
0
ARC
8
DEFAULT_255_1_234
10
4.673711
20
13.8971426
40
1.1191493
50
320.7372736
51
323.9737074
0
ARC
8
DEFAULT_255_1_234
10
5.0656967
20
13.6131361
40
0.6350923
50
323.8961724
51
328.6421089
0
ARC
8
DEFAULT_255_1_234
10
5.2703562
20
13.4869031
40
0.3946393
50
328.8299013
51
331.789948
0
ARC
8
DEFAULT_255_1_234
10
5.3700741
20
13.4354509
40
0.2824501
50
331.4255242
51
352.9364833
0
ARC
8
DEFAULT_255_1_234
10
5.3837241
20
13.4323976
40
0.2685315
50
353.2248685
51
0.0169286
0
ARC
8
DEFAULT_255_1_234
10
5.4047118
20
13.434695
40
0.2475536
50
359.4866256
51
15.9339782
0
ARC
8
DEFAULT_255_1_234
10
5.4554104
20
13.4483286
40
0.1950618
50
16.1714718
51
43.5284424
0
ARC
8
DEFAULT_255_1_234
10
5.4631412
20
13.4560573
40
0.184134
50
43.4415429
51
83.1661404
0
ARC
8
DEFAULT_255_1_234
10
5.449733
20
13.3823771
40
0.258926
50
82.160215
51
90.1505798
0
ARC
8
DEFAULT_255_1_234
10
5.4465758
20
13.3286865
40
0.3126255
50
89.5460705
51
102.5418777
0
ARC
8
DEFAULT_255_1_234
10
5.4222844
20
13.4317665
40
0.2067346
50
102.1739365
51
129.2061916
0
ARC
8
DEFAULT_255_1_234
10
5.4143916
20
13.4442094
40
0.1921118
50
129.7279328
51
135.7542026
0
ARC
8
DEFAULT_255_1_234
10
5.4265443
20
13.4345045
40
0.2075944
50
136.175737
51
166.3674722
0
ARC
8
DEFAULT_255_1_234
10
5.5272362
20
13.4075182
40
0.3118201
50
165.9092917
51
178.8683903
0
ARC
8
DEFAULT_255_1_234
10
5.6137224
20
13.4028179
40
0.3983935
50
178.438168
51
180.0083905
0
ARC
8
DEFAULT_255_1_234
10
5.4735826
20
13.4067231
40
0.4068601
50
163.2878735
51
180.5581814
0
ARC
8
DEFAULT_255_1_234
10
5.3934087
20
13.428784
40
0.3237344
50
133.454115
51
162.9470031
0
ARC
8
DEFAULT_255_1_234
10
5.4112629
20
13.4098
40
0.349795
50
100.7869394
51
133.4384016
0
ARC
8
DEFAULT_255_1_234
10
5.44604
20
13.2549319
40
0.5084616
50
89.6605301
51
101.3704185
0
ARC
8
DEFAULT_255_1_234
10
5.4526739
20
13.2610496
40
0.502348
50
78.2171172
51
90.4130393
0
ARC
8
DEFAULT_255_1_234
10
5.4881817
20
13.4234637
40
0.3361092
50
55.9268222
51
78.4888551
0
ARC
8
DEFAULT_255_1_234
10
5.5078257
20
13.4573324
40
0.2970617
50
47.9292255
51
55.4054003
0
ARC
8
DEFAULT_255_1_234
10
5.5179818
20
13.4676502
40
0.2825983
50
4.3347696
51
48.0560701
0
ARC
8
DEFAULT_255_1_234
10
5.4084212
20
13.4506601
40
0.393225
50
359.925209
51
5.5967654
0
ARC
8
DEFAULT_255_1_234
10
5.4513103
20
13.4562816
40
0.3503892
50
337.8914096
51
358.9967724
0
ARC
8
DEFAULT_255_1_234
10
5.1799515
20
13.5609706
40
0.6412172
50
326.9135351
51
338.3505194
0
ARC
8
DEFAULT_255_1_234
10
4.7813819
20
13.8164284
40
1.1146189
50
319.6472867
51
327.095818
0
ARC
8
DEFAULT_255_1_234
10
4.3980822
20
14.1326
40
1.6114559
50
317.2586784
51
319.9046139
0
LINE
8
DEFAULT_255_1_234
10
4.9697293
20
20.5154
11
4.8580881
21
20.8206061
0
LINE
8
DEFAULT_255_1_234
10
4.8580881
20
20.8206061
11
4.3681521
21
20.8206061
0
LINE
8
DEFAULT_255_1_234
10
4.3681521
20
20.8206061
11
4.2581173
21
20.5154
0
LINE
8
DEFAULT_255_1_234
10
4.2581173
20
20.5154
11
4.0990889
21
20.5154
0
LINE
8
DEFAULT_255_1_234
10
4.0990889
20
20.5154
11
4.5456535
21
21.6848211
0
LINE
8
DEFAULT_255_1_234
10
4.5456535
20
21.6848211
11
4.6805867
21
21.6848211
0
LINE
8
DEFAULT_255_1_234
10
4.6805867
20
21.6848211
11
5.1279545
21
20.5154
0
LINE
8
DEFAULT_255_1_234
10
5.1279545
20
20.5154
11
4.9697293
21
20.5154
0
LINE
8
DEFAULT_255_1_234
10
4.6131201
20
21.4944689
11
4.4147362
21
20.9475075
0
LINE
8
DEFAULT_255_1_234
10
4.4147362
20
20.9475075
11
4.8123072
21
20.9475075
0
LINE
8
DEFAULT_255_1_234
10
4.8123072
20
20.9475075
11
4.6131201
21
21.4944689
0
LINE
8
DEFAULT_255_1_234
10
6.0130521
20
20.6366792
11
6.0130521
21
20.5154
0
LINE
8
DEFAULT_255_1_234
10
6.0130521
20
20.5154
11
5.2468243
21
20.5154
0
LINE
8
DEFAULT_255_1_234
10
5.2468243
20
20.5154
11
5.2468243
21
20.6222221
0
LINE
8
DEFAULT_255_1_234
10
5.2468243
20
20.6222221
11
5.6516239
21
21.0719995
0
LINE
8
DEFAULT_255_1_234
10
5.3729226
20
21.3402595
11
5.2243354
21
21.3402595
0
LINE
8
DEFAULT_255_1_234
10
5.7391698
20
20.9764218
11
5.425932
21
20.6366792
0
LINE
8
DEFAULT_255_1_234
10
5.425932
20
20.6366792
11
6.0130521
21
20.6366792
0
ARC
8
DEFAULT_255_1_234
10
4.3026072
20
22.2649527
40
1.8008286
50
318.5132453
51
320.7828378
0
ARC
8
DEFAULT_255_1_234
10
4.8313047
20
21.8346426
40
1.1191493
50
320.7372736
51
323.9737074
0
ARC
8
DEFAULT_255_1_234
10
5.2232903
20
21.5506361
40
0.6350923
50
323.8961724
51
328.6421089
0
ARC
8
DEFAULT_255_1_234
10
5.4279498
20
21.4244031
40
0.3946393
50
328.8299013
51
331.789948
0
ARC
8
DEFAULT_255_1_234
10
5.5276677
20
21.3729509
40
0.2824501
50
331.4255242
51
352.9364833
0
ARC
8
DEFAULT_255_1_234
10
5.5413177
20
21.3698976
40
0.2685315
50
353.2248685
51
0.0169286
0
ARC
8
DEFAULT_255_1_234
10
5.5623054
20
21.372195
40
0.2475536
50
359.4866256
51
15.9339782
0
ARC
8
DEFAULT_255_1_234
10
5.613004
20
21.3858286
40
0.1950618
50
16.1714718
51
43.5284424
0
ARC
8
DEFAULT_255_1_234
10
5.6207348
20
21.3935573
40
0.184134
50
43.4415429
51
83.1661404
0
ARC
8
DEFAULT_255_1_234
10
5.6073266
20
21.3198771
40
0.258926
50
82.160215
51
90.1505798
0
ARC
8
DEFAULT_255_1_234
10
5.6041694
20
21.2661865
40
0.3126255
50
89.5460705
51
102.5418777
0
ARC
8
DEFAULT_255_1_234
10
5.579878
20
21.3692665
40
0.2067346
50
102.1739365
51
129.2061916
0
ARC
8
DEFAULT_255_1_234
10
5.5719852
20
21.3817094
40
0.1921118
50
129.7279328
51
135.7542026
0
ARC
8
DEFAULT_255_1_234
10
5.5841379
20
21.3720045
40
0.2075944
50
136.175737
51
166.3674722
0
ARC
8
DEFAULT_255_1_234
10
5.6848298
20
21.3450182
40
0.3118201
50
165.9092917
51
178.8683903
0
ARC
8
DEFAULT_255_1_234
10
5.771316
20
21.3403179
40
0.3983935
50
178.438168
51
180.0083905
0
ARC
8
DEFAULT_255_1_234
10
5.6311762
20
21.3442231
40
0.4068601
50
163.2878735
51
180.5581814
0
ARC
8
DEFAULT_255_1_234
10
5.5510023
20
21.366284
40
0.3237344
50
133.454115
51
162.9470031
0
ARC
8
DEFAULT_255_1_234
10
5.5688565
20
21.3473
40
0.349795
50
100.7869394
51
133.4384016
0
ARC
8
DEFAULT_255_1_234
10
5.6036336
20
21.1924319
40
0.5084616
50
89.6605301
51
101.3704185
0
ARC
8
DEFAULT_255_1_234
10
5.6102675
20
21.1985496
40
0.502348
50
78.2171172
51
90.4130393
0
ARC
8
DEFAULT_255_1_234
10
5.6457753
20
21.3609637
40
0.3361092
50
55.9268222
51
78.4888551
0
ARC
8
DEFAULT_255_1_234
10
5.6654193
20
21.3948324
40
0.2970617
50
47.9292255
51
55.4054003
0
ARC
8
DEFAULT_255_1_234
10
5.6755754
20
21.4051502
40
0.2825983
50
4.3347696
51
48.0560701
0
ARC
8
DEFAULT_255_1_234
10
5.5660148
20
21.3881601
40
0.393225
50
359.925209
51
5.5967654
0
ARC
8
DEFAULT_255_1_234
10
5.6089039
20
21.3937816
40
0.3503892
50
337.8914096
51
358.9967724
0
ARC
8
DEFAULT_255_1_234
10
5.3375451
20
21.4984706
40
0.6412172
50
326.9135351
51
338.3505194
0
ARC
8
DEFAULT_255_1_234
10
4.9389755
20
21.7539284
40
1.1146189
50
319.6472867
51
327.095818
0
ARC
8
DEFAULT_255_1_234
10
4.5556758
20
22.0701
40
1.6114559
50
317.2586784
51
319.9046139
0
LINE
8
DEFAULT_255_1_234
10
4.5017392
20
28.4529
11
4.0961364
21
28.4529
0
LINE
8
DEFAULT_255_1_234
10
4.0961364
20
28.4529
11
4.0961364
21
29.6223211
0
LINE
8
DEFAULT_255_1_234
10
4.0961364
20
29.6223211
11
4.4784471
21
29.6223211
0
LINE
8
DEFAULT_255_1_234
10
4.5073614
20
28.9998614
11
4.2503458
21
28.9998614
0
LINE
8
DEFAULT_255_1_234
10
4.2503458
20
28.9998614
11
4.2503458
21
28.5789983
0
LINE
8
DEFAULT_255_1_234
10
4.2503458
20
28.5789983
11
4.5049519
21
28.5789983
0
LINE
8
DEFAULT_255_1_234
10
4.2503458
20
29.4954196
11
4.2503458
21
29.1235501
0
LINE
8
DEFAULT_255_1_234
10
4.2503458
20
29.1235501
11
4.4832662
21
29.1235501
0
LINE
8
DEFAULT_255_1_234
10
4.4784471
20
29.4954196
11
4.2503458
21
29.4954196
0
ARC
8
DEFAULT_255_1_234
10
4.482218
20
28.8855901
40
0.7367406
50
82.1257326
51
90.2932599
0
ARC
8
DEFAULT_255_1_234
10
4.5211135
20
29.1574013
40
0.4621653
50
69.9044149
51
82.2857423
0
ARC
8
DEFAULT_255_1_234
10
4.5781813
20
29.3116637
40
0.2976871
50
51.1838526
51
70.0181538
0
ARC
8
DEFAULT_255_1_234
10
4.6036779
20
29.348724
40
0.2528517
50
12.1017251
51
50.4214761
0
ARC
8
DEFAULT_255_1_234
10
4.4652653
20
29.3139676
40
0.3955061
50
359.5251267
51
12.8211707
0
ARC
8
DEFAULT_255_1_234
10
4.6232579
20
29.3070344
40
0.2375281
50
323.4908128
51
0.8817314
0
ARC
8
DEFAULT_255_1_234
10
4.5814266
20
29.339355
40
0.2903817
50
298.6825083
51
323.2756573
0
ARC
8
DEFAULT_255_1_234
10
4.5452629
20
29.3994649
40
0.3604842
50
293.1999386
51
299.1396394
0
ARC
8
DEFAULT_255_1_234
10
4.6125602
20
28.7909126
40
0.2871098
50
54.0011765
51
74.9167975
0
ARC
8
DEFAULT_255_1_234
10
4.6241961
20
28.8106332
40
0.2643248
50
36.3580696
51
53.5291921
0
ARC
8
DEFAULT_255_1_234
10
4.6115203
20
28.8015998
40
0.2798884
50
4.8189881
51
36.3089977
0
ARC
8
DEFAULT_255_1_234
10
4.5336038
20
28.790627
40
0.358478
50
359.9370252
51
5.5204067
0
ARC
8
DEFAULT_255_1_234
10
4.501156
20
28.7865667
40
0.3909429
50
344.7478609
51
0.5373281
0
ARC
8
DEFAULT_255_1_234
10
4.6002531
20
28.7598544
40
0.2883093
50
311.1786488
51
344.6886812
0
ARC
8
DEFAULT_255_1_234
10
4.5710578
20
28.7961987
40
0.3348923
50
286.0418249
51
310.8441291
0
ARC
8
DEFAULT_255_1_234
10
4.520341
20
28.9608807
40
0.5071869
50
274.1042341
51
286.4071509
0
ARC
8
DEFAULT_255_1_234
10
4.5026666
20
29.1492229
40
0.6963234
50
269.9236873
51
274.445647
0
ARC
8
DEFAULT_255_1_234
10
4.5072667
20
28.9152537
40
0.3362634
50
269.6055768
51
281.3740047
0
ARC
8
DEFAULT_255_1_234
10
4.5303305
20
28.8059353
40
0.224546
50
281.1055983
51
302.5132223
0
ARC
8
DEFAULT_255_1_234
10
4.5450204
20
28.7795823
40
0.1944357
50
303.0368945
51
311.8811219
0
ARC
8
DEFAULT_255_1_234
10
4.5521611
20
28.771089
40
0.1833454
50
311.9916004
51
351.7143462
0
ARC
8
DEFAULT_255_1_234
10
4.4704841
20
28.787593
40
0.2665871
50
350.7339597
51
0.2221581
0
ARC
8
DEFAULT_255_1_234
10
4.4597287
20
28.7932467
40
0.2773789
50
359.0456241
51
17.2296242
0
ARC
8
DEFAULT_255_1_234
10
4.5636404
20
28.8241163
40
0.1689915
50
17.6685481
51
78.9940892
0
ARC
8
DEFAULT_255_1_234
10
4.5119568
20
28.6386224
40
0.3612658
50
76.5635957
51
90.6980921
0
LINE
8
DEFAULT_255_1_234
10
4.5075552
20
28.9998613
11
4.5073614
21
28.9998614
0
ARC
8
DEFAULT_255_1_234
10
4.4855228
20
29.4521036
40
0.3285612
50
269.6064736
51
281.4533503
0
ARC
8
DEFAULT_255_1_234
10
4.5078048
20
29.3469688
40
0.2210975
50
281.2041486
51
302.5148063
0
ARC
8
DEFAULT_255_1_234
10
4.5214898
20
29.3223241
40
0.1929674
50
303.021671
51
309.8369575
0
ARC
8
DEFAULT_255_1_234
10
4.5398359
20
29.3017488
40
0.1654181
50
309.5228395
51
356.9509836
0
ARC
8
DEFAULT_255_1_234
10
4.4734942
20
29.3112932
40
0.2322512
50
355.4701227
51
0.0492546
0
ARC
8
DEFAULT_255_1_234
10
4.4456033
20
29.3135094
40
0.2601498
50
359.5558597
51
11.2096359
0
ARC
8
DEFAULT_255_1_234
10
4.5413323
20
29.333323
40
0.1623975
50
10.9182341
51
31.3230275
0
ARC
8
DEFAULT_255_1_234
10
4.5699056
20
29.3492214
40
0.1297302
50
31.8852677
51
52.1412565
0
ARC
8
DEFAULT_255_1_234
10
4.5424789
20
29.310475
40
0.1771663
50
52.8285564
51
71.9850297
0
ARC
8
DEFAULT_255_1_234
10
4.5048965
20
29.1998664
40
0.2939794
50
71.6863486
51
82.8455995
0
ARC
8
DEFAULT_255_1_234
10
4.4809501
20
29.0189149
40
0.476506
50
82.6984714
51
90.1729175
0
ARC
8
DEFAULT_255_1_234
10
4.4787136
20
29.1412623
40
0.3541573
50
89.8708275
51
90.0431131
0
LINE
8
DEFAULT_255_1_234
10
5.5699604
20
29.6279433
11
5.5699604
21
28.4529
0
LINE
8
DEFAULT_255_1_234
10
5.5699604
20
28.4529
11
5.42057
21
28.4529
0
LINE
8
DEFAULT_255_1_234
10
5.42057
20
28.4529
11
5.42057
21
29.4432133
0
LINE
8
DEFAULT_255_1_234
10
5.42057
20
29.4432133
11
5.1209862
21
29.3331785
0
LINE
8
DEFAULT_255_1_234
10
5.1209862
20
29.3331785
11
5.1209862
21
29.4681117
0
LINE
8
DEFAULT_255_1_234
10
5.1209862
20
29.4681117
11
5.5466683
21
29.6279433
0
LINE
8
DEFAULT_255_1_234
10
5.5466683
20
29.6279433
11
5.5699604
21
29.6279433
0
LINE
8
DEFAULT_255_1_234
10
4.5017392
20
36.3904
11
4.0961364
21
36.3904
0
LINE
8
DEFAULT_255_1_234
10
4.0961364
20
36.3904
11
4.0961364
21
37.5598211
0
LINE
8
DEFAULT_255_1_234
10
4.0961364
20
37.5598211
11
4.4784471
21
37.5598211
0
LINE
8
DEFAULT_255_1_234
10
4.5073614
20
36.9373614
11
4.2503458
21
36.9373614
0
LINE
8
DEFAULT_255_1_234
10
4.2503458
20
36.9373614
11
4.2503458
21
36.5164983
0
LINE
8
DEFAULT_255_1_234
10
4.2503458
20
36.5164983
11
4.5049519
21
36.5164983
0
LINE
8
DEFAULT_255_1_234
10
4.2503458
20
37.4329196
11
4.2503458
21
37.0610501
0
LINE
8
DEFAULT_255_1_234
10
4.2503458
20
37.0610501
11
4.4832662
21
37.0610501
0
LINE
8
DEFAULT_255_1_234
10
4.4784471
20
37.4329196
11
4.2503458
21
37.4329196
0
ARC
8
DEFAULT_255_1_234
10
4.482218
20
36.8230901
40
0.7367406
50
82.1257326
51
90.2932599
0
ARC
8
DEFAULT_255_1_234
10
4.5211135
20
37.0949013
40
0.4621653
50
69.9044149
51
82.2857423
0
ARC
8
DEFAULT_255_1_234
10
4.5781813
20
37.2491637
40
0.2976871
50
51.1838526
51
70.0181538
0
ARC
8
DEFAULT_255_1_234
10
4.6036779
20
37.286224
40
0.2528517
50
12.1017251
51
50.4214761
0
ARC
8
DEFAULT_255_1_234
10
4.4652653
20
37.2514676
40
0.3955061
50
359.5251267
51
12.8211707
0
ARC
8
DEFAULT_255_1_234
10
4.6232579
20
37.2445344
40
0.2375281
50
323.4908128
51
0.8817314
0
ARC
8
DEFAULT_255_1_234
10
4.5814266
20
37.276855
40
0.2903817
50
298.6825083
51
323.2756573
0
ARC
8
DEFAULT_255_1_234
10
4.5452629
20
37.3369649
40
0.3604842
50
293.1999386
51
299.1396394
0
ARC
8
DEFAULT_255_1_234
10
4.6125602
20
36.7284126
40
0.2871098
50
54.0011765
51
74.9167975
0
ARC
8
DEFAULT_255_1_234
10
4.6241961
20
36.7481332
40
0.2643248
50
36.3580696
51
53.5291921
0
ARC
8
DEFAULT_255_1_234
10
4.6115203
20
36.7390998
40
0.2798884
50
4.8189881
51
36.3089977
0
ARC
8
DEFAULT_255_1_234
10
4.5336038
20
36.728127
40
0.358478
50
359.9370252
51
5.5204067
0
ARC
8
DEFAULT_255_1_234
10
4.501156
20
36.7240667
40
0.3909429
50
344.7478609
51
0.5373281
0
ARC
8
DEFAULT_255_1_234
10
4.6002531
20
36.6973544
40
0.2883093
50
311.1786488
51
344.6886812
0
ARC
8
DEFAULT_255_1_234
10
4.5710578
20
36.7336987
40
0.3348923
50
286.0418249
51
310.8441291
0
ARC
8
DEFAULT_255_1_234
10
4.520341
20
36.8983807
40
0.5071869
50
274.1042341
51
286.4071509
0
ARC
8
DEFAULT_255_1_234
10
4.5026666
20
37.0867229
40
0.6963234
50
269.9236873
51
274.445647
0
ARC
8
DEFAULT_255_1_234
10
4.5072667
20
36.8527537
40
0.3362634
50
269.6055768
51
281.3740047
0
ARC
8
DEFAULT_255_1_234
10
4.5303305
20
36.7434353
40
0.224546
50
281.1055983
51
302.5132223
0
ARC
8
DEFAULT_255_1_234
10
4.5450204
20
36.7170823
40
0.1944357
50
303.0368945
51
311.8811219
0
ARC
8
DEFAULT_255_1_234
10
4.5521611
20
36.708589
40
0.1833454
50
311.9916004
51
351.7143462
0
ARC
8
DEFAULT_255_1_234
10
4.4704841
20
36.725093
40
0.2665871
50
350.7339597
51
0.2221581
0
ARC
8
DEFAULT_255_1_234
10
4.4597287
20
36.7307467
40
0.2773789
50
359.0456241
51
17.2296242
0
ARC
8
DEFAULT_255_1_234
10
4.5636404
20
36.7616163
40
0.1689915
50
17.6685481
51
78.9940892
0
ARC
8
DEFAULT_255_1_234
10
4.5119568
20
36.5761224
40
0.3612658
50
76.5635957
51
90.6980921
0
LINE
8
DEFAULT_255_1_234
10
4.5075552
20
36.9373613
11
4.5073614
21
36.9373614
0
ARC
8
DEFAULT_255_1_234
10
4.4855228
20
37.3896036
40
0.3285612
50
269.6064736
51
281.4533503
0
ARC
8
DEFAULT_255_1_234
10
4.5078048
20
37.2844688
40
0.2210975
50
281.2041486
51
302.5148063
0
ARC
8
DEFAULT_255_1_234
10
4.5214898
20
37.2598241
40
0.1929674
50
303.021671
51
309.8369575
0
ARC
8
DEFAULT_255_1_234
10
4.5398359
20
37.2392488
40
0.1654181
50
309.5228395
51
356.9509836
0
ARC
8
DEFAULT_255_1_234
10
4.4734942
20
37.2487932
40
0.2322512
50
355.4701227
51
0.0492546
0
ARC
8
DEFAULT_255_1_234
10
4.4456033
20
37.2510094
40
0.2601498
50
359.5558597
51
11.2096359
0
ARC
8
DEFAULT_255_1_234
10
4.5413323
20
37.270823
40
0.1623975
50
10.9182341
51
31.3230275
0
ARC
8
DEFAULT_255_1_234
10
4.5699056
20
37.2867214
40
0.1297302
50
31.8852677
51
52.1412565
0
ARC
8
DEFAULT_255_1_234
10
4.5424789
20
37.247975
40
0.1771663
50
52.8285564
51
71.9850297
0
ARC
8
DEFAULT_255_1_234
10
4.5048965
20
37.1373664
40
0.2939794
50
71.6863486
51
82.8455995
0
ARC
8
DEFAULT_255_1_234
10
4.4809501
20
36.9564149
40
0.476506
50
82.6984714
51
90.1729175
0
ARC
8
DEFAULT_255_1_234
10
4.4787136
20
37.0787623
40
0.3541573
50
89.8708275
51
90.0431131
0
LINE
8
DEFAULT_255_1_234
10
5.5699604
20
37.5654433
11
5.5699604
21
36.3904
0
LINE
8
DEFAULT_255_1_234
10
5.5699604
20
36.3904
11
5.42057
21
36.3904
0
LINE
8
DEFAULT_255_1_234
10
5.42057
20
36.3904
11
5.42057
21
37.3807133
0
LINE
8
DEFAULT_255_1_234
10
5.42057
20
37.3807133
11
5.1209862
21
37.2706785
0
LINE
8
DEFAULT_255_1_234
10
5.1209862
20
37.2706785
11
5.1209862
21
37.4056117
0
LINE
8
DEFAULT_255_1_234
10
5.1209862
20
37.4056117
11
5.5466683
21
37.5654433
0
LINE
8
DEFAULT_255_1_234
10
5.5466683
20
37.5654433
11
5.5699604
21
37.5654433
0
LINE
8
DEFAULT_255_1_234
10
4.9610293
20
44.3279
11
4.8493881
21
44.6331061
0
LINE
8
DEFAULT_255_1_234
10
4.8493881
20
44.6331061
11
4.3594521
21
44.6331061
0
LINE
8
DEFAULT_255_1_234
10
4.3594521
20
44.6331061
11
4.2494173
21
44.3279
0
LINE
8
DEFAULT_255_1_234
10
4.2494173
20
44.3279
11
4.0903889
21
44.3279
0
LINE
8
DEFAULT_255_1_234
10
4.0903889
20
44.3279
11
4.5369535
21
45.4973211
0
LINE
8
DEFAULT_255_1_234
10
4.5369535
20
45.4973211
11
4.6718867
21
45.4973211
0
LINE
8
DEFAULT_255_1_234
10
4.6718867
20
45.4973211
11
5.1192545
21
44.3279
0
LINE
8
DEFAULT_255_1_234
10
5.1192545
20
44.3279
11
4.9610293
21
44.3279
0
LINE
8
DEFAULT_255_1_234
10
4.6044201
20
45.3069689
11
4.4060362
21
44.7600075
0
LINE
8
DEFAULT_255_1_234
10
4.4060362
20
44.7600075
11
4.8036072
21
44.7600075
0
LINE
8
DEFAULT_255_1_234
10
4.8036072
20
44.7600075
11
4.6044201
21
45.3069689
0
LINE
8
DEFAULT_255_1_234
10
5.726454
20
45.5029433
11
5.726454
21
44.3279
0
LINE
8
DEFAULT_255_1_234
10
5.726454
20
44.3279
11
5.5770636
21
44.3279
0
LINE
8
DEFAULT_255_1_234
10
5.5770636
20
44.3279
11
5.5770636
21
45.3182133
0
LINE
8
DEFAULT_255_1_234
10
5.5770636
20
45.3182133
11
5.2774798
21
45.2081785
0
LINE
8
DEFAULT_255_1_234
10
5.2774798
20
45.2081785
11
5.2774798
21
45.3431117
0
LINE
8
DEFAULT_255_1_234
10
5.2774798
20
45.3431117
11
5.7031619
21
45.5029433
0
LINE
8
DEFAULT_255_1_234
10
5.7031619
20
45.5029433
11
5.726454
21
45.5029433
0
LINE
8
DEFAULT_255_1_234
10
23.1660817
20
52.9569327
11
23.1660817
21
52.7641709
0
LINE
8
DEFAULT_255_1_234
10
22.427965
20
52.7440916
11
22.427965
21
52.9424755
0
LINE
8
DEFAULT_255_1_234
10
23.0174946
20
52.7240123
11
23.0174946
21
52.9673739
0
LINE
8
DEFAULT_255_1_234
10
22.5765521
20
52.9786184
11
22.5765521
21
52.7408789
0
ARC
8
DEFAULT_255_1_234
10
21.9413707
20
52.7592805
40
1.2247208
50
353.8441951
51
0.2287902
0
ARC
8
DEFAULT_255_1_234
10
22.4053211
20
52.7074806
40
0.7578929
50
344.4934747
51
353.9765454
0
ARC
8
DEFAULT_255_1_234
10
22.7045801
20
52.6223981
40
0.4467846
50
329.2803592
51
344.7472793
0
ARC
8
DEFAULT_255_1_234
10
22.8038626
20
52.5679018
40
0.3336173
50
324.9352394
51
328.6160465
0
ARC
8
DEFAULT_255_1_234
10
22.8415734
20
52.5415427
40
0.2876076
50
280.580143
51
324.9173126
0
ARC
8
DEFAULT_255_1_234
10
22.8014527
20
52.7086099
40
0.4592847
50
269.5977311
51
281.6734359
0
ARC
8
DEFAULT_255_1_234
10
22.7942433
20
52.6966173
40
0.4472986
50
256.6228859
51
270.51044
0
ARC
8
DEFAULT_255_1_234
10
22.754041
20
52.5417877
40
0.2873874
50
215.8618325
51
257.2788573
0
ARC
8
DEFAULT_255_1_234
10
22.8561442
20
52.6102977
40
0.4102928
50
197.9693508
51
215.2623606
0
ARC
8
DEFAULT_255_1_234
10
23.1046558
20
52.6941709
40
0.6725652
50
187.8816417
51
198.2346507
0
ARC
8
DEFAULT_255_1_234
10
23.5004766
20
52.7513079
40
1.0724845
50
180.8976217
51
188.0055519
0
ARC
8
DEFAULT_255_1_234
10
23.7804954
20
52.7616777
40
1.3526448
50
180.7449369
51
181.1510016
0
ARC
8
DEFAULT_255_1_234
10
23.6227683
20
52.9473042
40
1.1948131
50
173.7675579
51
180.231553
0
ARC
8
DEFAULT_255_1_234
10
23.170983
20
52.9983666
40
0.7401564
50
164.3058563
51
173.9002247
0
ARC
8
DEFAULT_255_1_234
10
22.8797899
20
53.0822656
40
0.4371288
50
148.7922025
51
164.568378
0
ARC
8
DEFAULT_255_1_234
10
22.7846351
20
53.1353929
40
0.3282386
50
144.5883898
51
148.1176286
0
ARC
8
DEFAULT_255_1_234
10
22.7503249
20
53.1593315
40
0.2864044
50
101.6440918
51
144.514236
0
ARC
8
DEFAULT_255_1_234
10
22.7928315
20
52.9904069
40
0.4604934
50
89.5284041
51
102.5819763
0
ARC
8
DEFAULT_255_1_234
10
22.8007403
20
52.9865018
40
0.464401
50
77.0437873
51
90.5081339
0
ARC
8
DEFAULT_255_1_234
10
22.8409405
20
53.1507615
40
0.2953195
50
48.2778575
51
77.4994676
0
ARC
8
DEFAULT_255_1_234
10
22.8482036
20
53.1636746
40
0.2808655
50
36.3142134
51
47.6305865
0
ARC
8
DEFAULT_255_1_234
10
22.7613343
20
53.1051515
40
0.3855453
50
18.2931786
51
35.6769206
0
ARC
8
DEFAULT_255_1_234
10
22.5070102
20
53.0178593
40
0.654423
50
8.024666
51
18.5605216
0
ARC
8
DEFAULT_255_1_234
10
22.0907022
20
52.9563792
40
1.0752407
50
1.1274072
51
8.1718305
0
ARC
8
DEFAULT_255_1_234
10
21.7671213
20
52.9436885
40
1.3990231
50
0.5424119
51
1.3863029
0
ARC
8
DEFAULT_255_1_234
10
21.949259
20
52.9709342
40
1.0682415
50
359.8090433
51
4.9407866
0
ARC
8
DEFAULT_255_1_234
10
22.3702604
20
53.0085113
40
0.6455691
50
4.8362157
51
12.2904523
0
ARC
8
DEFAULT_255_1_234
10
22.6457719
20
53.0698965
40
0.3633074
50
12.0805627
51
23.8173984
0
ARC
8
DEFAULT_255_1_234
10
22.7631425
20
53.1195919
40
0.2358723
50
24.2871213
51
31.3935614
0
ARC
8
DEFAULT_255_1_234
10
22.8156122
20
53.1539233
40
0.1732111
50
30.7407893
51
82.4657128
0
ARC
8
DEFAULT_255_1_234
10
22.7976256
20
53.0655691
40
0.263235
50
81.1060089
51
90.2184952
0
ARC
8
DEFAULT_255_1_234
10
22.7940555
20
53.0913924
40
0.2374236
50
89.3806855
51
105.6762551
0
ARC
8
DEFAULT_255_1_234
10
22.7757186
20
53.1580567
40
0.1682847
50
105.7981136
51
149.7388061
0
ARC
8
DEFAULT_255_1_234
10
22.8821264
20
53.094095
40
0.2924306
50
149.4208916
51
163.6286378
0
ARC
8
DEFAULT_255_1_234
10
23.0912152
20
53.030325
40
0.5110213
50
163.3763315
51
172.1410975
0
ARC
8
DEFAULT_255_1_234
10
23.4212871
20
52.9830518
40
0.8444586
50
172.0259487
51
178.0703232
0
ARC
8
DEFAULT_255_1_234
10
23.724296
20
52.9686906
40
1.1477868
50
177.8631668
51
179.5044149
0
ARC
8
DEFAULT_255_1_234
10
23.6170365
20
52.7372389
40
1.0404907
50
179.7995573
51
185.2460446
0
ARC
8
DEFAULT_255_1_234
10
23.2127404
20
52.6989513
40
0.6343885
50
185.1411642
51
193.0079639
0
ARC
8
DEFAULT_255_1_234
10
22.9483877
20
52.6364641
40
0.3627568
50
192.7897626
51
205.2507664
0
ARC
8
DEFAULT_255_1_234
10
22.8437424
20
52.5897415
40
0.2481908
50
205.8005384
51
211.2537509
0
ARC
8
DEFAULT_255_1_234
10
22.7913864
20
52.554658
40
0.1852521
50
210.3789793
51
238.4008143
0
ARC
8
DEFAULT_255_1_234
10
22.7894386
20
52.5593376
40
0.1882621
50
239.6520629
51
265.9793761
0
ARC
8
DEFAULT_255_1_234
10
22.7979586
20
52.6265427
40
0.2559272
50
265.1315437
51
270.060332
0
ARC
8
DEFAULT_255_1_234
10
22.8008365
20
52.5941534
40
0.2235528
50
269.3314664
51
287.2178029
0
ARC
8
DEFAULT_255_1_234
10
22.8146217
20
52.5438279
40
0.1714108
50
287.7958004
51
329.080874
0
ARC
8
DEFAULT_255_1_234
10
22.7188674
20
52.603593
40
0.2842745
50
328.6634704
51
343.3325132
0
ARC
8
DEFAULT_255_1_234
10
22.5015694
20
52.6712863
40
0.5118644
50
343.0499468
51
351.9393422
0
ARC
8
DEFAULT_255_1_234
10
22.1548994
20
52.7223949
40
0.8622784
50
351.8069023
51
357.7959224
0
ARC
8
DEFAULT_255_1_234
10
21.831355
20
52.7391721
40
1.1862365
50
357.5871873
51
359.2677531
0
LINE
8
DEFAULT_255_1_234
10
23.4496021
20
53.4348211
11
23.7821161
21
52.4702093
0
LINE
8
DEFAULT_255_1_234
10
23.7821161
20
52.4702093
11
24.1162364
21
53.4348211
0
LINE
8
DEFAULT_255_1_234
10
24.1162364
20
53.4348211
11
24.2849029
21
53.4348211
0
LINE
8
DEFAULT_255_1_234
10
24.2849029
20
53.4348211
11
23.851189
21
52.2654
0
LINE
8
DEFAULT_255_1_234
10
23.851189
20
52.2654
11
23.7146495
21
52.2654
0
LINE
8
DEFAULT_255_1_234
10
23.7146495
20
52.2654
11
23.2817388
21
53.4348211
0
LINE
8
DEFAULT_255_1_234
10
23.2817388
20
53.4348211
11
23.4496021
21
53.4348211
0
ENDSEC
0
EOF