0
SECTION
2
HEADER
9
$MEASUREMENT
70
1
0
ENDSEC
0
SECTION
2
TABLES
0
TABLE
2
LTYPE
0
LTYPE
72
65
70
64
2
CONTINUOUS
3
______
73
0
40
0
0
ENDTAB
0
TABLE
2
LAYER
0
LAYER
2
DEFAULT_255_2_778
70
0
62
255
6
CONTINUOUS
0
LAYER
2
DEFAULT_255_1_234
70
0
62
255
6
CONTINUOUS
0
LAYER
2
DEFAULT_255_2_778_1
70
0
62
255
6
CONTINUOUS
0
ENDTAB
0
ENDSEC
0
SECTION
2
ENTITIES
0
ARC
8
DEFAULT_255_2_778
10
3.5700693
20
59.9302032
40
0.7914215
50
129.1312896
51
180.1450914
0
ARC
8
DEFAULT_255_2_778
10
3.5703345
20
59.9306904
40
0.7912112
50
89.854026
51
129.1684493
0
ARC
8
DEFAULT_255_2_778
10
25.7993937
20
59.9303769
40
0.7915249
50
39.4792447
51
90.147911
0
ARC
8
DEFAULT_255_2_778
10
25.7999935
20
59.9302236
40
0.7911595
50
359.8533901
51
39.5154338
0
ARC
8
DEFAULT_255_2_778
10
25.7996693
20
-1.986349
40
0.7914836
50
309.4761667
51
0.1482649
0
ARC
8
DEFAULT_255_2_778
10
25.799398
20
-1.9867801
40
0.7913235
50
269.8517415
51
309.511178
0
ARC
8
DEFAULT_255_2_778
10
3.570342
20
-1.9867219
40
0.7913815
50
219.1282118
51
270.1454017
0
ARC
8
DEFAULT_255_2_778
10
3.5700247
20
-1.9863394
40
0.7913769
50
179.8524075
51
219.1641908
0
LINE
8
DEFAULT_255_2_778
10
3.5723503
20
60.7218991
11
25.7973503
21
60.7218991
0
LINE
8
DEFAULT_255_2_778
10
26.5911503
20
59.9281991
11
26.5911503
21
-1.9843009
0
LINE
8
DEFAULT_255_2_778
10
25.7973503
20
-2.7781009
11
3.5723503
21
-2.7781009
0
LINE
8
DEFAULT_255_2_778
10
2.7786503
20
-1.9843009
11
2.7786503
21
59.9281991
0
LINE
8
DEFAULT_255_1_234
10
11.0540879
20
0.5181211
11
11.0540879
21
-0.6513
0
LINE
8
DEFAULT_255_1_234
10
11.0540879
20
-0.6513
11
10.8990753
21
-0.6513
0
LINE
8
DEFAULT_255_1_234
10
10.8990753
20
-0.6513
11
10.3103489
21
0.249861
0
LINE
8
DEFAULT_255_1_234
10
10.3103489
20
0.249861
11
10.3103489
21
-0.6513
0
LINE
8
DEFAULT_255_1_234
10
10.3103489
20
-0.6513
11
10.1553364
21
-0.6513
0
LINE
8
DEFAULT_255_1_234
10
10.1553364
20
-0.6513
11
10.1553364
21
0.5181211
0
LINE
8
DEFAULT_255_1_234
10
10.1553364
20
0.5181211
11
10.3103489
21
0.5181211
0
LINE
8
DEFAULT_255_1_234
10
10.3103489
20
0.5181211
11
10.9006817
21
-0.3870558
0
LINE
8
DEFAULT_255_1_234
10
10.9006817
20
-0.3870558
11
10.9006817
21
0.5181211
0
LINE
8
DEFAULT_255_1_234
10
10.9006817
20
0.5181211
11
11.0540879
21
0.5181211
0
LINE
8
DEFAULT_255_1_234
10
11.4412177
20
0.5181211
11
11.7231317
21
0.0699501
0
LINE
8
DEFAULT_255_1_234
10
11.7231317
20
0.0699501
11
12.0034394
21
0.5181211
0
LINE
8
DEFAULT_255_1_234
10
12.0034394
20
0.5181211
11
12.1849566
21
0.5181211
0
LINE
8
DEFAULT_255_1_234
10
12.1849566
20
0.5181211
11
11.8154967
21
-0.0617704
0
LINE
8
DEFAULT_255_1_234
10
11.8154967
20
-0.0617704
11
12.1937916
21
-0.6513
0
LINE
8
DEFAULT_255_1_234
10
12.1937916
20
-0.6513
11
12.0106679
21
-0.6513
0
LINE
8
DEFAULT_255_1_234
10
12.0106679
20
-0.6513
11
11.7231317
21
-0.1950973
0
LINE
8
DEFAULT_255_1_234
10
11.7231317
20
-0.1950973
11
11.4339891
21
-0.6513
0
LINE
8
DEFAULT_255_1_234
10
11.4339891
20
-0.6513
11
11.2516687
21
-0.6513
0
LINE
8
DEFAULT_255_1_234
10
11.2516687
20
-0.6513
11
11.6307667
21
-0.0617704
0
LINE
8
DEFAULT_255_1_234
10
11.6307667
20
-0.0617704
11
11.2605036
21
0.5181211
0
LINE
8
DEFAULT_255_1_234
10
11.2605036
20
0.5181211
11
11.4412177
21
0.5181211
0
LINE
8
DEFAULT_255_1_234
10
12.6218832
20
-0.0938974
11
12.6218832
21
-0.2151766
0
LINE
8
DEFAULT_255_1_234
10
12.6218832
20
-0.2151766
11
12.2299344
21
-0.2151766
0
LINE
8
DEFAULT_255_1_234
10
12.2299344
20
-0.2151766
11
12.2299344
21
-0.0938974
0
LINE
8
DEFAULT_255_1_234
10
12.2299344
20
-0.0938974
11
12.6218832
21
-0.0938974
0
LINE
8
DEFAULT_255_1_234
10
13.5977394
20
0.5181211
11
13.5977394
21
0.3912196
0
LINE
8
DEFAULT_255_1_234
10
13.5977394
20
0.3912196
11
13.2218541
21
0.3912196
0
LINE
8
DEFAULT_255_1_234
10
13.2218541
20
0.3912196
11
13.2218541
21
-0.6513
0
LINE
8
DEFAULT_255_1_234
10
13.2218541
20
-0.6513
11
13.0684479
21
-0.6513
0
LINE
8
DEFAULT_255_1_234
10
13.0684479
20
-0.6513
11
13.0684479
21
0.3912196
0
LINE
8
DEFAULT_255_1_234
10
13.0684479
20
0.3912196
11
12.6933657
21
0.3912196
0
LINE
8
DEFAULT_255_1_234
10
12.6933657
20
0.3912196
11
12.6933657
21
0.5181211
0
LINE
8
DEFAULT_255_1_234
10
12.6933657
20
0.5181211
11
13.5977394
21
0.5181211
0
LINE
8
DEFAULT_255_1_234
10
14.5342401
20
0.1799849
11
14.3792275
21
0.1799849
0
LINE
8
DEFAULT_255_1_234
10
13.6868917
20
-0.3123606
11
13.8419042
21
-0.3123606
0
ARC
8
DEFAULT_255_1_234
10
14.4451088
20
1.0746768
40
1.252368
50
248.9199003
51
254.1439814
0
ARC
8
DEFAULT_255_1_234
10
14.2770583
20
0.6420234
40
0.788226
50
241.633709
51
249.0064503
0
ARC
8
DEFAULT_255_1_234
10
14.1241977
20
0.3619317
40
0.4691427
50
230.498225
51
241.8087113
0
ARC
8
DEFAULT_255_1_234
10
14.0457552
20
0.2619906
40
0.3421437
50
227.4064532
51
229.9881192
0
ARC
8
DEFAULT_255_1_234
10
13.9970072
20
0.2144088
40
0.2741476
50
200.6781896
51
228.1763934
0
ARC
8
DEFAULT_255_1_234
10
14.0042383
20
0.2129077
40
0.2804109
50
179.5061581
51
199.8694617
0
ARC
8
DEFAULT_255_1_234
10
14.0033135
20
0.220321
40
0.2795204
50
132.4834203
51
181.0242172
0
ARC
8
DEFAULT_255_1_234
10
14.0628717
20
0.1640704
40
0.3612768
50
129.2532479
51
133.4242687
0
ARC
8
DEFAULT_255_1_234
10
14.0775167
20
0.1420965
40
0.3875675
50
101.98776
51
128.8742646
0
ARC
8
DEFAULT_255_1_234
10
14.1173777
20
-0.0300259
40
0.5642249
50
89.5906553
51
102.3169264
0
ARC
8
DEFAULT_255_1_234
10
14.1244269
20
0.0018148
40
0.5323783
50
77.2360837
51
90.3248275
0
ARC
8
DEFAULT_255_1_234
10
14.1451349
20
0.09854
40
0.4334697
50
63.837784
51
77.0809408
0
ARC
8
DEFAULT_255_1_234
10
14.172911
20
0.1502911
40
0.3747796
50
45.9864267
51
64.1607727
0
ARC
8
DEFAULT_255_1_234
10
14.1989991
20
0.1800866
40
0.3352302
50
32.2747395
51
45.6547121
0
ARC
8
DEFAULT_255_1_234
10
14.2056432
20
0.181988
40
0.328603
50
359.6507365
51
32.6130309
0
ARC
8
DEFAULT_255_1_234
10
14.1113527
20
0.182466
40
0.2678863
50
359.469343
51
14.9832209
0
ARC
8
DEFAULT_255_1_234
10
14.181859
20
0.2013539
40
0.1948938
50
14.9781179
51
48.2004265
0
ARC
8
DEFAULT_255_1_234
10
14.1654234
20
0.1806983
40
0.2212521
50
48.5927837
51
74.1241538
0
ARC
8
DEFAULT_255_1_234
10
14.1320724
20
0.0706248
40
0.3362561
50
73.7888341
51
86.6652678
0
ARC
8
DEFAULT_255_1_234
10
14.1218289
20
-0.0501119
40
0.4573953
50
86.2640471
51
90.0526343
0
ARC
8
DEFAULT_255_1_234
10
14.1190002
20
-0.0105808
40
0.4178709
50
89.6697524
51
99.2309573
0
ARC
8
DEFAULT_255_1_234
10
14.0947453
20
0.1338964
40
0.2713749
50
99.069534
51
113.7658566
0
ARC
8
DEFAULT_255_1_234
10
14.0673644
20
0.1984677
40
0.2012469
50
114.0401004
51
127.9850673
0
ARC
8
DEFAULT_255_1_234
10
14.0433208
20
0.228073
40
0.1631167
50
127.7287463
51
176.7105154
0
ARC
8
DEFAULT_255_1_234
10
14.1111925
20
0.2179693
40
0.2315392
50
175.1779447
51
180.0581938
0
ARC
8
DEFAULT_255_1_234
10
14.0268772
20
0.2167428
40
0.1472271
50
179.6142195
51
228.1246017
0
ARC
8
DEFAULT_255_1_234
10
14.0710441
20
0.2576308
40
0.2072299
50
226.5779593
51
230.8800004
0
ARC
8
DEFAULT_255_1_234
10
14.1181519
20
0.3201636
40
0.2854818
50
231.4635071
51
241.9260842
0
ARC
8
DEFAULT_255_1_234
10
14.2378697
20
0.54048
40
0.53622
50
241.7178533
51
248.3259551
0
ARC
8
DEFAULT_255_1_234
10
14.3764069
20
0.8837064
40
0.9063478
50
248.2007737
51
252.4528373
0
ARC
8
DEFAULT_255_1_234
10
14.4967794
20
1.2558441
40
1.2974635
50
252.3391078
51
254.3469452
0
ARC
8
DEFAULT_255_1_234
10
13.7425497
20
-1.4418852
40
1.5037162
50
71.0197183
51
74.4087047
0
ARC
8
DEFAULT_255_1_234
10
13.9120182
20
-0.9526889
40
0.9859993
50
66.1847285
51
71.086374
0
ARC
8
DEFAULT_255_1_234
10
14.0676494
20
-0.60228
40
0.6025855
50
59.3536294
51
66.2691831
0
ARC
8
DEFAULT_255_1_234
10
14.1565147
20
-0.4519391
40
0.4279449
50
49.1020879
51
59.3293958
0
ARC
8
DEFAULT_255_1_234
10
14.2383887
20
-0.3586166
40
0.3038015
50
32.7919921
51
49.2505539
0
ARC
8
DEFAULT_255_1_234
10
14.2704977
20
-0.3357809
40
0.264448
50
31.1181161
51
32.4005348
0
ARC
8
DEFAULT_255_1_234
10
14.2616514
20
-0.3393221
40
0.2738556
50
8.1116974
51
30.7958831
0
ARC
8
DEFAULT_255_1_234
10
14.1806182
20
-0.3531247
40
0.3560327
50
359.8389159
51
8.4706516
0
ARC
8
DEFAULT_255_1_234
10
14.2431974
20
-0.3579863
40
0.2934776
50
337.4731098
51
0.7537279
0
ARC
8
DEFAULT_255_1_234
10
14.2610669
20
-0.3599613
40
0.2762607
50
307.5917067
51
336.4315538
0
ARC
8
DEFAULT_255_1_234
10
14.2150497
20
-0.3086898
40
0.3449979
50
307.6551545
51
308.4529766
0
ARC
8
DEFAULT_255_1_234
10
14.1920215
20
-0.273175
40
0.3871988
50
284.3734338
51
307.1424381
0
ARC
8
DEFAULT_255_1_234
10
14.1425046
20
-0.0910068
40
0.5759636
50
272.4382747
51
284.646547
0
ARC
8
DEFAULT_255_1_234
10
14.1298254
20
0.0889893
40
0.7563528
50
269.9708387
51
272.8178037
0
ARC
8
DEFAULT_255_1_234
10
14.1255294
20
-0.1148284
40
0.5525489
50
248.2707594
51
270.4055579
0
ARC
8
DEFAULT_255_1_234
10
14.1201035
20
-0.1338808
40
0.5328452
50
246.1383403
51
248.0542782
0
ARC
8
DEFAULT_255_1_234
10
14.0782414
20
-0.2218157
40
0.4355005
50
233.1670131
51
246.4950969
0
ARC
8
DEFAULT_255_1_234
10
14.0228319
20
-0.2966188
40
0.3424126
50
215.3403242
51
233.0843104
0
ARC
8
DEFAULT_255_1_234
10
13.995575
20
-0.3164451
40
0.3087104
50
179.2419209
51
215.2648451
0
ARC
8
DEFAULT_255_1_234
10
14.0723344
20
-0.3150334
40
0.2304457
50
179.335461
51
199.1045811
0
ARC
8
DEFAULT_255_1_234
10
14.0391021
20
-0.3237234
40
0.1962176
50
199.8828939
51
232.7063202
0
ARC
8
DEFAULT_255_1_234
10
14.0863289
20
-0.2643212
40
0.2720938
50
232.3738199
51
255.5136649
0
ARC
8
DEFAULT_255_1_234
10
14.1204156
20
-0.1399165
40
0.4010747
50
255.2446292
51
267.5320849
0
ARC
8
DEFAULT_255_1_234
10
14.1291779
20
-0.0166298
40
0.5246356
50
267.1557994
51
270.0286766
0
ARC
8
DEFAULT_255_1_234
10
14.1319551
20
-0.061005
40
0.4802668
50
269.7000017
51
278.1660162
0
ARC
8
DEFAULT_255_1_234
10
14.1575556
20
-0.2340485
40
0.3053425
50
278.0231263
51
290.625471
0
ARC
8
DEFAULT_255_1_234
10
14.1923243
20
-0.3267975
40
0.206291
50
290.6619762
51
307.0370976
0
ARC
8
DEFAULT_255_1_234
10
14.2223632
20
-0.3636496
40
0.1587906
50
306.3943566
51
355.3030547
0
ARC
8
DEFAULT_255_1_234
10
14.1711564
20
-0.3559887
40
0.2104809
50
354.3660432
51
0.0698737
0
ARC
8
DEFAULT_255_1_234
10
14.1853909
20
-0.3537383
40
0.1962563
50
359.417946
51
16.1971788
0
ARC
8
DEFAULT_255_1_234
10
14.2309219
20
-0.3412582
40
0.149053
50
16.4723299
51
52.6262157
0
ARC
8
DEFAULT_255_1_234
10
14.1488273
20
-0.4496567
40
0.2850296
50
52.7386432
51
62.4979148
0
ARC
8
DEFAULT_255_1_234
10
14.010335
20
-0.7102717
40
0.5801521
50
62.2515216
51
68.1220564
0
ARC
8
DEFAULT_255_1_234
10
13.8383261
20
-1.1330128
40
1.0365451
50
68.0062803
51
71.8053402
0
ARC
8
DEFAULT_255_1_234
10
13.6587633
20
-1.6715242
40
1.6042013
50
71.7183119
51
73.9258742
0
LINE
8
DEFAULT_255_1_234
10
15.4619059
20
-0.5300208
11
15.4619059
21
-0.6513
0
LINE
8
DEFAULT_255_1_234
10
15.4619059
20
-0.6513
11
14.695678
21
-0.6513
0
LINE
8
DEFAULT_255_1_234
10
14.695678
20
-0.6513
11
14.695678
21
-0.5444779
0
LINE
8
DEFAULT_255_1_234
10
14.695678
20
-0.5444779
11
15.1004776
21
-0.0947005
0
LINE
8
DEFAULT_255_1_234
10
14.8217763
20
0.1735595
11
14.6731892
21
0.1735595
0
LINE
8
DEFAULT_255_1_234
10
15.1880236
20
-0.1902782
11
14.8747858
21
-0.5300208
0
LINE
8
DEFAULT_255_1_234
10
14.8747858
20
-0.5300208
11
15.4619059
21
-0.5300208
0
ARC
8
DEFAULT_255_1_234
10
13.751461
20
1.0982527
40
1.8008286
50
318.5132453
51
320.7828378
0
ARC
8
DEFAULT_255_1_234
10
14.2801584
20
0.6679426
40
1.1191493
50
320.7372736
51
323.9737074
0
ARC
8
DEFAULT_255_1_234
10
14.672144
20
0.3839361
40
0.6350923
50
323.8961724
51
328.6421089
0
ARC
8
DEFAULT_255_1_234
10
14.8768036
20
0.2577031
40
0.3946393
50
328.8299013
51
331.789948
0
ARC
8
DEFAULT_255_1_234
10
14.9765214
20
0.2062509
40
0.2824501
50
331.4255242
51
352.9364833
0
ARC
8
DEFAULT_255_1_234
10
14.9901715
20
0.2031976
40
0.2685315
50
353.2248685
51
0.0169286
0
ARC
8
DEFAULT_255_1_234
10
15.0111592
20
0.205495
40
0.2475536
50
359.4866256
51
15.9339782
0
ARC
8
DEFAULT_255_1_234
10
15.0618577
20
0.2191286
40
0.1950618
50
16.1714718
51
43.5284424
0
ARC
8
DEFAULT_255_1_234
10
15.0695886
20
0.2268573
40
0.184134
50
43.4415429
51
83.1661404
0
ARC
8
DEFAULT_255_1_234
10
15.0561804
20
0.1531771
40
0.258926
50
82.160215
51
90.1505798
0
ARC
8
DEFAULT_255_1_234
10
15.0530231
20
0.0994865
40
0.3126255
50
89.5460705
51
102.5418777
0
ARC
8
DEFAULT_255_1_234
10
15.0287317
20
0.2025665
40
0.2067346
50
102.1739365
51
129.2061916
0
ARC
8
DEFAULT_255_1_234
10
15.0208389
20
0.2150094
40
0.1921118
50
129.7279328
51
135.7542026
0
ARC
8
DEFAULT_255_1_234
10
15.0329917
20
0.2053045
40
0.2075944
50
136.175737
51
166.3674722
0
ARC
8
DEFAULT_255_1_234
10
15.1336836
20
0.1783182
40
0.3118201
50
165.9092917
51
178.8683903
0
ARC
8
DEFAULT_255_1_234
10
15.2201697
20
0.1736179
40
0.3983935
50
178.438168
51
180.0083905
0
ARC
8
DEFAULT_255_1_234
10
15.0800299
20
0.1775231
40
0.4068601
50
163.2878735
51
180.5581814
0
ARC
8
DEFAULT_255_1_234
10
14.9998561
20
0.199584
40
0.3237344
50
133.454115
51
162.9470031
0
ARC
8
DEFAULT_255_1_234
10
15.0177102
20
0.1806
40
0.349795
50
100.7869394
51
133.4384016
0
ARC
8
DEFAULT_255_1_234
10
15.0524874
20
0.0257319
40
0.5084616
50
89.6605301
51
101.3704185
0
ARC
8
DEFAULT_255_1_234
10
15.0591212
20
0.0318496
40
0.502348
50
78.2171172
51
90.4130393
0
ARC
8
DEFAULT_255_1_234
10
15.0946291
20
0.1942637
40
0.3361092
50
55.9268222
51
78.4888551
0
ARC
8
DEFAULT_255_1_234
10
15.1142731
20
0.2281324
40
0.2970617
50
47.9292255
51
55.4054003
0
ARC
8
DEFAULT_255_1_234
10
15.1244291
20
0.2384502
40
0.2825983
50
4.3347696
51
48.0560701
0
ARC
8
DEFAULT_255_1_234
10
15.0148685
20
0.2214601
40
0.393225
50
359.925209
51
5.5967654
0
ARC
8
DEFAULT_255_1_234
10
15.0577577
20
0.2270816
40
0.3503892
50
337.8914096
51
358.9967724
0
ARC
8
DEFAULT_255_1_234
10
14.7863989
20
0.3317706
40
0.6412172
50
326.9135351
51
338.3505194
0
ARC
8
DEFAULT_255_1_234
10
14.3878293
20
0.5872284
40
1.1146189
50
319.6472867
51
327.095818
0
ARC
8
DEFAULT_255_1_234
10
14.0045296
20
0.9034
40
1.6114559
50
317.2586784
51
319.9046139
0
LINE
8
DEFAULT_255_1_234
10
16.1076576
20
0.5237433
11
16.1076576
21
-0.6513
0
LINE
8
DEFAULT_255_1_234
10
16.1076576
20
-0.6513
11
15.9582673
21
-0.6513
0
LINE
8
DEFAULT_255_1_234
10
15.9582673
20
-0.6513
11
15.9582673
21
0.3390133
0
LINE
8
DEFAULT_255_1_234
10
15.9582673
20
0.3390133
11
15.6586834
21
0.2289785
0
LINE
8
DEFAULT_255_1_234
10
15.6586834
20
0.2289785
11
15.6586834
21
0.3639117
0
LINE
8
DEFAULT_255_1_234
10
15.6586834
20
0.3639117
11
16.0843656
21
0.5237433
0
LINE
8
DEFAULT_255_1_234
10
16.0843656
20
0.5237433
11
16.1076576
21
0.5237433
0
LINE
8
DEFAULT_255_1_234
10
17.2762755
20
0.0402327
11
17.2762755
21
-0.1525291
0
LINE
8
DEFAULT_255_1_234
10
16.5381588
20
-0.1726084
11
16.5381588
21
0.0257755
0
LINE
8
DEFAULT_255_1_234
10
17.1276884
20
-0.1926877
11
17.1276884
21
0.0506739
0
LINE
8
DEFAULT_255_1_234
10
16.6867459
20
0.0619184
11
16.6867459
21
-0.1758211
0
ARC
8
DEFAULT_255_1_234
10
16.0515645
20
-0.1574195
40
1.2247208
50
353.8441951
51
0.2287902
0
ARC
8
DEFAULT_255_1_234
10
16.5155149
20
-0.2092194
40
0.7578929
50
344.4934747
51
353.9765454
0
ARC
8
DEFAULT_255_1_234
10
16.8147739
20
-0.2943019
40
0.4467846
50
329.2803592
51
344.7472793
0
ARC
8
DEFAULT_255_1_234
10
16.9140564
20
-0.3487982
40
0.3336173
50
324.9352394
51
328.6160465
0
ARC
8
DEFAULT_255_1_234
10
16.9517672
20
-0.3751573
40
0.2876076
50
280.580143
51
324.9173126
0
ARC
8
DEFAULT_255_1_234
10
16.9116465
20
-0.2080901
40
0.4592847
50
269.5977311
51
281.6734359
0
ARC
8
DEFAULT_255_1_234
10
16.9044371
20
-0.2200827
40
0.4472986
50
256.6228859
51
270.51044
0
ARC
8
DEFAULT_255_1_234
10
16.8642348
20
-0.3749123
40
0.2873874
50
215.8618325
51
257.2788573
0
ARC
8
DEFAULT_255_1_234
10
16.966338
20
-0.3064023
40
0.4102928
50
197.9693508
51
215.2623606
0
ARC
8
DEFAULT_255_1_234
10
17.2148496
20
-0.2225291
40
0.6725652
50
187.8816417
51
198.2346507
0
ARC
8
DEFAULT_255_1_234
10
17.6106704
20
-0.1653921
40
1.0724845
50
180.8976217
51
188.0055519
0
ARC
8
DEFAULT_255_1_234
10
17.8906892
20
-0.1550223
40
1.3526448
50
180.7449369
51
181.1510016
0
ARC
8
DEFAULT_255_1_234
10
17.7329621
20
0.0306042
40
1.1948131
50
173.7675579
51
180.231553
0
ARC
8
DEFAULT_255_1_234
10
17.2811768
20
0.0816666
40
0.7401564
50
164.3058563
51
173.9002247
0
ARC
8
DEFAULT_255_1_234
10
16.9899837
20
0.1655656
40
0.4371288
50
148.7922025
51
164.568378
0
ARC
8
DEFAULT_255_1_234
10
16.8948289
20
0.2186929
40
0.3282386
50
144.5883898
51
148.1176286
0
ARC
8
DEFAULT_255_1_234
10
16.8605187
20
0.2426315
40
0.2864044
50
101.6440918
51
144.514236
0
ARC
8
DEFAULT_255_1_234
10
16.9030253
20
0.0737069
40
0.4604934
50
89.5284041
51
102.5819763
0
ARC
8
DEFAULT_255_1_234
10
16.9109341
20
0.0698018
40
0.464401
50
77.0437873
51
90.5081339
0
ARC
8
DEFAULT_255_1_234
10
16.9511343
20
0.2340615
40
0.2953195
50
48.2778575
51
77.4994676
0
ARC
8
DEFAULT_255_1_234
10
16.9583974
20
0.2469746
40
0.2808655
50
36.3142134
51
47.6305865
0
ARC
8
DEFAULT_255_1_234
10
16.8715281
20
0.1884515
40
0.3855453
50
18.2931786
51
35.6769206
0
ARC
8
DEFAULT_255_1_234
10
16.617204
20
0.1011593
40
0.654423
50
8.024666
51
18.5605216
0
ARC
8
DEFAULT_255_1_234
10
16.200896
20
0.0396792
40
1.0752407
50
1.1274072
51
8.1718305
0
ARC
8
DEFAULT_255_1_234
10
15.8773151
20
0.0269885
40
1.3990231
50
0.5424119
51
1.3863029
0
ARC
8
DEFAULT_255_1_234
10
16.0594528
20
0.0542342
40
1.0682415
50
359.8090433
51
4.9407866
0
ARC
8
DEFAULT_255_1_234
10
16.4804542
20
0.0918113
40
0.6455691
50
4.8362157
51
12.2904523
0
ARC
8
DEFAULT_255_1_234
10
16.7559657
20
0.1531965
40
0.3633074
50
12.0805627
51
23.8173984
0
ARC
8
DEFAULT_255_1_234
10
16.8733363
20
0.2028919
40
0.2358723
50
24.2871213
51
31.3935614
0
ARC
8
DEFAULT_255_1_234
10
16.925806
20
0.2372233
40
0.1732111
50
30.7407893
51
82.4657128
0
ARC
8
DEFAULT_255_1_234
10
16.9078194
20
0.1488691
40
0.263235
50
81.1060089
51
90.2184952
0
ARC
8
DEFAULT_255_1_234
10
16.9042493
20
0.1746924
40
0.2374236
50
89.3806855
51
105.6762551
0
ARC
8
DEFAULT_255_1_234
10
16.8859124
20
0.2413567
40
0.1682847
50
105.7981136
51
149.7388061
0
ARC
8
DEFAULT_255_1_234
10
16.9923202
20
0.177395
40
0.2924306
50
149.4208916
51
163.6286378
0
ARC
8
DEFAULT_255_1_234
10
17.201409
20
0.113625
40
0.5110213
50
163.3763315
51
172.1410975
0
ARC
8
DEFAULT_255_1_234
10
17.5314809
20
0.0663518
40
0.8444586
50
172.0259487
51
178.0703232
0
ARC
8
DEFAULT_255_1_234
10
17.8344898
20
0.0519906
40
1.1477868
50
177.8631668
51
179.5044149
0
ARC
8
DEFAULT_255_1_234
10
17.7272303
20
-0.1794611
40
1.0404907
50
179.7995573
51
185.2460446
0
ARC
8
DEFAULT_255_1_234
10
17.3229342
20
-0.2177487
40
0.6343885
50
185.1411642
51
193.0079639
0
ARC
8
DEFAULT_255_1_234
10
17.0585815
20
-0.2802359
40
0.3627568
50
192.7897626
51
205.2507664
0
ARC
8
DEFAULT_255_1_234
10
16.9539362
20
-0.3269585
40
0.2481908
50
205.8005384
51
211.2537509
0
ARC
8
DEFAULT_255_1_234
10
16.9015802
20
-0.362042
40
0.1852521
50
210.3789793
51
238.4008143
0
ARC
8
DEFAULT_255_1_234
10
16.8996324
20
-0.3573624
40
0.1882621
50
239.6520629
51
265.9793761
0
ARC
8
DEFAULT_255_1_234
10
16.9081524
20
-0.2901573
40
0.2559272
50
265.1315437
51
270.060332
0
ARC
8
DEFAULT_255_1_234
10
16.9110303
20
-0.3225466
40
0.2235528
50
269.3314664
51
287.2178029
0
ARC
8
DEFAULT_255_1_234
10
16.9248155
20
-0.3728721
40
0.1714108
50
287.7958004
51
329.080874
0
ARC
8
DEFAULT_255_1_234
10
16.8290612
20
-0.313107
40
0.2842745
50
328.6634704
51
343.3325132
0
ARC
8
DEFAULT_255_1_234
10
16.6117632
20
-0.2454137
40
0.5118644
50
343.0499468
51
351.9393422
0
ARC
8
DEFAULT_255_1_234
10
16.2650932
20
-0.1943051
40
0.8622784
50
351.8069023
51
357.7959224
0
ARC
8
DEFAULT_255_1_234
10
15.9415488
20
-0.1775279
40
1.1862365
50
357.5871873
51
359.2677531
0
LINE
8
DEFAULT_255_1_234
10
18.2328556
20
-0.5300208
11
18.2328556
21
-0.6513
0
LINE
8
DEFAULT_255_1_234
10
18.2328556
20
-0.6513
11
17.4666277
21
-0.6513
0
LINE
8
DEFAULT_255_1_234
10
17.4666277
20
-0.6513
11
17.4666277
21
-0.5444779
0
LINE
8
DEFAULT_255_1_234
10
17.4666277
20
-0.5444779
11
17.8714273
21
-0.0947005
0
LINE
8
DEFAULT_255_1_234
10
17.592726
20
0.1735595
11
17.4441389
21
0.1735595
0
LINE
8
DEFAULT_255_1_234
10
17.9589733
20
-0.1902782
11
17.6457355
21
-0.5300208
0
LINE
8
DEFAULT_255_1_234
10
17.6457355
20
-0.5300208
11
18.2328556
21
-0.5300208
0
ARC
8
DEFAULT_255_1_234
10
16.5224107
20
1.0982527
40
1.8008286
50
318.5132453
51
320.7828378
0
ARC
8
DEFAULT_255_1_234
10
17.0511081
20
0.6679426
40
1.1191493
50
320.7372736
51
323.9737074
0
ARC
8
DEFAULT_255_1_234
10
17.4430938
20
0.3839361
40
0.6350923
50
323.8961724
51
328.6421089
0
ARC
8
DEFAULT_255_1_234
10
17.6477533
20
0.2577031
40
0.3946393
50
328.8299013
51
331.789948
0
ARC
8
DEFAULT_255_1_234
10
17.7474711
20
0.2062509
40
0.2824501
50
331.4255242
51
352.9364833
0
ARC
8
DEFAULT_255_1_234
10
17.7611212
20
0.2031976
40
0.2685315
50
353.2248685
51
0.0169286
0
ARC
8
DEFAULT_255_1_234
10
17.7821089
20
0.205495
40
0.2475536
50
359.4866256
51
15.9339782
0
ARC
8
DEFAULT_255_1_234
10
17.8328074
20
0.2191286
40
0.1950618
50
16.1714718
51
43.5284424
0
ARC
8
DEFAULT_255_1_234
10
17.8405383
20
0.2268573
40
0.184134
50
43.4415429
51
83.1661404
0
ARC
8
DEFAULT_255_1_234
10
17.8271301
20
0.1531771
40
0.258926
50
82.160215
51
90.1505798
0
ARC
8
DEFAULT_255_1_234
10
17.8239728
20
0.0994865
40
0.3126255
50
89.5460705
51
102.5418777
0
ARC
8
DEFAULT_255_1_234
10
17.7996814
20
0.2025665
40
0.2067346
50
102.1739365
51
129.2061916
0
ARC
8
DEFAULT_255_1_234
10
17.7917886
20
0.2150094
40
0.1921118
50
129.7279328
51
135.7542026
0
ARC
8
DEFAULT_255_1_234
10
17.8039414
20
0.2053045
40
0.2075944
50
136.175737
51
166.3674722
0
ARC
8
DEFAULT_255_1_234
10
17.9046333
20
0.1783182
40
0.3118201
50
165.9092917
51
178.8683903
0
ARC
8
DEFAULT_255_1_234
10
17.9911194
20
0.1736179
40
0.3983935
50
178.438168
51
180.0083905
0
ARC
8
DEFAULT_255_1_234
10
17.8509796
20
0.1775231
40
0.4068601
50
163.2878735
51
180.5581814
0
ARC
8
DEFAULT_255_1_234
10
17.7708058
20
0.199584
40
0.3237344
50
133.454115
51
162.9470031
0
ARC
8
DEFAULT_255_1_234
10
17.7886599
20
0.1806
40
0.349795
50
100.7869394
51
133.4384016
0
ARC
8
DEFAULT_255_1_234
10
17.8234371
20
0.0257319
40
0.5084616
50
89.6605301
51
101.3704185
0
ARC
8
DEFAULT_255_1_234
10
17.830071
20
0.0318496
40
0.502348
50
78.2171172
51
90.4130393
0
ARC
8
DEFAULT_255_1_234
10
17.8655788
20
0.1942637
40
0.3361092
50
55.9268222
51
78.4888551
0
ARC
8
DEFAULT_255_1_234
10
17.8852228
20
0.2281324
40
0.2970617
50
47.9292255
51
55.4054003
0
ARC
8
DEFAULT_255_1_234
10
17.8953789
20
0.2384502
40
0.2825983
50
4.3347696
51
48.0560701
0
ARC
8
DEFAULT_255_1_234
10
17.7858182
20
0.2214601
40
0.393225
50
359.925209
51
5.5967654
0
ARC
8
DEFAULT_255_1_234
10
17.8287074
20
0.2270816
40
0.3503892
50
337.8914096
51
358.9967724
0
ARC
8
DEFAULT_255_1_234
10
17.5573486
20
0.3317706
40
0.6412172
50
326.9135351
51
338.3505194
0
ARC
8
DEFAULT_255_1_234
10
17.158779
20
0.5872284
40
1.1146189
50
319.6472867
51
327.095818
0
ARC
8
DEFAULT_255_1_234
10
16.7754793
20
0.9034
40
1.6114559
50
317.2586784
51
319.9046139
0
ARC
8
DEFAULT_255_2_778
10
15.2718323
20
58.4644567
40
0.3782009
50
0.4397807
51
91.3045231
0
ARC
8
DEFAULT_255_2_778
10
15.2696879
20
58.4621741
40
0.3803695
50
269.0259909
51
0.7811192
0
ARC
8
DEFAULT_255_2_778
10
15.4288293
20
58.4497321
40
0.7639615
50
290.7362057
51
357.8000295
0
ARC
8
DEFAULT_255_2_778
10
15.3436031
20
58.4672912
40
0.8499188
50
356.8376875
51
0.0046095
0
ARC
8
DEFAULT_255_2_778
10
15.3422443
20
58.4673425
40
0.8512778
50
0.0011515
51
85.3589632
0
ARC
8
DEFAULT_255_2_778
10
15.3422371
20
58.4482769
40
0.8702827
50
85.4600549
51
90.0075769
0
ARC
8
DEFAULT_255_2_778
10
20.173385
20
58.4580104
40
0.3845507
50
1.3931151
51
90.158378
0
ARC
8
DEFAULT_255_2_778
10
20.2329096
20
58.4516312
40
0.8684198
50
359.7643557
51
42.1181505
0
ARC
8
DEFAULT_255_2_778
10
20.2353156
20
58.4520609
40
0.866348
50
42.2037872
51
87.9292218
0
ARC
8
DEFAULT_255_2_778
10
20.2305626
20
58.4107775
40
0.9077821
50
87.7235759
51
90.0025578
0
ARC
8
DEFAULT_255_2_778
10
12.9264947
20
58.4649021
40
0.3777354
50
0.3727528
51
91.1638813
0
ARC
8
DEFAULT_255_2_778
10
12.9805692
20
58.4516272
40
0.8684602
50
359.7646302
51
42.1161032
0
ARC
8
DEFAULT_255_2_778
10
12.9830774
20
58.4521804
40
0.8662296
50
42.2002176
51
87.9268901
0
ARC
8
DEFAULT_255_2_778
10
12.9783626
20
58.4111426
40
0.9074169
50
87.7231194
51
90.002558
0
ARC
8
DEFAULT_255_2_778
10
17.559042
20
58.0598535
40
1.2841942
50
233.3100129
51
270.0348017
0
ARC
8
DEFAULT_255_2_778
10
17.5711133
20
58.0802299
40
1.3077482
50
187.7860459
51
233.4193197
0
ARC
8
DEFAULT_255_2_778
10
17.5893588
20
58.0817862
40
1.3260368
50
179.9838663
51
187.7458681
0
ARC
8
DEFAULT_255_2_778
10
17.5478523
20
58.0824052
40
1.2845303
50
143.7084173
51
180.0109545
0
ARC
8
DEFAULT_255_2_778
10
17.5629238
20
58.0773576
40
1.2996747
50
94.9692901
51
143.9223324
0
ARC
8
DEFAULT_255_2_778
10
17.5597032
20
58.0780024
40
1.2987573
50
89.9947559
51
94.8302073
0
ARC
8
DEFAULT_255_2_778
10
17.5620056
20
58.0719107
40
1.3048507
50
58.145411
51
90.0958788
0
ARC
8
DEFAULT_255_2_778
10
17.570555
20
58.0782171
40
1.294988
50
3.2655211
51
58.3194462
0
ARC
8
DEFAULT_255_2_778
10
17.5710693
20
58.0822162
40
1.2942527
50
359.997494
51
3.0900664
0
ARC
8
DEFAULT_255_2_778
10
17.382608
20
58.080116
40
1.4827154
50
0.006083
51
0.0789681
0
ARC
8
DEFAULT_255_2_778
10
17.5605935
20
58.0801976
40
1.30473
50
315.0276525
51
0.0033284
0
ARC
8
DEFAULT_255_2_778
10
17.5609377
20
58.0800198
40
1.3043608
50
270.000667
51
315.0224921
0
LINE
8
DEFAULT_255_2_778
10
17.5609529
20
56.7756591
11
17.5598221
21
56.7756596
0
ARC
8
DEFAULT_255_2_778
10
17.5640812
20
58.0781789
40
0.7580313
50
269.6780691
51
315.5292436
0
ARC
8
DEFAULT_255_2_778
10
17.5610107
20
58.0774555
40
0.7597205
50
315.7303962
51
0.2857903
0
ARC
8
DEFAULT_255_2_778
10
17.8487376
20
58.0817059
40
0.4719845
50
359.944048
51
0.0186519
0
ARC
8
DEFAULT_255_2_778
10
17.5687772
20
58.0807282
40
0.7519457
50
0.086204
51
85.4319233
0
ARC
8
DEFAULT_255_2_778
10
17.5599609
20
58.0383015
40
0.7949581
50
85.0420495
51
90.0100075
0
ARC
8
DEFAULT_255_2_778
10
17.5579396
20
58.0950196
40
0.7382424
50
89.8538973
51
89.9999976
0
ARC
8
DEFAULT_255_2_778
10
17.5580088
20
58.0824786
40
0.7507833
50
90.0052819
51
134.9571409
0
ARC
8
DEFAULT_255_2_778
10
17.5579709
20
58.0819242
40
0.751149
50
134.9252185
51
180.0049334
0
ARC
8
DEFAULT_255_2_778
10
17.5708624
20
58.0779552
40
0.7640503
50
179.7072119
51
222.5790813
0
ARC
8
DEFAULT_255_2_778
10
17.5579296
20
58.0669152
40
0.7470579
50
222.6267201
51
270.1451401
0
ARC
8
DEFAULT_255_2_778
10
9.564442
20
58.0598535
40
1.2841942
50
233.3100129
51
270.0348017
0
ARC
8
DEFAULT_255_2_778
10
9.5765133
20
58.0802299
40
1.3077482
50
187.7860459
51
233.4193197
0
ARC
8
DEFAULT_255_2_778
10
9.5947588
20
58.0817862
40
1.3260368
50
179.9838663
51
187.7458681
0
ARC
8
DEFAULT_255_2_778
10
9.5533136
20
58.082424
40
1.2845916
50
143.7114698
51
180.0117952
0
ARC
8
DEFAULT_255_2_778
10
9.5683755
20
58.0772703
40
1.299791
50
95.4071875
51
143.9213067
0
ARC
8
DEFAULT_255_2_778
10
9.565082
20
58.0783475
40
1.2984121
50
89.9938197
51
95.266981
0
ARC
8
DEFAULT_255_2_778
10
9.5673902
20
58.0721118
40
1.3046496
50
58.1428905
51
90.0952196
0
ARC
8
DEFAULT_255_2_778
10
9.5758177
20
58.078213
40
1.2950254
50
3.2656058
51
58.3171105
0
ARC
8
DEFAULT_255_2_778
10
9.5763693
20
58.0822162
40
1.2942527
50
359.997494
51
3.0900664
0
ARC
8
DEFAULT_255_2_778
10
9.5936718
20
58.0800125
40
1.276952
50
359.9949307
51
0.0963391
0
ARC
8
DEFAULT_255_2_778
10
9.5659855
20
58.0800602
40
1.3046385
50
315.0321687
51
359.9929412
0
ARC
8
DEFAULT_255_2_778
10
9.5662654
20
58.0801944
40
1.3045353
50
270.0038431
51
315.0193137
0
LINE
8
DEFAULT_255_2_778
10
9.5663529
20
56.7756591
11
9.5652221
21
56.7756596
0
ARC
8
DEFAULT_255_2_778
10
9.5694412
20
58.0781812
40
0.7580334
50
269.6810953
51
315.6152252
0
ARC
8
DEFAULT_255_2_778
10
9.5663839
20
58.0775058
40
0.7597504
50
315.8129036
51
0.3254485
0
ARC
8
DEFAULT_255_2_778
10
9.5738176
20
58.0804242
40
0.7523058
50
0.1093155
51
85.7820321
0
ARC
8
DEFAULT_255_2_778
10
9.5653381
20
58.038894
40
0.7943655
50
85.3923987
51
90.0083732
0
ARC
8
DEFAULT_255_2_778
10
9.5633385
20
58.0941025
40
0.7391595
50
89.8539942
51
89.9999859
0
ARC
8
DEFAULT_255_2_778
10
9.563405
20
58.082246
40
0.7510159
50
90.0050654
51
134.9497993
0
ARC
8
DEFAULT_255_2_778
10
9.5632746
20
58.082064
40
0.7510526
50
134.9329452
51
180.0155944
0
ARC
8
DEFAULT_255_2_778
10
9.5762945
20
58.0779289
40
0.7640826
50
179.7052536
51
222.5741919
0
ARC
8
DEFAULT_255_2_778
10
9.5632805
20
58.066884
40
0.7470269
50
222.6256588
51
270.1489141
0
LINE
8
DEFAULT_255_2_778
10
14.0768221
20
59.2979596
11
14.0768221
21
56.8351596
0
LINE
8
DEFAULT_255_2_778
10
14.0768221
20
56.8351596
11
14.6203221
21
56.8351596
0
LINE
8
DEFAULT_255_2_778
10
14.6203221
20
56.8351596
11
14.6203221
21
58.8425596
0
LINE
8
DEFAULT_255_2_778
10
14.6203221
20
58.8425596
11
15.2632221
21
58.8425596
0
LINE
8
DEFAULT_255_2_778
10
15.2632221
20
58.0818596
11
14.7986221
21
58.0818596
0
LINE
8
DEFAULT_255_2_778
10
14.7986221
20
58.0818596
11
15.6397221
21
56.8348596
0
LINE
8
DEFAULT_255_2_778
10
15.6397221
20
56.8348596
11
16.3126221
21
56.8348596
0
LINE
8
DEFAULT_255_2_778
10
16.3126221
20
56.8348596
11
15.6993221
21
57.7352596
0
LINE
8
DEFAULT_255_2_778
10
15.3421221
20
59.3185596
11
14.6200221
21
59.3185596
0
LINE
8
DEFAULT_255_2_778
10
14.6200221
20
59.3185596
11
14.0766221
21
59.2979596
0
LINE
8
DEFAULT_255_2_778
10
14.0766221
20
59.2979596
11
14.0768221
21
59.2979596
0
LINE
8
DEFAULT_255_2_778
10
19.0142221
20
59.2979596
11
19.0142221
21
56.8351596
0
LINE
8
DEFAULT_255_2_778
10
19.0142221
20
56.8351596
11
19.5577221
21
56.8351596
0
LINE
8
DEFAULT_255_2_778
10
19.5577221
20
56.8351596
11
19.5577221
21
58.8425596
0
LINE
8
DEFAULT_255_2_778
10
19.5577221
20
58.8425596
11
20.1723221
21
58.8425596
0
LINE
8
DEFAULT_255_2_778
10
20.5578221
20
58.4673596
11
20.5578221
21
56.8351596
0
LINE
8
DEFAULT_255_2_778
10
20.5578221
20
56.8351596
11
21.1013221
21
56.8351596
0
LINE
8
DEFAULT_255_2_778
10
21.1013221
20
56.8351596
11
21.1013221
21
58.4480596
0
LINE
8
DEFAULT_255_2_778
10
20.2305221
20
59.3185596
11
19.5577221
21
59.3185596
0
LINE
8
DEFAULT_255_2_778
10
19.5577221
20
59.3185596
11
19.0142221
21
59.2979596
0
LINE
8
DEFAULT_255_2_778
10
19.0142221
20
59.2979596
11
19.0142221
21
59.2979596
0
LINE
8
DEFAULT_255_2_778
10
11.0196221
20
59.2979596
11
11.0196221
21
56.8351596
0
LINE
8
DEFAULT_255_2_778
10
11.0196221
20
56.8351596
11
11.5628221
21
56.8351596
0
LINE
8
DEFAULT_255_2_778
10
11.5628221
20
56.8351596
11
11.5628221
21
58.8425596
0
LINE
8
DEFAULT_255_2_778
10
11.5628221
20
58.8425596
11
12.1671221
21
58.8425596
0
LINE
8
DEFAULT_255_2_778
10
12.1671221
20
58.8425596
11
12.1671221
21
56.8351596
0
LINE
8
DEFAULT_255_2_778
10
12.1671221
20
56.8351596
11
12.7105221
21
56.8351596
0
LINE
8
DEFAULT_255_2_778
10
12.7105221
20
56.8351596
11
12.7105221
21
58.8425596
0
LINE
8
DEFAULT_255_2_778
10
12.7105221
20
58.8425596
11
12.9188221
21
58.8425596
0
LINE
8
DEFAULT_255_2_778
10
13.3042221
20
58.4673596
11
13.3042221
21
56.8351596
0
LINE
8
DEFAULT_255_2_778
10
13.3042221
20
56.8351596
11
13.8490221
21
56.8351596
0
LINE
8
DEFAULT_255_2_778
10
13.8490221
20
56.8351596
11
13.8490221
21
58.4480596
0
LINE
8
DEFAULT_255_2_778
10
12.9783221
20
59.3185596
11
11.5731221
21
59.3185596
0
LINE
8
DEFAULT_255_2_778
10
11.5731221
20
59.3185596
11
11.0193221
21
59.2979596
0
LINE
8
DEFAULT_255_2_778
10
11.0193221
20
59.2979596
11
11.0196221
21
59.2979596
0
LINE
8
DEFAULT_255_2_778
10
17.5598221
20
56.7756596
11
17.5598221
21
56.7756596
0
LINE
8
DEFAULT_255_2_778
10
9.5652221
20
56.7756596
11
9.5652221
21
56.7756596
0
LINE
8
DEFAULT_255_2_778
10
9.3932417
20
44.8468581
11
10.7161417
21
44.8468581
0
LINE
8
DEFAULT_255_2_778
10
10.7161417
20
44.8468581
11
10.7161417
21
27.6489581
0
LINE
8
DEFAULT_255_2_778
10
9.3932834
20
27.6489333
11
12.0390834
21
27.6489333
0
LINE
8
DEFAULT_255_2_778
10
12.0390834
20
27.6489333
11
12.0390834
21
22.3572333
0
LINE
8
DEFAULT_255_2_778
10
12.0390834
20
22.3572333
11
9.3932834
21
22.3572333
0
LINE
8
DEFAULT_255_2_778
10
9.3932834
20
22.3572333
11
9.3932834
21
27.6489333
0
ARC
8
DEFAULT_255_2_778_1
10
13.1931093
20
22.4591014
40
4.8170853
50
120.9433603
51
122.3507015
0
ARC
8
DEFAULT_255_2_778_1
10
12.7461038
20
23.1633847
40
3.9829221
50
122.3397244
51
124.1937515
0
ARC
8
DEFAULT_255_2_778_1
10
12.3065747
20
23.8093798
40
3.2015802
50
124.1846593
51
126.4326997
0
ARC
8
DEFAULT_255_2_778_1
10
11.9203674
20
24.3325048
40
2.5513373
50
126.4315193
51
128.8866284
0
ARC
8
DEFAULT_255_2_778_1
10
11.5855558
20
24.7469163
40
2.0185751
50
128.8737413
51
131.8715456
0
ARC
8
DEFAULT_255_2_778_1
10
11.288321
20
25.0780578
40
1.5735995
50
131.8602881
51
135.4159792
0
ARC
8
DEFAULT_255_2_778_1
10
11.0256267
20
25.336144
40
1.2053382
50
135.3881787
51
139.9675704
0
ARC
8
DEFAULT_255_2_778_1
10
10.7927929
20
25.5309514
40
0.9017578
50
139.9292361
51
145.9248399
0
ARC
8
DEFAULT_255_2_778_1
10
10.5965937
20
25.6630002
40
0.6652613
50
145.8774658
51
153.8137102
0
ARC
8
DEFAULT_255_2_778_1
10
10.4445289
20
25.7373584
40
0.4959902
50
153.7699933
51
164.3475994
0
ARC
8
DEFAULT_255_2_778_1
10
10.3431712
20
25.7655709
40
0.3907795
50
164.3211971
51
179.8086094
0
ARC
8
DEFAULT_255_2_778_1
10
10.364224
20
25.7737045
40
0.4118868
50
180.9498805
51
213.8115801
0
ARC
8
DEFAULT_255_2_778_1
10
10.6401277
20
25.9432791
40
0.7355981
50
212.8273456
51
224.258786
0
ARC
8
DEFAULT_255_2_778_1
10
11.0230021
20
26.3126447
40
1.2675939
50
224.1380843
51
231.4510938
0
ARC
8
DEFAULT_255_2_778_1
10
11.6656086
20
27.1155497
40
2.2959891
50
231.3959152
51
236.1261501
0
ARC
8
DEFAULT_255_2_778_1
10
13.4977386
20
29.8618226
40
5.5973037
50
236.2236313
51
239.1319841
0
ARC
8
DEFAULT_255_2_778_1
10
25.44793
20
49.5903296
40
28.6628078
50
238.8610976
51
239.0715198
0
ARC
8
DEFAULT_255_2_778_1
10
6.2759964
20
17.493101
40
8.7244052
50
57.2424849
51
59.4068306
0
ARC
8
DEFAULT_255_2_778_1
10
9.5034336
20
22.5237081
40
2.7475194
50
52.8293541
51
57.0795464
0
ARC
8
DEFAULT_255_2_778_1
10
10.2780944
20
23.5440614
40
1.4664186
50
46.3045833
51
52.860304
0
ARC
8
DEFAULT_255_2_778_1
10
10.7102649
20
23.9941451
40
0.8424453
50
36.2180257
51
46.4093296
0
ARC
8
DEFAULT_255_2_778_1
10
10.994804
20
24.1990061
40
0.4918506
50
17.4004011
51
36.5495579
0
ARC
8
DEFAULT_255_2_778_1
10
11.1088821
20
24.238864
40
0.3710943
50
0.067873
51
16.7952822
0
ARC
8
DEFAULT_255_2_778_1
10
11.0878458
20
24.2407332
40
0.3921328
50
343.8036427
51
359.7911248
0
ARC
8
DEFAULT_255_2_778_1
10
10.9815867
20
24.2712038
40
0.502674
50
333.2506199
51
343.8466729
0
ARC
8
DEFAULT_255_2_778_1
10
10.8277744
20
24.3479168
40
0.6745539
50
325.6600211
51
333.3122631
0
ARC
8
DEFAULT_255_2_778_1
10
10.6323392
20
24.4807073
40
0.9108335
50
319.7561437
51
325.6977425
0
ARC
8
DEFAULT_255_2_778_1
10
10.4042094
20
24.6724727
40
1.2088543
50
315.4577629
51
319.8038562
0
ARC
8
DEFAULT_255_2_778_1
10
10.1408322
20
24.9313077
40
1.578128
50
311.7299879
51
315.4672579
0
ARC
8
DEFAULT_255_2_778_1
10
9.8318145
20
25.2768549
40
2.0416949
50
308.7231184
51
311.7471999
0
ARC
8
DEFAULT_255_2_778_1
10
9.4777678
20
25.7178927
40
2.6072594
50
306.1164816
51
308.7302597
0
ARC
8
DEFAULT_255_2_778_1
10
9.0747329
20
26.2692635
40
3.2902284
50
303.9558771
51
306.1266851
0
ARC
8
DEFAULT_255_2_778_1
10
8.6627948
20
26.879078
40
4.0261398
50
302.373487
51
303.9711747
0
ARC
8
DEFAULT_255_2_778_1
10
8.243509
20
27.5400653
40
4.8088943
50
300.9435453
51
302.3758968
0
LINE
8
DEFAULT_255_2_778
10
10.7161417
20
22.3572581
11
10.7161417
21
5.1593581
0
LINE
8
DEFAULT_255_2_778
10
10.7161417
20
5.1593581
11
9.3932417
21
5.1593581
0
LINE
8
DEFAULT_255_1_234
10
4.9274119
20
52.3866792
11
4.9274119
21
52.2654
0
LINE
8
DEFAULT_255_1_234
10
4.9274119
20
52.2654
11
4.161184
21
52.2654
0
LINE
8
DEFAULT_255_1_234
10
4.161184
20
52.2654
11
4.161184
21
52.3722221
0
LINE
8
DEFAULT_255_1_234
10
4.161184
20
52.3722221
11
4.5659836
21
52.8219995
0
LINE
8
DEFAULT_255_1_234
10
4.2872823
20
53.0902595
11
4.1386952
21
53.0902595
0
LINE
8
DEFAULT_255_1_234
10
4.6535296
20
52.7264218
11
4.3402918
21
52.3866792
0
LINE
8
DEFAULT_255_1_234
10
4.3402918
20
52.3866792
11
4.9274119
21
52.3866792
0
ARC
8
DEFAULT_255_1_234
10
3.216967
20
54.0149527
40
1.8008286
50
318.5132453
51
320.7828378
0
ARC
8
DEFAULT_255_1_234
10
3.7456644
20
53.5846426
40
1.1191493
50
320.7372736
51
323.9737074
0
ARC
8
DEFAULT_255_1_234
10
4.1376501
20
53.3006361
40
0.6350923
50
323.8961724
51
328.6421089
0
ARC
8
DEFAULT_255_1_234
10
4.3423096
20
53.1744031
40
0.3946393
50
328.8299013
51
331.789948
0
ARC
8
DEFAULT_255_1_234
10
4.4420274
20
53.1229509
40
0.2824501
50
331.4255242
51
352.9364833
0
ARC
8
DEFAULT_255_1_234
10
4.4556775
20
53.1198976
40
0.2685315
50
353.2248685
51
0.0169286
0
ARC
8
DEFAULT_255_1_234
10
4.4766652
20
53.122195
40
0.2475536
50
359.4866256
51
15.9339782
0
ARC
8
DEFAULT_255_1_234
10
4.5273637
20
53.1358286
40
0.1950618
50
16.1714718
51
43.5284424
0
ARC
8
DEFAULT_255_1_234
10
4.5350946
20
53.1435573
40
0.184134
50
43.4415429
51
83.1661404
0
ARC
8
DEFAULT_255_1_234
10
4.5216864
20
53.0698771
40
0.258926
50
82.160215
51
90.1505798
0
ARC
8
DEFAULT_255_1_234
10
4.5185291
20
53.0161865
40
0.3126255
50
89.5460705
51
102.5418777
0
ARC
8
DEFAULT_255_1_234
10
4.4942377
20
53.1192665
40
0.2067346
50
102.1739365
51
129.2061916
0
ARC
8
DEFAULT_255_1_234
10
4.4863449
20
53.1317094
40
0.1921118
50
129.7279328
51
135.7542026
0
ARC
8
DEFAULT_255_1_234
10
4.4984977
20
53.1220045
40
0.2075944
50
136.175737
51
166.3674722
0
ARC
8
DEFAULT_255_1_234
10
4.5991896
20
53.0950182
40
0.3118201
50
165.9092917
51
178.8683903
0
ARC
8
DEFAULT_255_1_234
10
4.6856757
20
53.0903179
40
0.3983935
50
178.438168
51
180.0083905
0
ARC
8
DEFAULT_255_1_234
10
4.5455359
20
53.0942231
40
0.4068601
50
163.2878735
51
180.5581814
0
ARC
8
DEFAULT_255_1_234
10
4.4653621
20
53.116284
40
0.3237344
50
133.454115
51
162.9470031
0
ARC
8
DEFAULT_255_1_234
10
4.4832162
20
53.0973
40
0.349795
50
100.7869394
51
133.4384016
0
ARC
8
DEFAULT_255_1_234
10
4.5179934
20
52.9424319
40
0.5084616
50
89.6605301
51
101.3704185
0
ARC
8
DEFAULT_255_1_234
10
4.5246273
20
52.9485496
40
0.502348
50
78.2171172
51
90.4130393
0
ARC
8
DEFAULT_255_1_234
10
4.5601351
20
53.1109637
40
0.3361092
50
55.9268222
51
78.4888551
0
ARC
8
DEFAULT_255_1_234
10
4.5797791
20
53.1448324
40
0.2970617
50
47.9292255
51
55.4054003
0
ARC
8
DEFAULT_255_1_234
10
4.5899352
20
53.1551502
40
0.2825983
50
4.3347696
51
48.0560701
0
ARC
8
DEFAULT_255_1_234
10
4.4803745
20
53.1381601
40
0.393225
50
359.925209
51
5.5967654
0
ARC
8
DEFAULT_255_1_234
10
4.5232637
20
53.1437816
40
0.3503892
50
337.8914096
51
358.9967724
0
ARC
8
DEFAULT_255_1_234
10
4.2519049
20
53.2484706
40
0.6412172
50
326.9135351
51
338.3505194
0
ARC
8
DEFAULT_255_1_234
10
3.8533353
20
53.5039284
40
1.1146189
50
319.6472867
51
327.095818
0
ARC
8
DEFAULT_255_1_234
10
3.4700356
20
53.8201
40
1.6114559
50
317.2586784
51
319.9046139
0
LINE
8
DEFAULT_255_1_234
10
5.7121127
20
53.4348211
11
5.7121127
21
52.658152
0
LINE
8
DEFAULT_255_1_234
10
5.7121127
20
52.658152
11
5.8743538
21
52.658152
0
LINE
8
DEFAULT_255_1_234
10
5.8743538
20
52.658152
11
5.8743538
21
52.5368728
0
LINE
8
DEFAULT_255_1_234
10
5.8743538
20
52.5368728
11
5.7121127
21
52.5368728
0
LINE
8
DEFAULT_255_1_234
10
5.7121127
20
52.5368728
11
5.7121127
21
52.2654
0
LINE
8
DEFAULT_255_1_234
10
5.7121127
20
52.2654
11
5.5627224
21
52.2654
0
LINE
8
DEFAULT_255_1_234
10
5.5627224
20
52.2654
11
5.5627224
21
52.5368728
0
LINE
8
DEFAULT_255_1_234
10
5.5627224
20
52.5368728
11
5.0302181
21
52.5368728
0
LINE
8
DEFAULT_255_1_234
10
5.0302181
20
52.5368728
11
5.0302181
21
52.6244187
0
LINE
8
DEFAULT_255_1_234
10
5.0302181
20
52.6244187
11
5.5538875
21
53.4348211
0
LINE
8
DEFAULT_255_1_234
10
5.5538875
20
53.4348211
11
5.7121127
21
53.4348211
0
LINE
8
DEFAULT_255_1_234
10
5.5450525
20
53.1994912
11
5.1988846
21
52.658152
0
LINE
8
DEFAULT_255_1_234
10
5.1988846
20
52.658152
11
5.5627224
21
52.658152
0
LINE
8
DEFAULT_255_1_234
10
5.5627224
20
52.658152
11
5.5627224
21
53.2316181
0
LINE
8
DEFAULT_255_1_234
10
5.5627224
20
53.2316181
11
5.5450525
21
53.1994912
0
LINE
8
DEFAULT_255_1_234
10
6.101652
20
53.4348211
11
6.434166
21
52.4702093
0
LINE
8
DEFAULT_255_1_234
10
6.434166
20
52.4702093
11
6.7682863
21
53.4348211
0
LINE
8
DEFAULT_255_1_234
10
6.7682863
20
53.4348211
11
6.9369528
21
53.4348211
0
LINE
8
DEFAULT_255_1_234
10
6.9369528
20
53.4348211
11
6.5032389
21
52.2654
0
LINE
8
DEFAULT_255_1_234
10
6.5032389
20
52.2654
11
6.3666994
21
52.2654
0
LINE
8
DEFAULT_255_1_234
10
6.3666994
20
52.2654
11
5.9337887
21
53.4348211
0
LINE
8
DEFAULT_255_1_234
10
5.9337887
20
53.4348211
11
6.101652
21
53.4348211
0
LINE
8
DEFAULT_255_1_234
10
4.950623
20
5.0114663
11
5.1056355
21
5.0114663
0
LINE
8
DEFAULT_255_1_234
10
4.2052777
20
5.1704947
11
4.2052777
21
5.2829391
0
LINE
8
DEFAULT_255_1_234
10
5.1056355
20
5.4339357
11
4.950623
21
5.4339357
0
LINE
8
DEFAULT_255_1_234
10
4.3602902
20
5.2789232
11
4.3602902
21
5.1656757
0
ARC
8
DEFAULT_255_1_234
10
4.5575742
20
5.0711846
40
0.5513052
50
340.1774281
51
353.7814284
0
ARC
8
DEFAULT_255_1_234
10
4.7147095
20
5.0126582
40
0.3836379
50
311.4558989
51
340.4421614
0
ARC
8
DEFAULT_255_1_234
10
4.7113763
20
5.0237528
40
0.3941894
50
282.4333181
51
310.7513653
0
ARC
8
DEFAULT_255_1_234
10
4.6674502
20
5.2052679
40
0.5809175
50
269.9358511
51
282.809604
0
ARC
8
DEFAULT_255_1_234
10
4.6622568
20
5.3510212
40
0.7266847
50
270.0021091
51
270.3581957
0
ARC
8
DEFAULT_255_1_234
10
4.6569985
20
5.0909585
40
0.4666519
50
250.7884749
51
270.6489167
0
ARC
8
DEFAULT_255_1_234
10
4.640182
20
5.0272319
40
0.4009729
50
219.3627325
51
250.0611886
0
ARC
8
DEFAULT_255_1_234
10
4.7231031
20
5.0977042
40
0.5097822
50
193.5479632
51
219.5756669
0
ARC
8
DEFAULT_255_1_234
10
4.9602652
20
5.1592919
40
0.7547848
50
181.1218675
51
193.87563
0
ARC
8
DEFAULT_255_1_234
10
5.1672833
20
5.170358
40
0.9620055
50
179.9918545
51
181.5394234
0
ARC
8
DEFAULT_255_1_234
10
4.9821935
20
5.2866788
40
0.7769248
50
169.5837241
51
180.2757934
0
ARC
8
DEFAULT_255_1_234
10
4.7984873
20
5.3206229
40
0.590109
50
155.0365899
51
169.6003176
0
ARC
8
DEFAULT_255_1_234
10
4.6849337
20
5.3753677
40
0.4640625
50
136.783148
51
155.2472683
0
ARC
8
DEFAULT_255_1_234
10
4.6459814
20
5.4084562
40
0.4130255
50
121.7633186
51
136.428115
0
ARC
8
DEFAULT_255_1_234
10
4.6594776
20
5.3835227
40
0.4413323
50
95.6459699
51
121.5490577
0
ARC
8
DEFAULT_255_1_234
10
4.6752058
20
5.2726949
40
0.55319
50
89.924208
51
96.1377933
0
ARC
8
DEFAULT_255_1_234
10
4.6802491
20
5.2845542
40
0.5413475
50
76.6779277
51
90.4563316
0
ARC
8
DEFAULT_255_1_234
10
4.7196114
20
5.4436114
40
0.3775041
50
47.485847
51
76.9287264
0
ARC
8
DEFAULT_255_1_234
10
4.7049087
20
5.4336159
40
0.3948286
50
16.5424086
51
46.8933463
0
ARC
8
DEFAULT_255_1_234
10
4.5441244
20
5.3807861
40
0.564021
50
5.4072051
51
17.0365086
0
ARC
8
DEFAULT_255_1_234
10
4.4002261
20
5.3576679
40
0.5556559
50
7.8891745
51
15.9239216
0
ARC
8
DEFAULT_255_1_234
10
4.5989274
20
5.4153631
40
0.3487515
50
15.7653144
51
27.9410532
0
ARC
8
DEFAULT_255_1_234
10
4.7093492
20
5.474479
40
0.2235026
50
27.8166557
51
46.4008329
0
ARC
8
DEFAULT_255_1_234
10
4.7143135
20
5.4739082
40
0.2205286
50
47.4371857
51
75.0698205
0
ARC
8
DEFAULT_255_1_234
10
4.6834529
20
5.3664765
40
0.3322915
50
74.7008593
51
87.8124495
0
ARC
8
DEFAULT_255_1_234
10
4.6761217
20
5.2608844
40
0.4380987
50
87.3814673
51
90.0240855
0
ARC
8
DEFAULT_255_1_234
10
4.672276
20
5.3786291
40
0.3203749
50
89.3451631
51
108.5745436
0
ARC
8
DEFAULT_255_1_234
10
4.6585865
20
5.4299908
40
0.2673494
50
109.2998449
51
143.3037509
0
ARC
8
DEFAULT_255_1_234
10
4.7347938
20
5.3713881
40
0.3634757
50
143.0753173
51
163.1916937
0
ARC
8
DEFAULT_255_1_234
10
4.9299666
20
5.3097967
40
0.5681262
50
162.9373603
51
174.6208611
0
ARC
8
DEFAULT_255_1_234
10
5.1925708
20
5.281001
40
0.8322832
50
174.3419979
51
180.1430411
0
ARC
8
DEFAULT_255_1_234
10
5.0994864
20
5.1615698
40
0.7392076
50
179.6817502
51
189.150529
0
ARC
8
DEFAULT_255_1_234
10
4.8494112
20
5.119919
40
0.4856932
50
188.9910863
51
203.5773039
0
ARC
8
DEFAULT_255_1_234
10
4.7414445
20
5.0751211
40
0.3688271
50
203.9077269
51
215.1312379
0
ARC
8
DEFAULT_255_1_234
10
4.6491539
20
5.0035941
40
0.2522457
50
213.9071664
51
263.8849284
0
ARC
8
DEFAULT_255_1_234
10
4.6616868
20
5.0820518
40
0.3316174
50
263.1758525
51
270.1031083
0
ARC
8
DEFAULT_255_1_234
10
4.664896
20
5.2067365
40
0.4563091
50
269.6719807
51
279.0609165
0
ARC
8
DEFAULT_255_1_234
10
4.6915728
20
5.0454907
40
0.2928759
50
278.8750225
51
293.6346586
0
ARC
8
DEFAULT_255_1_234
10
4.7235936
20
4.97029
40
0.2111472
50
293.8553404
51
310.0518804
0
ARC
8
DEFAULT_255_1_234
10
4.724079
20
4.9640516
40
0.2060917
50
311.0646779
51
332.0108348
0
ARC
8
DEFAULT_255_1_234
10
4.6048517
20
5.0297978
40
0.3422352
50
331.6588543
51
343.2878891
0
ARC
8
DEFAULT_255_1_234
10
4.3986032
20
5.0931798
40
0.5580003
50
343.1446044
51
351.010618
0
ARC
8
DEFAULT_255_1_234
10
4.2444678
20
5.1212871
40
0.7146438
50
350.7157277
51
351.1602153
0
LINE
8
DEFAULT_255_1_234
10
5.8060031
20
4.9793394
11
5.8060031
21
5.8098211
0
LINE
8
DEFAULT_255_1_234
10
5.8060031
20
5.8098211
11
5.9610157
21
5.8098211
0
LINE
8
DEFAULT_255_1_234
10
5.9610157
20
5.8098211
11
5.9610157
21
4.9817489
0
LINE
8
DEFAULT_255_1_234
10
5.2228989
20
4.9632759
11
5.3771083
21
4.9632759
0
ARC
8
DEFAULT_255_1_234
10
5.5119342
20
4.9779089
40
0.4490979
50
346.3129415
51
0.4899112
0
ARC
8
DEFAULT_255_1_234
10
5.6487691
20
4.9428729
40
0.3078632
50
313.3793358
51
346.6225026
0
ARC
8
DEFAULT_255_1_234
10
5.6286878
20
4.9681522
40
0.3400404
50
281.1587967
51
312.9131091
0
ARC
8
DEFAULT_255_1_234
10
5.5946342
20
5.1176185
40
0.4932916
50
269.6424364
51
281.6795951
0
ARC
8
DEFAULT_255_1_234
10
5.5877706
20
5.1725382
40
0.5482147
50
258.9990078
51
270.3955952
0
ARC
8
DEFAULT_255_1_234
10
5.550301
20
4.9876746
40
0.359601
50
239.6256123
51
259.238693
0
ARC
8
DEFAULT_255_1_234
10
5.5214093
20
4.9331669
40
0.2979777
50
227.4959765
51
239.1188186
0
ARC
8
DEFAULT_255_1_234
10
5.5176659
20
4.9270689
40
0.2909561
50
191.339631
51
227.2280909
0
ARC
8
DEFAULT_255_1_234
10
5.65813
20
4.9603031
40
0.4352412
50
179.6086538
51
191.9934722
0
ARC
8
DEFAULT_255_1_234
10
5.6715322
20
4.9610427
40
0.2944324
50
179.5654258
51
192.070398
0
ARC
8
DEFAULT_255_1_234
10
5.5743812
20
4.9392079
40
0.194866
50
191.7656467
51
215.6461951
0
ARC
8
DEFAULT_255_1_234
10
5.5565313
20
4.9284546
40
0.1741017
50
216.1938368
51
224.3931108
0
ARC
8
DEFAULT_255_1_234
10
5.5572199
20
4.9311473
40
0.1764834
50
224.8613677
51
254.362656
0
ARC
8
DEFAULT_255_1_234
10
5.5842913
20
5.020601
40
0.2699302
50
253.9471729
51
267.3949949
0
ARC
8
DEFAULT_255_1_234
10
5.591342
20
5.1130067
40
0.362572
50
266.9456419
51
270.0337791
0
ARC
8
DEFAULT_255_1_234
10
5.59388
20
4.996823
40
0.2463991
50
269.4595111
51
286.1822844
0
ARC
8
DEFAULT_255_1_234
10
5.608009
20
4.9450047
40
0.1926982
50
286.4416479
51
315.8044008
0
ARC
8
DEFAULT_255_1_234
10
5.6025897
20
4.9492207
40
0.1995241
50
316.0212565
51
345.4794351
0
ARC
8
DEFAULT_255_1_234
10
5.5055404
20
4.9765575
40
0.3003349
50
345.0729543
51
358.325089
0
ARC
8
DEFAULT_255_1_234
10
5.4179375
20
4.9821568
40
0.3880759
50
357.8767804
51
359.5840246
0
LINE
8
DEFAULT_255_1_234
10
6.6734309
20
5.8154433
11
6.6734309
21
4.6404
0
LINE
8
DEFAULT_255_1_234
10
6.6734309
20
4.6404
11
6.5240405
21
4.6404
0
LINE
8
DEFAULT_255_1_234
10
6.5240405
20
4.6404
11
6.5240405
21
5.6307133
0
LINE
8
DEFAULT_255_1_234
10
6.5240405
20
5.6307133
11
6.2244567
21
5.5206785
0
LINE
8
DEFAULT_255_1_234
10
6.2244567
20
5.5206785
11
6.2244567
21
5.6556117
0
LINE
8
DEFAULT_255_1_234
10
6.2244567
20
5.6556117
11
6.6501388
21
5.8154433
0
LINE
8
DEFAULT_255_1_234
10
6.6501388
20
5.8154433
11
6.6734309
21
5.8154433
0
LINE
8
DEFAULT_255_1_234
10
7.4332333
20
5.1978026
11
7.4332333
21
5.0765234
0
LINE
8
DEFAULT_255_1_234
10
7.4332333
20
5.0765234
11
7.0412845
21
5.0765234
0
LINE
8
DEFAULT_255_1_234
10
7.0412845
20
5.0765234
11
7.0412845
21
5.1978026
0
LINE
8
DEFAULT_255_1_234
10
7.0412845
20
5.1978026
11
7.4332333
21
5.1978026
0
LINE
8
DEFAULT_255_1_234
10
5.1623292
20
13.7473211
11
5.1623292
21
13.6204196
0
LINE
8
DEFAULT_255_1_234
10
5.1623292
20
13.6204196
11
4.7864439
21
13.6204196
0
LINE
8
DEFAULT_255_1_234
10
4.7864439
20
13.6204196
11
4.7864439
21
12.5779
0
LINE
8
DEFAULT_255_1_234
10
4.7864439
20
12.5779
11
4.6330377
21
12.5779
0
LINE
8
DEFAULT_255_1_234
10
4.6330377
20
12.5779
11
4.6330377
21
13.6204196
0
LINE
8
DEFAULT_255_1_234
10
4.6330377
20
13.6204196
11
4.2579555
21
13.6204196
0
LINE
8
DEFAULT_255_1_234
10
4.2579555
20
13.6204196
11
4.2579555
21
13.7473211
0
LINE
8
DEFAULT_255_1_234
10
4.2579555
20
13.7473211
11
5.1623292
21
13.7473211
0
LINE
8
DEFAULT_255_1_234
10
6.0185125
20
12.9489663
11
6.1735251
21
12.9489663
0
LINE
8
DEFAULT_255_1_234
10
5.2731672
20
13.1079947
11
5.2731672
21
13.2204391
0
LINE
8
DEFAULT_255_1_234
10
6.1735251
20
13.3714357
11
6.0185125
21
13.3714357
0
LINE
8
DEFAULT_255_1_234
10
5.4281798
20
13.2164232
11
5.4281798
21
13.1031757
0
ARC
8
DEFAULT_255_1_234
10
5.6254638
20
13.0086846
40
0.5513052
50
340.1774281
51
353.7814284
0
ARC
8
DEFAULT_255_1_234
10
5.782599
20
12.9501582
40
0.3836379
50
311.4558989
51
340.4421614
0
ARC
8
DEFAULT_255_1_234
10
5.7792658
20
12.9612528
40
0.3941894
50
282.4333181
51
310.7513653
0
ARC
8
DEFAULT_255_1_234
10
5.7353398
20
13.1427679
40
0.5809175
50
269.9358511
51
282.809604
0
ARC
8
DEFAULT_255_1_234
10
5.7301464
20
13.2885212
40
0.7266847
50
270.0021091
51
270.3581957
0
ARC
8
DEFAULT_255_1_234
10
5.7248881
20
13.0284585
40
0.4666519
50
250.7884749
51
270.6489167
0
ARC
8
DEFAULT_255_1_234
10
5.7080715
20
12.9647319
40
0.4009729
50
219.3627325
51
250.0611886
0
ARC
8
DEFAULT_255_1_234
10
5.7909927
20
13.0352042
40
0.5097822
50
193.5479632
51
219.5756669
0
ARC
8
DEFAULT_255_1_234
10
6.0281547
20
13.0967919
40
0.7547848
50
181.1218675
51
193.87563
0
ARC
8
DEFAULT_255_1_234
10
6.2351728
20
13.107858
40
0.9620055
50
179.9918545
51
181.5394234
0
ARC
8
DEFAULT_255_1_234
10
6.050083
20
13.2241788
40
0.7769248
50
169.5837241
51
180.2757934
0
ARC
8
DEFAULT_255_1_234
10
5.8663769
20
13.2581229
40
0.590109
50
155.0365899
51
169.6003176
0
ARC
8
DEFAULT_255_1_234
10
5.7528232
20
13.3128677
40
0.4640625
50
136.783148
51
155.2472683
0
ARC
8
DEFAULT_255_1_234
10
5.7138709
20
13.3459562
40
0.4130255
50
121.7633186
51
136.428115
0
ARC
8
DEFAULT_255_1_234
10
5.7273672
20
13.3210227
40
0.4413323
50
95.6459699
51
121.5490577
0
ARC
8
DEFAULT_255_1_234
10
5.7430953
20
13.2101949
40
0.55319
50
89.924208
51
96.1377933
0
ARC
8
DEFAULT_255_1_234
10
5.7481386
20
13.2220542
40
0.5413475
50
76.6779277
51
90.4563316
0
ARC
8
DEFAULT_255_1_234
10
5.787501
20
13.3811114
40
0.3775041
50
47.485847
51
76.9287264
0
ARC
8
DEFAULT_255_1_234
10
5.7727982
20
13.3711159
40
0.3948286
50
16.5424086
51
46.8933463
0
ARC
8
DEFAULT_255_1_234
10
5.6120139
20
13.3182861
40
0.564021
50
5.4072051
51
17.0365086
0
ARC
8
DEFAULT_255_1_234
10
5.4681157
20
13.2951679
40
0.5556559
50
7.8891745
51
15.9239216
0
ARC
8
DEFAULT_255_1_234
10
5.666817
20
13.3528631
40
0.3487515
50
15.7653144
51
27.9410532
0
ARC
8
DEFAULT_255_1_234
10
5.7772388
20
13.411979
40
0.2235026
50
27.8166557
51
46.4008329
0
ARC
8
DEFAULT_255_1_234
10
5.7822031
20
13.4114082
40
0.2205286
50
47.4371857
51
75.0698205
0
ARC
8
DEFAULT_255_1_234
10
5.7513425
20
13.3039765
40
0.3322915
50
74.7008593
51
87.8124495
0
ARC
8
DEFAULT_255_1_234
10
5.7440113
20
13.1983844
40
0.4380987
50
87.3814673
51
90.0240855
0
ARC
8
DEFAULT_255_1_234
10
5.7401656
20
13.3161291
40
0.3203749
50
89.3451631
51
108.5745436
0
ARC
8
DEFAULT_255_1_234
10
5.7264761
20
13.3674908
40
0.2673494
50
109.2998449
51
143.3037509
0
ARC
8
DEFAULT_255_1_234
10
5.8026834
20
13.3088881
40
0.3634757
50
143.0753173
51
163.1916937
0
ARC
8
DEFAULT_255_1_234
10
5.9978561
20
13.2472967
40
0.5681262
50
162.9373603
51
174.6208611
0
ARC
8
DEFAULT_255_1_234
10
6.2604604
20
13.218501
40
0.8322832
50
174.3419979
51
180.1430411
0
ARC
8
DEFAULT_255_1_234
10
6.167376
20
13.0990698
40
0.7392076
50
179.6817502
51
189.150529
0
ARC
8
DEFAULT_255_1_234
10
5.9173008
20
13.057419
40
0.4856932
50
188.9910863
51
203.5773039
0
ARC
8
DEFAULT_255_1_234
10
5.8093341
20
13.0126211
40
0.3688271
50
203.9077269
51
215.1312379
0
ARC
8
DEFAULT_255_1_234
10
5.7170434
20
12.9410941
40
0.2522457
50
213.9071664
51
263.8849284
0
ARC
8
DEFAULT_255_1_234
10
5.7295764
20
13.0195518
40
0.3316174
50
263.1758525
51
270.1031083
0
ARC
8
DEFAULT_255_1_234
10
5.7327855
20
13.1442365
40
0.4563091
50
269.6719807
51
279.0609165
0
ARC
8
DEFAULT_255_1_234
10
5.7594623
20
12.9829907
40
0.2928759
50
278.8750225
51
293.6346586
0
ARC
8
DEFAULT_255_1_234
10
5.7914832
20
12.90779
40
0.2111472
50
293.8553404
51
310.0518804
0
ARC
8
DEFAULT_255_1_234
10
5.7919685
20
12.9015516
40
0.2060917
50
311.0646779
51
332.0108348
0
ARC
8
DEFAULT_255_1_234
10
5.6727412
20
12.9672978
40
0.3422352
50
331.6588543
51
343.2878891
0
ARC
8
DEFAULT_255_1_234
10
5.4664927
20
13.0306798
40
0.5580003
50
343.1446044
51
351.010618
0
ARC
8
DEFAULT_255_1_234
10
5.3123573
20
13.0587871
40
0.7146438
50
350.7157277
51
351.1602153
0
LINE
8
DEFAULT_255_1_234
10
7.1116321
20
12.6991792
11
7.1116321
21
12.5779
0
LINE
8
DEFAULT_255_1_234
10
7.1116321
20
12.5779
11
6.3454043
21
12.5779
0
LINE
8
DEFAULT_255_1_234
10
6.3454043
20
12.5779
11
6.3454043
21
12.6847221
0
LINE
8
DEFAULT_255_1_234
10
6.3454043
20
12.6847221
11
6.7502039
21
13.1344995
0
LINE
8
DEFAULT_255_1_234
10
6.4715026
20
13.4027595
11
6.3229154
21
13.4027595
0
LINE
8
DEFAULT_255_1_234
10
6.8377499
20
13.0389218
11
6.5245121
21
12.6991792
0
LINE
8
DEFAULT_255_1_234
10
6.5245121
20
12.6991792
11
7.1116321
21
12.6991792
0
ARC
8
DEFAULT_255_1_234
10
5.4011872
20
14.3274527
40
1.8008286
50
318.5132453
51
320.7828378
0
ARC
8
DEFAULT_255_1_234
10
5.9298847
20
13.8971426
40
1.1191493
50
320.7372736
51
323.9737074
0
ARC
8
DEFAULT_255_1_234
10
6.3218703
20
13.6131361
40
0.6350923
50
323.8961724
51
328.6421089
0
ARC
8
DEFAULT_255_1_234
10
6.5265299
20
13.4869031
40
0.3946393
50
328.8299013
51
331.789948
0
ARC
8
DEFAULT_255_1_234
10
6.6262477
20
13.4354509
40
0.2824501
50
331.4255242
51
352.9364833
0
ARC
8
DEFAULT_255_1_234
10
6.6398978
20
13.4323976
40
0.2685315
50
353.2248685
51
0.0169286
0
ARC
8
DEFAULT_255_1_234
10
6.6608854
20
13.434695
40
0.2475536
50
359.4866256
51
15.9339782
0
ARC
8
DEFAULT_255_1_234
10
6.711584
20
13.4483286
40
0.1950618
50
16.1714718
51
43.5284424
0
ARC
8
DEFAULT_255_1_234
10
6.7193148
20
13.4560573
40
0.184134
50
43.4415429
51
83.1661404
0
ARC
8
DEFAULT_255_1_234
10
6.7059067
20
13.3823771
40
0.258926
50
82.160215
51
90.1505798
0
ARC
8
DEFAULT_255_1_234
10
6.7027494
20
13.3286865
40
0.3126255
50
89.5460705
51
102.5418777
0
ARC
8
DEFAULT_255_1_234
10
6.678458
20
13.4317665
40
0.2067346
50
102.1739365
51
129.2061916
0
ARC
8
DEFAULT_255_1_234
10
6.6705652
20
13.4442094
40
0.1921118
50
129.7279328
51
135.7542026
0
ARC
8
DEFAULT_255_1_234
10
6.6827179
20
13.4345045
40
0.2075944
50
136.175737
51
166.3674722
0
ARC
8
DEFAULT_255_1_234
10
6.7834099
20
13.4075182
40
0.3118201
50
165.9092917
51
178.8683903
0
ARC
8
DEFAULT_255_1_234
10
6.869896
20
13.4028179
40
0.3983935
50
178.438168
51
180.0083905
0
ARC
8
DEFAULT_255_1_234
10
6.7297562
20
13.4067231
40
0.4068601
50
163.2878735
51
180.5581814
0
ARC
8
DEFAULT_255_1_234
10
6.6495823
20
13.428784
40
0.3237344
50
133.454115
51
162.9470031
0
ARC
8
DEFAULT_255_1_234
10
6.6674365
20
13.4098
40
0.349795
50
100.7869394
51
133.4384016
0
ARC
8
DEFAULT_255_1_234
10
6.7022136
20
13.2549319
40
0.5084616
50
89.6605301
51
101.3704185
0
ARC
8
DEFAULT_255_1_234
10
6.7088475
20
13.2610496
40
0.502348
50
78.2171172
51
90.4130393
0
ARC
8
DEFAULT_255_1_234
10
6.7443553
20
13.4234637
40
0.3361092
50
55.9268222
51
78.4888551
0
ARC
8
DEFAULT_255_1_234
10
6.7639994
20
13.4573324
40
0.2970617
50
47.9292255
51
55.4054003
0
ARC
8
DEFAULT_255_1_234
10
6.7741554
20
13.4676502
40
0.2825983
50
4.3347696
51
48.0560701
0
ARC
8
DEFAULT_255_1_234
10
6.6645948
20
13.4506601
40
0.393225
50
359.925209
51
5.5967654
0
ARC
8
DEFAULT_255_1_234
10
6.707484
20
13.4562816
40
0.3503892
50
337.8914096
51
358.9967724
0
ARC
8
DEFAULT_255_1_234
10
6.4361252
20
13.5609706
40
0.6412172
50
326.9135351
51
338.3505194
0
ARC
8
DEFAULT_255_1_234
10
6.0375555
20
13.8164284
40
1.1146189
50
319.6472867
51
327.095818
0
ARC
8
DEFAULT_255_1_234
10
5.6542559
20
14.1326
40
1.6114559
50
317.2586784
51
319.9046139
0
LINE
8
DEFAULT_255_1_234
10
7.5935364
20
13.1353026
11
7.5935364
21
13.0140234
0
LINE
8
DEFAULT_255_1_234
10
7.5935364
20
13.0140234
11
7.2015876
21
13.0140234
0
LINE
8
DEFAULT_255_1_234
10
7.2015876
20
13.0140234
11
7.2015876
21
13.1353026
0
LINE
8
DEFAULT_255_1_234
10
7.2015876
20
13.1353026
11
7.5935364
21
13.1353026
0
LINE
8
DEFAULT_255_1_234
10
5.1623292
20
21.6848211
11
5.1623292
21
21.5579196
0
LINE
8
DEFAULT_255_1_234
10
5.1623292
20
21.5579196
11
4.7864439
21
21.5579196
0
LINE
8
DEFAULT_255_1_234
10
4.7864439
20
21.5579196
11
4.7864439
21
20.5154
0
LINE
8
DEFAULT_255_1_234
10
4.7864439
20
20.5154
11
4.6330377
21
20.5154
0
LINE
8
DEFAULT_255_1_234
10
4.6330377
20
20.5154
11
4.6330377
21
21.5579196
0
LINE
8
DEFAULT_255_1_234
10
4.6330377
20
21.5579196
11
4.2579555
21
21.5579196
0
LINE
8
DEFAULT_255_1_234
10
4.2579555
20
21.5579196
11
4.2579555
21
21.6848211
0
LINE
8
DEFAULT_255_1_234
10
4.2579555
20
21.6848211
11
5.1623292
21
21.6848211
0
LINE
8
DEFAULT_255_1_234
10
6.0185125
20
20.8864663
11
6.1735251
21
20.8864663
0
LINE
8
DEFAULT_255_1_234
10
5.2731672
20
21.0454947
11
5.2731672
21
21.1579391
0
LINE
8
DEFAULT_255_1_234
10
6.1735251
20
21.3089357
11
6.0185125
21
21.3089357
0
LINE
8
DEFAULT_255_1_234
10
5.4281798
20
21.1539232
11
5.4281798
21
21.0406757
0
ARC
8
DEFAULT_255_1_234
10
5.6254638
20
20.9461846
40
0.5513052
50
340.1774281
51
353.7814284
0
ARC
8
DEFAULT_255_1_234
10
5.782599
20
20.8876582
40
0.3836379
50
311.4558989
51
340.4421614
0
ARC
8
DEFAULT_255_1_234
10
5.7792658
20
20.8987528
40
0.3941894
50
282.4333181
51
310.7513653
0
ARC
8
DEFAULT_255_1_234
10
5.7353398
20
21.0802679
40
0.5809175
50
269.9358511
51
282.809604
0
ARC
8
DEFAULT_255_1_234
10
5.7301464
20
21.2260212
40
0.7266847
50
270.0021091
51
270.3581957
0
ARC
8
DEFAULT_255_1_234
10
5.7248881
20
20.9659585
40
0.4666519
50
250.7884749
51
270.6489167
0
ARC
8
DEFAULT_255_1_234
10
5.7080715
20
20.9022319
40
0.4009729
50
219.3627325
51
250.0611886
0
ARC
8
DEFAULT_255_1_234
10
5.7909927
20
20.9727042
40
0.5097822
50
193.5479632
51
219.5756669
0
ARC
8
DEFAULT_255_1_234
10
6.0281547
20
21.0342919
40
0.7547848
50
181.1218675
51
193.87563
0
ARC
8
DEFAULT_255_1_234
10
6.2351728
20
21.045358
40
0.9620055
50
179.9918545
51
181.5394234
0
ARC
8
DEFAULT_255_1_234
10
6.050083
20
21.1616788
40
0.7769248
50
169.5837241
51
180.2757934
0
ARC
8
DEFAULT_255_1_234
10
5.8663769
20
21.1956229
40
0.590109
50
155.0365899
51
169.6003176
0
ARC
8
DEFAULT_255_1_234
10
5.7528232
20
21.2503677
40
0.4640625
50
136.783148
51
155.2472683
0
ARC
8
DEFAULT_255_1_234
10
5.7138709
20
21.2834562
40
0.4130255
50
121.7633186
51
136.428115
0
ARC
8
DEFAULT_255_1_234
10
5.7273672
20
21.2585227
40
0.4413323
50
95.6459699
51
121.5490577
0
ARC
8
DEFAULT_255_1_234
10
5.7430953
20
21.1476949
40
0.55319
50
89.924208
51
96.1377933
0
ARC
8
DEFAULT_255_1_234
10
5.7481386
20
21.1595542
40
0.5413475
50
76.6779277
51
90.4563316
0
ARC
8
DEFAULT_255_1_234
10
5.787501
20
21.3186114
40
0.3775041
50
47.485847
51
76.9287264
0
ARC
8
DEFAULT_255_1_234
10
5.7727982
20
21.3086159
40
0.3948286
50
16.5424086
51
46.8933463
0
ARC
8
DEFAULT_255_1_234
10
5.6120139
20
21.2557861
40
0.564021
50
5.4072051
51
17.0365086
0
ARC
8
DEFAULT_255_1_234
10
5.4681157
20
21.2326679
40
0.5556559
50
7.8891745
51
15.9239216
0
ARC
8
DEFAULT_255_1_234
10
5.666817
20
21.2903631
40
0.3487515
50
15.7653144
51
27.9410532
0
ARC
8
DEFAULT_255_1_234
10
5.7772388
20
21.349479
40
0.2235026
50
27.8166557
51
46.4008329
0
ARC
8
DEFAULT_255_1_234
10
5.7822031
20
21.3489082
40
0.2205286
50
47.4371857
51
75.0698205
0
ARC
8
DEFAULT_255_1_234
10
5.7513425
20
21.2414765
40
0.3322915
50
74.7008593
51
87.8124495
0
ARC
8
DEFAULT_255_1_234
10
5.7440113
20
21.1358844
40
0.4380987
50
87.3814673
51
90.0240855
0
ARC
8
DEFAULT_255_1_234
10
5.7401656
20
21.2536291
40
0.3203749
50
89.3451631
51
108.5745436
0
ARC
8
DEFAULT_255_1_234
10
5.7264761
20
21.3049908
40
0.2673494
50
109.2998449
51
143.3037509
0
ARC
8
DEFAULT_255_1_234
10
5.8026834
20
21.2463881
40
0.3634757
50
143.0753173
51
163.1916937
0
ARC
8
DEFAULT_255_1_234
10
5.9978561
20
21.1847967
40
0.5681262
50
162.9373603
51
174.6208611
0
ARC
8
DEFAULT_255_1_234
10
6.2604604
20
21.156001
40
0.8322832
50
174.3419979
51
180.1430411
0
ARC
8
DEFAULT_255_1_234
10
6.167376
20
21.0365698
40
0.7392076
50
179.6817502
51
189.150529
0
ARC
8
DEFAULT_255_1_234
10
5.9173008
20
20.994919
40
0.4856932
50
188.9910863
51
203.5773039
0
ARC
8
DEFAULT_255_1_234
10
5.8093341
20
20.9501211
40
0.3688271
50
203.9077269
51
215.1312379
0
ARC
8
DEFAULT_255_1_234
10
5.7170434
20
20.8785941
40
0.2522457
50
213.9071664
51
263.8849284
0
ARC
8
DEFAULT_255_1_234
10
5.7295764
20
20.9570518
40
0.3316174
50
263.1758525
51
270.1031083
0
ARC
8
DEFAULT_255_1_234
10
5.7327855
20
21.0817365
40
0.4563091
50
269.6719807
51
279.0609165
0
ARC
8
DEFAULT_255_1_234
10
5.7594623
20
20.9204907
40
0.2928759
50
278.8750225
51
293.6346586
0
ARC
8
DEFAULT_255_1_234
10
5.7914832
20
20.84529
40
0.2111472
50
293.8553404
51
310.0518804
0
ARC
8
DEFAULT_255_1_234
10
5.7919685
20
20.8390516
40
0.2060917
50
311.0646779
51
332.0108348
0
ARC
8
DEFAULT_255_1_234
10
5.6727412
20
20.9047978
40
0.3422352
50
331.6588543
51
343.2878891
0
ARC
8
DEFAULT_255_1_234
10
5.4664927
20
20.9681798
40
0.5580003
50
343.1446044
51
351.010618
0
ARC
8
DEFAULT_255_1_234
10
5.3123573
20
20.9962871
40
0.7146438
50
350.7157277
51
351.1602153
0
LINE
8
DEFAULT_255_1_234
10
6.833734
20
21.6904433
11
6.833734
21
20.5154
0
LINE
8
DEFAULT_255_1_234
10
6.833734
20
20.5154
11
6.6843437
21
20.5154
0
LINE
8
DEFAULT_255_1_234
10
6.6843437
20
20.5154
11
6.6843437
21
21.5057133
0
LINE
8
DEFAULT_255_1_234
10
6.6843437
20
21.5057133
11
6.3847598
21
21.3956785
0
LINE
8
DEFAULT_255_1_234
10
6.3847598
20
21.3956785
11
6.3847598
21
21.5306117
0
LINE
8
DEFAULT_255_1_234
10
6.3847598
20
21.5306117
11
6.8104419
21
21.6904433
0
LINE
8
DEFAULT_255_1_234
10
6.8104419
20
21.6904433
11
6.833734
21
21.6904433
0
LINE
8
DEFAULT_255_1_234
10
7.5935364
20
21.0728026
11
7.5935364
21
20.9515234
0
LINE
8
DEFAULT_255_1_234
10
7.5935364
20
20.9515234
11
7.2015876
21
20.9515234
0
LINE
8
DEFAULT_255_1_234
10
7.2015876
20
20.9515234
11
7.2015876
21
21.0728026
0
LINE
8
DEFAULT_255_1_234
10
7.2015876
20
21.0728026
11
7.5935364
21
21.0728026
0
LINE
8
DEFAULT_255_1_234
10
4.922523
20
28.8239663
11
5.0775355
21
28.8239663
0
LINE
8
DEFAULT_255_1_234
10
4.1771777
20
28.9829947
11
4.1771777
21
29.0954391
0
LINE
8
DEFAULT_255_1_234
10
5.0775355
20
29.2464357
11
4.922523
21
29.2464357
0
LINE
8
DEFAULT_255_1_234
10
4.3321902
20
29.0914232
11
4.3321902
21
28.9781757
0
ARC
8
DEFAULT_255_1_234
10
4.5294742
20
28.8836846
40
0.5513052
50
340.1774281
51
353.7814284
0
ARC
8
DEFAULT_255_1_234
10
4.6866095
20
28.8251582
40
0.3836379
50
311.4558989
51
340.4421614
0
ARC
8
DEFAULT_255_1_234
10
4.6832763
20
28.8362528
40
0.3941894
50
282.4333181
51
310.7513653
0
ARC
8
DEFAULT_255_1_234
10
4.6393502
20
29.0177679
40
0.5809175
50
269.9358511
51
282.809604
0
ARC
8
DEFAULT_255_1_234
10
4.6341568
20
29.1635212
40
0.7266847
50
270.0021091
51
270.3581957
0
ARC
8
DEFAULT_255_1_234
10
4.6288985
20
28.9034585
40
0.4666519
50
250.7884749
51
270.6489167
0
ARC
8
DEFAULT_255_1_234
10
4.612082
20
28.8397319
40
0.4009729
50
219.3627325
51
250.0611886
0
ARC
8
DEFAULT_255_1_234
10
4.6950031
20
28.9102042
40
0.5097822
50
193.5479632
51
219.5756669
0
ARC
8
DEFAULT_255_1_234
10
4.9321652
20
28.9717919
40
0.7547848
50
181.1218675
51
193.87563
0
ARC
8
DEFAULT_255_1_234
10
5.1391833
20
28.982858
40
0.9620055
50
179.9918545
51
181.5394234
0
ARC
8
DEFAULT_255_1_234
10
4.9540935
20
29.0991788
40
0.7769248
50
169.5837241
51
180.2757934
0
ARC
8
DEFAULT_255_1_234
10
4.7703873
20
29.1331229
40
0.590109
50
155.0365899
51
169.6003176
0
ARC
8
DEFAULT_255_1_234
10
4.6568337
20
29.1878677
40
0.4640625
50
136.783148
51
155.2472683
0
ARC
8
DEFAULT_255_1_234
10
4.6178814
20
29.2209562
40
0.4130255
50
121.7633186
51
136.428115
0
ARC
8
DEFAULT_255_1_234
10
4.6313776
20
29.1960227
40
0.4413323
50
95.6459699
51
121.5490577
0
ARC
8
DEFAULT_255_1_234
10
4.6471058
20
29.0851949
40
0.55319
50
89.924208
51
96.1377933
0
ARC
8
DEFAULT_255_1_234
10
4.6521491
20
29.0970542
40
0.5413475
50
76.6779277
51
90.4563316
0
ARC
8
DEFAULT_255_1_234
10
4.6915114
20
29.2561114
40
0.3775041
50
47.485847
51
76.9287264
0
ARC
8
DEFAULT_255_1_234
10
4.6768087
20
29.2461159
40
0.3948286
50
16.5424086
51
46.8933463
0
ARC
8
DEFAULT_255_1_234
10
4.5160244
20
29.1932861
40
0.564021
50
5.4072051
51
17.0365086
0
ARC
8
DEFAULT_255_1_234
10
4.3721261
20
29.1701679
40
0.5556559
50
7.8891745
51
15.9239216
0
ARC
8
DEFAULT_255_1_234
10
4.5708274
20
29.2278631
40
0.3487515
50
15.7653144
51
27.9410532
0
ARC
8
DEFAULT_255_1_234
10
4.6812492
20
29.286979
40
0.2235026
50
27.8166557
51
46.4008329
0
ARC
8
DEFAULT_255_1_234
10
4.6862135
20
29.2864082
40
0.2205286
50
47.4371857
51
75.0698205
0
ARC
8
DEFAULT_255_1_234
10
4.6553529
20
29.1789765
40
0.3322915
50
74.7008593
51
87.8124495
0
ARC
8
DEFAULT_255_1_234
10
4.6480217
20
29.0733844
40
0.4380987
50
87.3814673
51
90.0240855
0
ARC
8
DEFAULT_255_1_234
10
4.644176
20
29.1911291
40
0.3203749
50
89.3451631
51
108.5745436
0
ARC
8
DEFAULT_255_1_234
10
4.6304865
20
29.2424908
40
0.2673494
50
109.2998449
51
143.3037509
0
ARC
8
DEFAULT_255_1_234
10
4.7066938
20
29.1838881
40
0.3634757
50
143.0753173
51
163.1916937
0
ARC
8
DEFAULT_255_1_234
10
4.9018666
20
29.1222967
40
0.5681262
50
162.9373603
51
174.6208611
0
ARC
8
DEFAULT_255_1_234
10
5.1644708
20
29.093501
40
0.8322832
50
174.3419979
51
180.1430411
0
ARC
8
DEFAULT_255_1_234
10
5.0713864
20
28.9740698
40
0.7392076
50
179.6817502
51
189.150529
0
ARC
8
DEFAULT_255_1_234
10
4.8213112
20
28.932419
40
0.4856932
50
188.9910863
51
203.5773039
0
ARC
8
DEFAULT_255_1_234
10
4.7133445
20
28.8876211
40
0.3688271
50
203.9077269
51
215.1312379
0
ARC
8
DEFAULT_255_1_234
10
4.6210539
20
28.8160941
40
0.2522457
50
213.9071664
51
263.8849284
0
ARC
8
DEFAULT_255_1_234
10
4.6335868
20
28.8945518
40
0.3316174
50
263.1758525
51
270.1031083
0
ARC
8
DEFAULT_255_1_234
10
4.636796
20
29.0192365
40
0.4563091
50
269.6719807
51
279.0609165
0
ARC
8
DEFAULT_255_1_234
10
4.6634728
20
28.8579907
40
0.2928759
50
278.8750225
51
293.6346586
0
ARC
8
DEFAULT_255_1_234
10
4.6954936
20
28.78279
40
0.2111472
50
293.8553404
51
310.0518804
0
ARC
8
DEFAULT_255_1_234
10
4.695979
20
28.7765516
40
0.2060917
50
311.0646779
51
332.0108348
0
ARC
8
DEFAULT_255_1_234
10
4.5767517
20
28.8422978
40
0.3422352
50
331.6588543
51
343.2878891
0
ARC
8
DEFAULT_255_1_234
10
4.3705032
20
28.9056798
40
0.5580003
50
343.1446044
51
351.010618
0
ARC
8
DEFAULT_255_1_234
10
4.2163678
20
28.9337871
40
0.7146438
50
350.7157277
51
351.1602153
0
LINE
8
DEFAULT_255_1_234
10
5.7779031
20
28.7918394
11
5.7779031
21
29.6223211
0
LINE
8
DEFAULT_255_1_234
10
5.7779031
20
29.6223211
11
5.9329157
21
29.6223211
0
LINE
8
DEFAULT_255_1_234
10
5.9329157
20
29.6223211
11
5.9329157
21
28.7942489
0
LINE
8
DEFAULT_255_1_234
10
5.1947989
20
28.7757759
11
5.3490083
21
28.7757759
0
ARC
8
DEFAULT_255_1_234
10
5.4838342
20
28.7904089
40
0.4490979
50
346.3129415
51
0.4899112
0
ARC
8
DEFAULT_255_1_234
10
5.6206691
20
28.7553729
40
0.3078632
50
313.3793358
51
346.6225026
0
ARC
8
DEFAULT_255_1_234
10
5.6005878
20
28.7806522
40
0.3400404
50
281.1587967
51
312.9131091
0
ARC
8
DEFAULT_255_1_234
10
5.5665342
20
28.9301185
40
0.4932916
50
269.6424364
51
281.6795951
0
ARC
8
DEFAULT_255_1_234
10
5.5596706
20
28.9850382
40
0.5482147
50
258.9990078
51
270.3955952
0
ARC
8
DEFAULT_255_1_234
10
5.522201
20
28.8001746
40
0.359601
50
239.6256123
51
259.238693
0
ARC
8
DEFAULT_255_1_234
10
5.4933093
20
28.7456669
40
0.2979777
50
227.4959765
51
239.1188186
0
ARC
8
DEFAULT_255_1_234
10
5.4895659
20
28.7395689
40
0.2909561
50
191.339631
51
227.2280909
0
ARC
8
DEFAULT_255_1_234
10
5.63003
20
28.7728031
40
0.4352412
50
179.6086538
51
191.9934722
0
ARC
8
DEFAULT_255_1_234
10
5.6434322
20
28.7735427
40
0.2944324
50
179.5654258
51
192.070398
0
ARC
8
DEFAULT_255_1_234
10
5.5462812
20
28.7517079
40
0.194866
50
191.7656467
51
215.6461951
0
ARC
8
DEFAULT_255_1_234
10
5.5284313
20
28.7409546
40
0.1741017
50
216.1938368
51
224.3931108
0
ARC
8
DEFAULT_255_1_234
10
5.5291199
20
28.7436473
40
0.1764834
50
224.8613677
51
254.362656
0
ARC
8
DEFAULT_255_1_234
10
5.5561913
20
28.833101
40
0.2699302
50
253.9471729
51
267.3949949
0
ARC
8
DEFAULT_255_1_234
10
5.563242
20
28.9255067
40
0.362572
50
266.9456419
51
270.0337791
0
ARC
8
DEFAULT_255_1_234
10
5.56578
20
28.809323
40
0.2463991
50
269.4595111
51
286.1822844
0
ARC
8
DEFAULT_255_1_234
10
5.579909
20
28.7575047
40
0.1926982
50
286.4416479
51
315.8044008
0
ARC
8
DEFAULT_255_1_234
10
5.5744897
20
28.7617207
40
0.1995241
50
316.0212565
51
345.4794351
0
ARC
8
DEFAULT_255_1_234
10
5.4774404
20
28.7890575
40
0.3003349
50
345.0729543
51
358.325089
0
ARC
8
DEFAULT_255_1_234
10
5.3898375
20
28.7946568
40
0.3880759
50
357.8767804
51
359.5840246
0
LINE
8
DEFAULT_255_1_234
10
6.6453309
20
29.6279433
11
6.6453309
21
28.4529
0
LINE
8
DEFAULT_255_1_234
10
6.6453309
20
28.4529
11
6.4959405
21
28.4529
0
LINE
8
DEFAULT_255_1_234
10
6.4959405
20
28.4529
11
6.4959405
21
29.4432133
0
LINE
8
DEFAULT_255_1_234
10
6.4959405
20
29.4432133
11
6.1963567
21
29.3331785
0
LINE
8
DEFAULT_255_1_234
10
6.1963567
20
29.3331785
11
6.1963567
21
29.4681117
0
LINE
8
DEFAULT_255_1_234
10
6.1963567
20
29.4681117
11
6.6220388
21
29.6279433
0
LINE
8
DEFAULT_255_1_234
10
6.6220388
20
29.6279433
11
6.6453309
21
29.6279433
0
LINE
8
DEFAULT_255_1_234
10
7.5215935
20
29.4215276
11
7.5215935
21
29.0801788
0
LINE
8
DEFAULT_255_1_234
10
7.5215935
20
29.0801788
11
7.8476821
21
29.0801788
0
LINE
8
DEFAULT_255_1_234
10
7.8476821
20
29.0801788
11
7.8476821
21
28.9396233
0
LINE
8
DEFAULT_255_1_234
10
7.8476821
20
28.9396233
11
7.5215935
21
28.9396233
0
LINE
8
DEFAULT_255_1_234
10
7.5215935
20
28.9396233
11
7.5215935
21
28.5701634
0
LINE
8
DEFAULT_255_1_234
10
7.5215935
20
28.5701634
11
7.3722032
21
28.5701634
0
LINE
8
DEFAULT_255_1_234
10
7.3722032
20
28.5701634
11
7.3722032
21
28.9396233
0
LINE
8
DEFAULT_255_1_234
10
7.3722032
20
28.9396233
11
7.0461146
21
28.9396233
0
LINE
8
DEFAULT_255_1_234
10
7.0461146
20
28.9396233
11
7.0461146
21
29.0801788
0
LINE
8
DEFAULT_255_1_234
10
7.0461146
20
29.0801788
11
7.3722032
21
29.0801788
0
LINE
8
DEFAULT_255_1_234
10
7.3722032
20
29.0801788
11
7.3722032
21
29.4215276
0
LINE
8
DEFAULT_255_1_234
10
7.3722032
20
29.4215276
11
7.5215935
21
29.4215276
0
LINE
8
DEFAULT_255_1_234
10
5.1342292
20
37.5598211
11
5.1342292
21
37.4329196
0
LINE
8
DEFAULT_255_1_234
10
5.1342292
20
37.4329196
11
4.7583439
21
37.4329196
0
LINE
8
DEFAULT_255_1_234
10
4.7583439
20
37.4329196
11
4.7583439
21
36.3904
0
LINE
8
DEFAULT_255_1_234
10
4.7583439
20
36.3904
11
4.6049377
21
36.3904
0
LINE
8
DEFAULT_255_1_234
10
4.6049377
20
36.3904
11
4.6049377
21
37.4329196
0
LINE
8
DEFAULT_255_1_234
10
4.6049377
20
37.4329196
11
4.2298555
21
37.4329196
0
LINE
8
DEFAULT_255_1_234
10
4.2298555
20
37.4329196
11
4.2298555
21
37.5598211
0
LINE
8
DEFAULT_255_1_234
10
4.2298555
20
37.5598211
11
5.1342292
21
37.5598211
0
LINE
8
DEFAULT_255_1_234
10
5.9904125
20
36.7614663
11
6.1454251
21
36.7614663
0
LINE
8
DEFAULT_255_1_234
10
5.2450672
20
36.9204947
11
5.2450672
21
37.0329391
0
LINE
8
DEFAULT_255_1_234
10
6.1454251
20
37.1839357
11
5.9904125
21
37.1839357
0
LINE
8
DEFAULT_255_1_234
10
5.4000798
20
37.0289232
11
5.4000798
21
36.9156757
0
ARC
8
DEFAULT_255_1_234
10
5.5973638
20
36.8211846
40
0.5513052
50
340.1774281
51
353.7814284
0
ARC
8
DEFAULT_255_1_234
10
5.754499
20
36.7626582
40
0.3836379
50
311.4558989
51
340.4421614
0
ARC
8
DEFAULT_255_1_234
10
5.7511658
20
36.7737528
40
0.3941894
50
282.4333181
51
310.7513653
0
ARC
8
DEFAULT_255_1_234
10
5.7072398
20
36.9552679
40
0.5809175
50
269.9358511
51
282.809604
0
ARC
8
DEFAULT_255_1_234
10
5.7020464
20
37.1010212
40
0.7266847
50
270.0021091
51
270.3581957
0
ARC
8
DEFAULT_255_1_234
10
5.6967881
20
36.8409585
40
0.4666519
50
250.7884749
51
270.6489167
0
ARC
8
DEFAULT_255_1_234
10
5.6799715
20
36.7772319
40
0.4009729
50
219.3627325
51
250.0611886
0
ARC
8
DEFAULT_255_1_234
10
5.7628927
20
36.8477042
40
0.5097822
50
193.5479632
51
219.5756669
0
ARC
8
DEFAULT_255_1_234
10
6.0000547
20
36.9092919
40
0.7547848
50
181.1218675
51
193.87563
0
ARC
8
DEFAULT_255_1_234
10
6.2070728
20
36.920358
40
0.9620055
50
179.9918545
51
181.5394234
0
ARC
8
DEFAULT_255_1_234
10
6.021983
20
37.0366788
40
0.7769248
50
169.5837241
51
180.2757934
0
ARC
8
DEFAULT_255_1_234
10
5.8382769
20
37.0706229
40
0.590109
50
155.0365899
51
169.6003176
0
ARC
8
DEFAULT_255_1_234
10
5.7247232
20
37.1253677
40
0.4640625
50
136.783148
51
155.2472683
0
ARC
8
DEFAULT_255_1_234
10
5.6857709
20
37.1584562
40
0.4130255
50
121.7633186
51
136.428115
0
ARC
8
DEFAULT_255_1_234
10
5.6992672
20
37.1335227
40
0.4413323
50
95.6459699
51
121.5490577
0
ARC
8
DEFAULT_255_1_234
10
5.7149953
20
37.0226949
40
0.55319
50
89.924208
51
96.1377933
0
ARC
8
DEFAULT_255_1_234
10
5.7200386
20
37.0345542
40
0.5413475
50
76.6779277
51
90.4563316
0
ARC
8
DEFAULT_255_1_234
10
5.759401
20
37.1936114
40
0.3775041
50
47.485847
51
76.9287264
0
ARC
8
DEFAULT_255_1_234
10
5.7446982
20
37.1836159
40
0.3948286
50
16.5424086
51
46.8933463
0
ARC
8
DEFAULT_255_1_234
10
5.5839139
20
37.1307861
40
0.564021
50
5.4072051
51
17.0365086
0
ARC
8
DEFAULT_255_1_234
10
5.4400157
20
37.1076679
40
0.5556559
50
7.8891745
51
15.9239216
0
ARC
8
DEFAULT_255_1_234
10
5.638717
20
37.1653631
40
0.3487515
50
15.7653144
51
27.9410532
0
ARC
8
DEFAULT_255_1_234
10
5.7491388
20
37.224479
40
0.2235026
50
27.8166557
51
46.4008329
0
ARC
8
DEFAULT_255_1_234
10
5.7541031
20
37.2239082
40
0.2205286
50
47.4371857
51
75.0698205
0
ARC
8
DEFAULT_255_1_234
10
5.7232425
20
37.1164765
40
0.3322915
50
74.7008593
51
87.8124495
0
ARC
8
DEFAULT_255_1_234
10
5.7159113
20
37.0108844
40
0.4380987
50
87.3814673
51
90.0240855
0
ARC
8
DEFAULT_255_1_234
10
5.7120656
20
37.1286291
40
0.3203749
50
89.3451631
51
108.5745436
0
ARC
8
DEFAULT_255_1_234
10
5.6983761
20
37.1799908
40
0.2673494
50
109.2998449
51
143.3037509
0
ARC
8
DEFAULT_255_1_234
10
5.7745834
20
37.1213881
40
0.3634757
50
143.0753173
51
163.1916937
0
ARC
8
DEFAULT_255_1_234
10
5.9697561
20
37.0597967
40
0.5681262
50
162.9373603
51
174.6208611
0
ARC
8
DEFAULT_255_1_234
10
6.2323604
20
37.031001
40
0.8322832
50
174.3419979
51
180.1430411
0
ARC
8
DEFAULT_255_1_234
10
6.139276
20
36.9115698
40
0.7392076
50
179.6817502
51
189.150529
0
ARC
8
DEFAULT_255_1_234
10
5.8892008
20
36.869919
40
0.4856932
50
188.9910863
51
203.5773039
0
ARC
8
DEFAULT_255_1_234
10
5.7812341
20
36.8251211
40
0.3688271
50
203.9077269
51
215.1312379
0
ARC
8
DEFAULT_255_1_234
10
5.6889434
20
36.7535941
40
0.2522457
50
213.9071664
51
263.8849284
0
ARC
8
DEFAULT_255_1_234
10
5.7014764
20
36.8320518
40
0.3316174
50
263.1758525
51
270.1031083
0
ARC
8
DEFAULT_255_1_234
10
5.7046855
20
36.9567365
40
0.4563091
50
269.6719807
51
279.0609165
0
ARC
8
DEFAULT_255_1_234
10
5.7313623
20
36.7954907
40
0.2928759
50
278.8750225
51
293.6346586
0
ARC
8
DEFAULT_255_1_234
10
5.7633832
20
36.72029
40
0.2111472
50
293.8553404
51
310.0518804
0
ARC
8
DEFAULT_255_1_234
10
5.7638685
20
36.7140516
40
0.2060917
50
311.0646779
51
332.0108348
0
ARC
8
DEFAULT_255_1_234
10
5.6446412
20
36.7797978
40
0.3422352
50
331.6588543
51
343.2878891
0
ARC
8
DEFAULT_255_1_234
10
5.4383927
20
36.8431798
40
0.5580003
50
343.1446044
51
351.010618
0
ARC
8
DEFAULT_255_1_234
10
5.2842573
20
36.8712871
40
0.7146438
50
350.7157277
51
351.1602153
0
LINE
8
DEFAULT_255_1_234
10
7.0835321
20
36.5116792
11
7.0835321
21
36.3904
0
LINE
8
DEFAULT_255_1_234
10
7.0835321
20
36.3904
11
6.3173043
21
36.3904
0
LINE
8
DEFAULT_255_1_234
10
6.3173043
20
36.3904
11
6.3173043
21
36.4972221
0
LINE
8
DEFAULT_255_1_234
10
6.3173043
20
36.4972221
11
6.7221039
21
36.9469995
0
LINE
8
DEFAULT_255_1_234
10
6.4434026
20
37.2152595
11
6.2948154
21
37.2152595
0
LINE
8
DEFAULT_255_1_234
10
6.8096499
20
36.8514218
11
6.4964121
21
36.5116792
0
LINE
8
DEFAULT_255_1_234
10
6.4964121
20
36.5116792
11
7.0835321
21
36.5116792
0
ARC
8
DEFAULT_255_1_234
10
5.3730872
20
38.1399527
40
1.8008286
50
318.5132453
51
320.7828378
0
ARC
8
DEFAULT_255_1_234
10
5.9017847
20
37.7096426
40
1.1191493
50
320.7372736
51
323.9737074
0
ARC
8
DEFAULT_255_1_234
10
6.2937703
20
37.4256361
40
0.6350923
50
323.8961724
51
328.6421089
0
ARC
8
DEFAULT_255_1_234
10
6.4984299
20
37.2994031
40
0.3946393
50
328.8299013
51
331.789948
0
ARC
8
DEFAULT_255_1_234
10
6.5981477
20
37.2479509
40
0.2824501
50
331.4255242
51
352.9364833
0
ARC
8
DEFAULT_255_1_234
10
6.6117978
20
37.2448976
40
0.2685315
50
353.2248685
51
0.0169286
0
ARC
8
DEFAULT_255_1_234
10
6.6327854
20
37.247195
40
0.2475536
50
359.4866256
51
15.9339782
0
ARC
8
DEFAULT_255_1_234
10
6.683484
20
37.2608286
40
0.1950618
50
16.1714718
51
43.5284424
0
ARC
8
DEFAULT_255_1_234
10
6.6912148
20
37.2685573
40
0.184134
50
43.4415429
51
83.1661404
0
ARC
8
DEFAULT_255_1_234
10
6.6778067
20
37.1948771
40
0.258926
50
82.160215
51
90.1505798
0
ARC
8
DEFAULT_255_1_234
10
6.6746494
20
37.1411865
40
0.3126255
50
89.5460705
51
102.5418777
0
ARC
8
DEFAULT_255_1_234
10
6.650358
20
37.2442665
40
0.2067346
50
102.1739365
51
129.2061916
0
ARC
8
DEFAULT_255_1_234
10
6.6424652
20
37.2567094
40
0.1921118
50
129.7279328
51
135.7542026
0
ARC
8
DEFAULT_255_1_234
10
6.6546179
20
37.2470045
40
0.2075944
50
136.175737
51
166.3674722
0
ARC
8
DEFAULT_255_1_234
10
6.7553099
20
37.2200182
40
0.3118201
50
165.9092917
51
178.8683903
0
ARC
8
DEFAULT_255_1_234
10
6.841796
20
37.2153179
40
0.3983935
50
178.438168
51
180.0083905
0
ARC
8
DEFAULT_255_1_234
10
6.7016562
20
37.2192231
40
0.4068601
50
163.2878735
51
180.5581814
0
ARC
8
DEFAULT_255_1_234
10
6.6214823
20
37.241284
40
0.3237344
50
133.454115
51
162.9470031
0
ARC
8
DEFAULT_255_1_234
10
6.6393365
20
37.2223
40
0.349795
50
100.7869394
51
133.4384016
0
ARC
8
DEFAULT_255_1_234
10
6.6741136
20
37.0674319
40
0.5084616
50
89.6605301
51
101.3704185
0
ARC
8
DEFAULT_255_1_234
10
6.6807475
20
37.0735496
40
0.502348
50
78.2171172
51
90.4130393
0
ARC
8
DEFAULT_255_1_234
10
6.7162553
20
37.2359637
40
0.3361092
50
55.9268222
51
78.4888551
0
ARC
8
DEFAULT_255_1_234
10
6.7358994
20
37.2698324
40
0.2970617
50
47.9292255
51
55.4054003
0
ARC
8
DEFAULT_255_1_234
10
6.7460554
20
37.2801502
40
0.2825983
50
4.3347696
51
48.0560701
0
ARC
8
DEFAULT_255_1_234
10
6.6364948
20
37.2631601
40
0.393225
50
359.925209
51
5.5967654
0
ARC
8
DEFAULT_255_1_234
10
6.679384
20
37.2687816
40
0.3503892
50
337.8914096
51
358.9967724
0
ARC
8
DEFAULT_255_1_234
10
6.4080252
20
37.3734706
40
0.6412172
50
326.9135351
51
338.3505194
0
ARC
8
DEFAULT_255_1_234
10
6.0094555
20
37.6289284
40
1.1146189
50
319.6472867
51
327.095818
0
ARC
8
DEFAULT_255_1_234
10
5.6261559
20
37.9451
40
1.6114559
50
317.2586784
51
319.9046139
0
LINE
8
DEFAULT_255_1_234
10
7.6818966
20
37.3590276
11
7.6818966
21
37.0176788
0
LINE
8
DEFAULT_255_1_234
10
7.6818966
20
37.0176788
11
8.0079852
21
37.0176788
0
LINE
8
DEFAULT_255_1_234
10
8.0079852
20
37.0176788
11
8.0079852
21
36.8771233
0
LINE
8
DEFAULT_255_1_234
10
8.0079852
20
36.8771233
11
7.6818966
21
36.8771233
0
LINE
8
DEFAULT_255_1_234
10
7.6818966
20
36.8771233
11
7.6818966
21
36.5076634
0
LINE
8
DEFAULT_255_1_234
10
7.6818966
20
36.5076634
11
7.5325063
21
36.5076634
0
LINE
8
DEFAULT_255_1_234
10
7.5325063
20
36.5076634
11
7.5325063
21
36.8771233
0
LINE
8
DEFAULT_255_1_234
10
7.5325063
20
36.8771233
11
7.2064177
21
36.8771233
0
LINE
8
DEFAULT_255_1_234
10
7.2064177
20
36.8771233
11
7.2064177
21
37.0176788
0
LINE
8
DEFAULT_255_1_234
10
7.2064177
20
37.0176788
11
7.5325063
21
37.0176788
0
LINE
8
DEFAULT_255_1_234
10
7.5325063
20
37.0176788
11
7.5325063
21
37.3590276
0
LINE
8
DEFAULT_255_1_234
10
7.5325063
20
37.3590276
11
7.6818966
21
37.3590276
0
LINE
8
DEFAULT_255_1_234
10
5.1342292
20
45.4973211
11
5.1342292
21
45.3704196
0
LINE
8
DEFAULT_255_1_234
10
5.1342292
20
45.3704196
11
4.7583439
21
45.3704196
0
LINE
8
DEFAULT_255_1_234
10
4.7583439
20
45.3704196
11
4.7583439
21
44.3279
0
LINE
8
DEFAULT_255_1_234
10
4.7583439
20
44.3279
11
4.6049377
21
44.3279
0
LINE
8
DEFAULT_255_1_234
10
4.6049377
20
44.3279
11
4.6049377
21
45.3704196
0
LINE
8
DEFAULT_255_1_234
10
4.6049377
20
45.3704196
11
4.2298555
21
45.3704196
0
LINE
8
DEFAULT_255_1_234
10
4.2298555
20
45.3704196
11
4.2298555
21
45.4973211
0
LINE
8
DEFAULT_255_1_234
10
4.2298555
20
45.4973211
11
5.1342292
21
45.4973211
0
LINE
8
DEFAULT_255_1_234
10
5.9904125
20
44.6989663
11
6.1454251
21
44.6989663
0
LINE
8
DEFAULT_255_1_234
10
5.2450672
20
44.8579947
11
5.2450672
21
44.9704391
0
LINE
8
DEFAULT_255_1_234
10
6.1454251
20
45.1214357
11
5.9904125
21
45.1214357
0
LINE
8
DEFAULT_255_1_234
10
5.4000798
20
44.9664232
11
5.4000798
21
44.8531757
0
ARC
8
DEFAULT_255_1_234
10
5.5973638
20
44.7586846
40
0.5513052
50
340.1774281
51
353.7814284
0
ARC
8
DEFAULT_255_1_234
10
5.754499
20
44.7001582
40
0.3836379
50
311.4558989
51
340.4421614
0
ARC
8
DEFAULT_255_1_234
10
5.7511658
20
44.7112528
40
0.3941894
50
282.4333181
51
310.7513653
0
ARC
8
DEFAULT_255_1_234
10
5.7072398
20
44.8927679
40
0.5809175
50
269.9358511
51
282.809604
0
ARC
8
DEFAULT_255_1_234
10
5.7020464
20
45.0385212
40
0.7266847
50
270.0021091
51
270.3581957
0
ARC
8
DEFAULT_255_1_234
10
5.6967881
20
44.7784585
40
0.4666519
50
250.7884749
51
270.6489167
0
ARC
8
DEFAULT_255_1_234
10
5.6799715
20
44.7147319
40
0.4009729
50
219.3627325
51
250.0611886
0
ARC
8
DEFAULT_255_1_234
10
5.7628927
20
44.7852042
40
0.5097822
50
193.5479632
51
219.5756669
0
ARC
8
DEFAULT_255_1_234
10
6.0000547
20
44.8467919
40
0.7547848
50
181.1218675
51
193.87563
0
ARC
8
DEFAULT_255_1_234
10
6.2070728
20
44.857858
40
0.9620055
50
179.9918545
51
181.5394234
0
ARC
8
DEFAULT_255_1_234
10
6.021983
20
44.9741788
40
0.7769248
50
169.5837241
51
180.2757934
0
ARC
8
DEFAULT_255_1_234
10
5.8382769
20
45.0081229
40
0.590109
50
155.0365899
51
169.6003176
0
ARC
8
DEFAULT_255_1_234
10
5.7247232
20
45.0628677
40
0.4640625
50
136.783148
51
155.2472683
0
ARC
8
DEFAULT_255_1_234
10
5.6857709
20
45.0959562
40
0.4130255
50
121.7633186
51
136.428115
0
ARC
8
DEFAULT_255_1_234
10
5.6992672
20
45.0710227
40
0.4413323
50
95.6459699
51
121.5490577
0
ARC
8
DEFAULT_255_1_234
10
5.7149953
20
44.9601949
40
0.55319
50
89.924208
51
96.1377933
0
ARC
8
DEFAULT_255_1_234
10
5.7200386
20
44.9720542
40
0.5413475
50
76.6779277
51
90.4563316
0
ARC
8
DEFAULT_255_1_234
10
5.759401
20
45.1311114
40
0.3775041
50
47.485847
51
76.9287264
0
ARC
8
DEFAULT_255_1_234
10
5.7446982
20
45.1211159
40
0.3948286
50
16.5424086
51
46.8933463
0
ARC
8
DEFAULT_255_1_234
10
5.5839139
20
45.0682861
40
0.564021
50
5.4072051
51
17.0365086
0
ARC
8
DEFAULT_255_1_234
10
5.4400157
20
45.0451679
40
0.5556559
50
7.8891745
51
15.9239216
0
ARC
8
DEFAULT_255_1_234
10
5.638717
20
45.1028631
40
0.3487515
50
15.7653144
51
27.9410532
0
ARC
8
DEFAULT_255_1_234
10
5.7491388
20
45.161979
40
0.2235026
50
27.8166557
51
46.4008329
0
ARC
8
DEFAULT_255_1_234
10
5.7541031
20
45.1614082
40
0.2205286
50
47.4371857
51
75.0698205
0
ARC
8
DEFAULT_255_1_234
10
5.7232425
20
45.0539765
40
0.3322915
50
74.7008593
51
87.8124495
0
ARC
8
DEFAULT_255_1_234
10
5.7159113
20
44.9483844
40
0.4380987
50
87.3814673
51
90.0240855
0
ARC
8
DEFAULT_255_1_234
10
5.7120656
20
45.0661291
40
0.3203749
50
89.3451631
51
108.5745436
0
ARC
8
DEFAULT_255_1_234
10
5.6983761
20
45.1174908
40
0.2673494
50
109.2998449
51
143.3037509
0
ARC
8
DEFAULT_255_1_234
10
5.7745834
20
45.0588881
40
0.3634757
50
143.0753173
51
163.1916937
0
ARC
8
DEFAULT_255_1_234
10
5.9697561
20
44.9972967
40
0.5681262
50
162.9373603
51
174.6208611
0
ARC
8
DEFAULT_255_1_234
10
6.2323604
20
44.968501
40
0.8322832
50
174.3419979
51
180.1430411
0
ARC
8
DEFAULT_255_1_234
10
6.139276
20
44.8490698
40
0.7392076
50
179.6817502
51
189.150529
0
ARC
8
DEFAULT_255_1_234
10
5.8892008
20
44.807419
40
0.4856932
50
188.9910863
51
203.5773039
0
ARC
8
DEFAULT_255_1_234
10
5.7812341
20
44.7626211
40
0.3688271
50
203.9077269
51
215.1312379
0
ARC
8
DEFAULT_255_1_234
10
5.6889434
20
44.6910941
40
0.2522457
50
213.9071664
51
263.8849284
0
ARC
8
DEFAULT_255_1_234
10
5.7014764
20
44.7695518
40
0.3316174
50
263.1758525
51
270.1031083
0
ARC
8
DEFAULT_255_1_234
10
5.7046855
20
44.8942365
40
0.4563091
50
269.6719807
51
279.0609165
0
ARC
8
DEFAULT_255_1_234
10
5.7313623
20
44.7329907
40
0.2928759
50
278.8750225
51
293.6346586
0
ARC
8
DEFAULT_255_1_234
10
5.7633832
20
44.65779
40
0.2111472
50
293.8553404
51
310.0518804
0
ARC
8
DEFAULT_255_1_234
10
5.7638685
20
44.6515516
40
0.2060917
50
311.0646779
51
332.0108348
0
ARC
8
DEFAULT_255_1_234
10
5.6446412
20
44.7172978
40
0.3422352
50
331.6588543
51
343.2878891
0
ARC
8
DEFAULT_255_1_234
10
5.4383927
20
44.7806798
40
0.5580003
50
343.1446044
51
351.010618
0
ARC
8
DEFAULT_255_1_234
10
5.2842573
20
44.8087871
40
0.7146438
50
350.7157277
51
351.1602153
0
LINE
8
DEFAULT_255_1_234
10
6.805634
20
45.5029433
11
6.805634
21
44.3279
0
LINE
8
DEFAULT_255_1_234
10
6.805634
20
44.3279
11
6.6562437
21
44.3279
0
LINE
8
DEFAULT_255_1_234
10
6.6562437
20
44.3279
11
6.6562437
21
45.3182133
0
LINE
8
DEFAULT_255_1_234
10
6.6562437
20
45.3182133
11
6.3566598
21
45.2081785
0
LINE
8
DEFAULT_255_1_234
10
6.3566598
20
45.2081785
11
6.3566598
21
45.3431117
0
LINE
8
DEFAULT_255_1_234
10
6.3566598
20
45.3431117
11
6.7823419
21
45.5029433
0
LINE
8
DEFAULT_255_1_234
10
6.7823419
20
45.5029433
11
6.805634
21
45.5029433
0
LINE
8
DEFAULT_255_1_234
10
7.6818966
20
45.2965276
11
7.6818966
21
44.9551788
0
LINE
8
DEFAULT_255_1_234
10
7.6818966
20
44.9551788
11
8.0079852
21
44.9551788
0
LINE
8
DEFAULT_255_1_234
10
8.0079852
20
44.9551788
11
8.0079852
21
44.8146233
0
LINE
8
DEFAULT_255_1_234
10
8.0079852
20
44.8146233
11
7.6818966
21
44.8146233
0
LINE
8
DEFAULT_255_1_234
10
7.6818966
20
44.8146233
11
7.6818966
21
44.4451634
0
LINE
8
DEFAULT_255_1_234
10
7.6818966
20
44.4451634
11
7.5325063
21
44.4451634
0
LINE
8
DEFAULT_255_1_234
10
7.5325063
20
44.4451634
11
7.5325063
21
44.8146233
0
LINE
8
DEFAULT_255_1_234
10
7.5325063
20
44.8146233
11
7.2064177
21
44.8146233
0
LINE
8
DEFAULT_255_1_234
10
7.2064177
20
44.8146233
11
7.2064177
21
44.9551788
0
LINE
8
DEFAULT_255_1_234
10
7.2064177
20
44.9551788
11
7.5325063
21
44.9551788
0
LINE
8
DEFAULT_255_1_234
10
7.5325063
20
44.9551788
11
7.5325063
21
45.2965276
0
LINE
8
DEFAULT_255_1_234
10
7.5325063
20
45.2965276
11
7.6818966
21
45.2965276
0
LINE
8
DEFAULT_255_1_234
10
23.1660817
20
52.9569327
11
23.1660817
21
52.7641709
0
LINE
8
DEFAULT_255_1_234
10
22.427965
20
52.7440916
11
22.427965
21
52.9424755
0
LINE
8
DEFAULT_255_1_234
10
23.0174946
20
52.7240123
11
23.0174946
21
52.9673739
0
LINE
8
DEFAULT_255_1_234
10
22.5765521
20
52.9786184
11
22.5765521
21
52.7408789
0
ARC
8
DEFAULT_255_1_234
10
21.9413707
20
52.7592805
40
1.2247208
50
353.8441951
51
0.2287902
0
ARC
8
DEFAULT_255_1_234
10
22.4053211
20
52.7074806
40
0.7578929
50
344.4934747
51
353.9765454
0
ARC
8
DEFAULT_255_1_234
10
22.7045801
20
52.6223981
40
0.4467846
50
329.2803592
51
344.7472793
0
ARC
8
DEFAULT_255_1_234
10
22.8038626
20
52.5679018
40
0.3336173
50
324.9352394
51
328.6160465
0
ARC
8
DEFAULT_255_1_234
10
22.8415734
20
52.5415427
40
0.2876076
50
280.580143
51
324.9173126
0
ARC
8
DEFAULT_255_1_234
10
22.8014527
20
52.7086099
40
0.4592847
50
269.5977311
51
281.6734359
0
ARC
8
DEFAULT_255_1_234
10
22.7942433
20
52.6966173
40
0.4472986
50
256.6228859
51
270.51044
0
ARC
8
DEFAULT_255_1_234
10
22.754041
20
52.5417877
40
0.2873874
50
215.8618325
51
257.2788573
0
ARC
8
DEFAULT_255_1_234
10
22.8561442
20
52.6102977
40
0.4102928
50
197.9693508
51
215.2623606
0
ARC
8
DEFAULT_255_1_234
10
23.1046558
20
52.6941709
40
0.6725652
50
187.8816417
51
198.2346507
0
ARC
8
DEFAULT_255_1_234
10
23.5004766
20
52.7513079
40
1.0724845
50
180.8976217
51
188.0055519
0
ARC
8
DEFAULT_255_1_234
10
23.7804954
20
52.7616777
40
1.3526448
50
180.7449369
51
181.1510016
0
ARC
8
DEFAULT_255_1_234
10
23.6227683
20
52.9473042
40
1.1948131
50
173.7675579
51
180.231553
0
ARC
8
DEFAULT_255_1_234
10
23.170983
20
52.9983666
40
0.7401564
50
164.3058563
51
173.9002247
0
ARC
8
DEFAULT_255_1_234
10
22.8797899
20
53.0822656
40
0.4371288
50
148.7922025
51
164.568378
0
ARC
8
DEFAULT_255_1_234
10
22.7846351
20
53.1353929
40
0.3282386
50
144.5883898
51
148.1176286
0
ARC
8
DEFAULT_255_1_234
10
22.7503249
20
53.1593315
40
0.2864044
50
101.6440918
51
144.514236
0
ARC
8
DEFAULT_255_1_234
10
22.7928315
20
52.9904069
40
0.4604934
50
89.5284041
51
102.5819763
0
ARC
8
DEFAULT_255_1_234
10
22.8007403
20
52.9865018
40
0.464401
50
77.0437873
51
90.5081339
0
ARC
8
DEFAULT_255_1_234
10
22.8409405
20
53.1507615
40
0.2953195
50
48.2778575
51
77.4994676
0
ARC
8
DEFAULT_255_1_234
10
22.8482036
20
53.1636746
40
0.2808655
50
36.3142134
51
47.6305865
0
ARC
8
DEFAULT_255_1_234
10
22.7613343
20
53.1051515
40
0.3855453
50
18.2931786
51
35.6769206
0
ARC
8
DEFAULT_255_1_234
10
22.5070102
20
53.0178593
40
0.654423
50
8.024666
51
18.5605216
0
ARC
8
DEFAULT_255_1_234
10
22.0907022
20
52.9563792
40
1.0752407
50
1.1274072
51
8.1718305
0
ARC
8
DEFAULT_255_1_234
10
21.7671213
20
52.9436885
40
1.3990231
50
0.5424119
51
1.3863029
0
ARC
8
DEFAULT_255_1_234
10
21.949259
20
52.9709342
40
1.0682415
50
359.8090433
51
4.9407866
0
ARC
8
DEFAULT_255_1_234
10
22.3702604
20
53.0085113
40
0.6455691
50
4.8362157
51
12.2904523
0
ARC
8
DEFAULT_255_1_234
10
22.6457719
20
53.0698965
40
0.3633074
50
12.0805627
51
23.8173984
0
ARC
8
DEFAULT_255_1_234
10
22.7631425
20
53.1195919
40
0.2358723
50
24.2871213
51
31.3935614
0
ARC
8
DEFAULT_255_1_234
10
22.8156122
20
53.1539233
40
0.1732111
50
30.7407893
51
82.4657128
0
ARC
8
DEFAULT_255_1_234
10
22.7976256
20
53.0655691
40
0.263235
50
81.1060089
51
90.2184952
0
ARC
8
DEFAULT_255_1_234
10
22.7940555
20
53.0913924
40
0.2374236
50
89.3806855
51
105.6762551
0
ARC
8
DEFAULT_255_1_234
10
22.7757186
20
53.1580567
40
0.1682847
50
105.7981136
51
149.7388061
0
ARC
8
DEFAULT_255_1_234
10
22.8821264
20
53.094095
40
0.2924306
50
149.4208916
51
163.6286378
0
ARC
8
DEFAULT_255_1_234
10
23.0912152
20
53.030325
40
0.5110213
50
163.3763315
51
172.1410975
0
ARC
8
DEFAULT_255_1_234
10
23.4212871
20
52.9830518
40
0.8444586
50
172.0259487
51
178.0703232
0
ARC
8
DEFAULT_255_1_234
10
23.724296
20
52.9686906
40
1.1477868
50
177.8631668
51
179.5044149
0
ARC
8
DEFAULT_255_1_234
10
23.6170365
20
52.7372389
40
1.0404907
50
179.7995573
51
185.2460446
0
ARC
8
DEFAULT_255_1_234
10
23.2127404
20
52.6989513
40
0.6343885
50
185.1411642
51
193.0079639
0
ARC
8
DEFAULT_255_1_234
10
22.9483877
20
52.6364641
40
0.3627568
50
192.7897626
51
205.2507664
0
ARC
8
DEFAULT_255_1_234
10
22.8437424
20
52.5897415
40
0.2481908
50
205.8005384
51
211.2537509
0
ARC
8
DEFAULT_255_1_234
10
22.7913864
20
52.554658
40
0.1852521
50
210.3789793
51
238.4008143
0
ARC
8
DEFAULT_255_1_234
10
22.7894386
20
52.5593376
40
0.1882621
50
239.6520629
51
265.9793761
0
ARC
8
DEFAULT_255_1_234
10
22.7979586
20
52.6265427
40
0.2559272
50
265.1315437
51
270.060332
0
ARC
8
DEFAULT_255_1_234
10
22.8008365
20
52.5941534
40
0.2235528
50
269.3314664
51
287.2178029
0
ARC
8
DEFAULT_255_1_234
10
22.8146217
20
52.5438279
40
0.1714108
50
287.7958004
51
329.080874
0
ARC
8
DEFAULT_255_1_234
10
22.7188674
20
52.603593
40
0.2842745
50
328.6634704
51
343.3325132
0
ARC
8
DEFAULT_255_1_234
10
22.5015694
20
52.6712863
40
0.5118644
50
343.0499468
51
351.9393422
0
ARC
8
DEFAULT_255_1_234
10
22.1548994
20
52.7223949
40
0.8622784
50
351.8069023
51
357.7959224
0
ARC
8
DEFAULT_255_1_234
10
21.831355
20
52.7391721
40
1.1862365
50
357.5871873
51
359.2677531
0
LINE
8
DEFAULT_255_1_234
10
23.4496021
20
53.4348211
11
23.7821161
21
52.4702093
0
LINE
8
DEFAULT_255_1_234
10
23.7821161
20
52.4702093
11
24.1162364
21
53.4348211
0
LINE
8
DEFAULT_255_1_234
10
24.1162364
20
53.4348211
11
24.2849029
21
53.4348211
0
LINE
8
DEFAULT_255_1_234
10
24.2849029
20
53.4348211
11
23.851189
21
52.2654
0
LINE
8
DEFAULT_255_1_234
10
23.851189
20
52.2654
11
23.7146495
21
52.2654
0
LINE
8
DEFAULT_255_1_234
10
23.7146495
20
52.2654
11
23.2817388
21
53.4348211
0
LINE
8
DEFAULT_255_1_234
10
23.2817388
20
53.4348211
11
23.4496021
21
53.4348211
0
ENDSEC
0
EOF