0
SECTION
2
HEADER
9
$MEASUREMENT
70
1
0
ENDSEC
0
SECTION
2
TABLES
0
TABLE
2
LTYPE
0
LTYPE
72
65
70
64
2
CONTINUOUS
3
______
73
0
40
0
0
ENDTAB
0
TABLE
2
LAYER
0
LAYER
2
DEFAULT_255_2_778
70
0
62
255
6
CONTINUOUS
0
LAYER
2
DEFAULT_255_1_604
70
0
62
255
6
CONTINUOUS
0
LAYER
2
DEFAULT_255_1_234
70
0
62
255
6
CONTINUOUS
0
ENDTAB
0
ENDSEC
0
SECTION
2
ENTITIES
0
ARC
8
DEFAULT_255_2_778
10
3.5700693
20
44.0552035
40
0.7914215
50
129.1312896
51
180.1450914
0
ARC
8
DEFAULT_255_2_778
10
3.5703345
20
44.0556906
40
0.7912112
50
89.854026
51
129.1684493
0
ARC
8
DEFAULT_255_2_778
10
25.7993937
20
44.0553771
40
0.7915249
50
39.4792447
51
90.147911
0
ARC
8
DEFAULT_255_2_778
10
25.7999935
20
44.0552238
40
0.7911595
50
359.8533901
51
39.5154338
0
ARC
8
DEFAULT_255_2_778
10
25.7996693
20
-1.9863488
40
0.7914836
50
309.4761667
51
0.1482649
0
ARC
8
DEFAULT_255_2_778
10
25.799398
20
-1.9867799
40
0.7913235
50
269.8517415
51
309.511178
0
ARC
8
DEFAULT_255_2_778
10
3.570342
20
-1.9867217
40
0.7913815
50
219.1282118
51
270.1454017
0
ARC
8
DEFAULT_255_2_778
10
3.5700247
20
-1.9863392
40
0.7913769
50
179.8524075
51
219.1641908
0
LINE
8
DEFAULT_255_2_778
10
3.5723503
20
44.8468993
11
25.7973503
21
44.8468993
0
LINE
8
DEFAULT_255_2_778
10
26.5911503
20
44.0531993
11
26.5911503
21
-1.9843007
0
LINE
8
DEFAULT_255_2_778
10
25.7973503
20
-2.7781007
11
3.5723503
21
-2.7781007
0
LINE
8
DEFAULT_255_2_778
10
2.7786503
20
-1.9843007
11
2.7786503
21
44.0531993
0
LINE
8
DEFAULT_255_1_604
10
9.8565902
20
0.8092977
11
9.8565902
21
-0.7109
0
LINE
8
DEFAULT_255_1_604
10
9.8565902
20
-0.7109
11
9.6550805
21
-0.7109
0
LINE
8
DEFAULT_255_1_604
10
9.6550805
20
-0.7109
11
8.8897612
21
0.460571
0
LINE
8
DEFAULT_255_1_604
10
8.8897612
20
0.460571
11
8.8897612
21
-0.7109
0
LINE
8
DEFAULT_255_1_604
10
8.8897612
20
-0.7109
11
8.6882515
21
-0.7109
0
LINE
8
DEFAULT_255_1_604
10
8.6882515
20
-0.7109
11
8.6882515
21
0.8092977
0
LINE
8
DEFAULT_255_1_604
10
8.6882515
20
0.8092977
11
8.8897612
21
0.8092977
0
LINE
8
DEFAULT_255_1_604
10
8.8897612
20
0.8092977
11
9.6571687
21
-0.3673938
0
LINE
8
DEFAULT_255_1_604
10
9.6571687
20
-0.3673938
11
9.6571687
21
0.8092977
0
LINE
8
DEFAULT_255_1_604
10
9.6571687
20
0.8092977
11
9.8565902
21
0.8092977
0
LINE
8
DEFAULT_255_1_604
10
10.3598425
20
0.8092977
11
10.7263187
21
0.2266944
0
LINE
8
DEFAULT_255_1_604
10
10.7263187
20
0.2266944
11
11.0907067
21
0.8092977
0
LINE
8
DEFAULT_255_1_604
10
11.0907067
20
0.8092977
11
11.3266715
21
0.8092977
0
LINE
8
DEFAULT_255_1_604
10
11.3266715
20
0.8092977
11
10.8463893
21
0.0554634
0
LINE
8
DEFAULT_255_1_604
10
10.8463893
20
0.0554634
11
11.3381565
21
-0.7109
0
LINE
8
DEFAULT_255_1_604
10
11.3381565
20
-0.7109
11
11.1001036
21
-0.7109
0
LINE
8
DEFAULT_255_1_604
10
11.1001036
20
-0.7109
11
10.7263187
21
-0.1178559
0
LINE
8
DEFAULT_255_1_604
10
10.7263187
20
-0.1178559
11
10.3504457
21
-0.7109
0
LINE
8
DEFAULT_255_1_604
10
10.3504457
20
-0.7109
11
10.1134368
21
-0.7109
0
LINE
8
DEFAULT_255_1_604
10
10.1134368
20
-0.7109
11
10.6062481
21
0.0554634
0
LINE
8
DEFAULT_255_1_604
10
10.6062481
20
0.0554634
11
10.1249218
21
0.8092977
0
LINE
8
DEFAULT_255_1_604
10
10.1249218
20
0.8092977
11
10.3598425
21
0.8092977
0
LINE
8
DEFAULT_255_1_604
10
11.8946574
20
0.0136997
11
11.8946574
21
-0.1439582
0
LINE
8
DEFAULT_255_1_604
10
11.8946574
20
-0.1439582
11
11.3851406
21
-0.1439582
0
LINE
8
DEFAULT_255_1_604
10
11.3851406
20
-0.1439582
11
11.3851406
21
0.0136997
0
LINE
8
DEFAULT_255_1_604
10
11.3851406
20
0.0136997
11
11.8946574
21
0.0136997
0
LINE
8
DEFAULT_255_1_604
10
13.1214653
20
0.369735
11
12.9199556
21
0.369735
0
LINE
8
DEFAULT_255_1_604
10
12.0199484
20
-0.2702933
11
12.2214582
21
-0.2702933
0
ARC
8
DEFAULT_255_1_604
10
13.0055673
20
1.5326963
40
1.6279202
50
248.9196552
51
254.1440726
0
ARC
8
DEFAULT_255_1_604
10
12.7871232
20
0.9703326
40
1.0246237
50
241.6336607
51
249.0066662
0
ARC
8
DEFAULT_255_1_604
10
12.5884399
20
0.6062745
40
0.6098858
50
230.4983176
51
241.8084263
0
ARC
8
DEFAULT_255_1_604
10
12.4866657
20
0.4765712
40
0.4450852
50
227.4067756
51
229.9866257
0
ARC
8
DEFAULT_255_1_604
10
12.4230848
20
0.4144851
40
0.3563802
50
200.6782895
51
228.1765119
0
ARC
8
DEFAULT_255_1_604
10
12.4324877
20
0.4125345
40
0.3645247
50
179.5063595
51
199.8695341
0
ARC
8
DEFAULT_255_1_604
10
12.4312832
20
0.4221705
40
0.3633646
50
132.4834402
51
181.0242633
0
ARC
8
DEFAULT_255_1_604
10
12.5086769
20
0.3490784
40
0.4696012
50
129.252896
51
133.4243007
0
ARC
8
DEFAULT_255_1_604
10
12.5277447
20
0.320481
40
0.503822
50
101.9877961
51
128.8742602
0
ARC
8
DEFAULT_255_1_604
10
12.5795617
20
0.0967313
40
0.7334669
50
89.5906337
51
102.31693
0
ARC
8
DEFAULT_255_1_604
10
12.5887247
20
0.1381213
40
0.6920693
50
77.2360136
51
90.3247516
0
ARC
8
DEFAULT_255_1_604
10
12.6156398
20
0.263848
40
0.5635052
50
63.8378549
51
77.0807024
0
ARC
8
DEFAULT_255_1_604
10
12.6517564
20
0.3311396
40
0.4871913
50
45.9862967
51
64.1608756
0
ARC
8
DEFAULT_255_1_604
10
12.6856574
20
0.3698607
40
0.4357959
50
32.2748401
51
45.6544751
0
ARC
8
DEFAULT_255_1_604
10
12.6943029
20
0.3723388
40
0.4271704
50
359.6507489
51
32.61301
0
ARC
8
DEFAULT_255_1_604
10
12.5717258
20
0.3729594
40
0.3482447
50
359.4694993
51
14.9832001
0
ARC
8
DEFAULT_255_1_604
10
12.6633846
20
0.3975133
40
0.253354
50
14.9782012
51
48.2004529
0
ARC
8
DEFAULT_255_1_604
10
12.64202
20
0.3706635
40
0.2876169
50
48.5927279
51
74.1242187
0
ARC
8
DEFAULT_255_1_604
10
12.5986652
20
0.2275764
40
0.4371137
50
73.7887574
51
86.6653371
0
ARC
8
DEFAULT_255_1_604
10
12.5853521
20
0.0706868
40
0.5945264
50
86.263989
51
90.0530095
0
ARC
8
DEFAULT_255_1_604
10
12.5816686
20
0.1220432
40
0.5431788
50
89.6694744
51
99.2313066
0
ARC
8
DEFAULT_255_1_604
10
12.5501429
20
0.3098161
40
0.3527818
50
99.0697403
51
113.7658074
0
ARC
8
DEFAULT_255_1_604
10
12.5145412
20
0.39377
40
0.2616027
50
114.0397144
51
127.9852033
0
ARC
8
DEFAULT_255_1_604
10
12.4832911
20
0.4322475
40
0.2120448
50
127.728744
51
176.7105171
0
ARC
8
DEFAULT_255_1_604
10
12.5715874
20
0.4191124
40
0.3010569
50
175.1788725
51
180.0580527
0
ARC
8
DEFAULT_255_1_604
10
12.4619149
20
0.4175183
40
0.1913888
50
179.6140914
51
228.1245604
0
ARC
8
DEFAULT_255_1_604
10
12.5194075
20
0.4707569
40
0.2695053
50
226.5785192
51
230.8787202
0
ARC
8
DEFAULT_255_1_604
10
12.5805708
20
0.5519662
40
0.3711196
50
231.4636783
51
241.9261027
0
ARC
8
DEFAULT_255_1_604
10
12.7361962
20
0.8383597
40
0.6970598
50
241.7177343
51
248.3258679
0
ARC
8
DEFAULT_255_1_604
10
12.916254
20
1.2844359
40
1.1781012
50
248.2004104
51
252.4528805
0
ARC
8
DEFAULT_255_1_604
10
13.073008
20
1.7690946
40
1.6874714
50
252.3394649
51
254.3463217
0
ARC
8
DEFAULT_255_1_604
10
12.0923131
20
-1.7385798
40
1.9547183
50
71.0195902
51
74.408661
0
ARC
8
DEFAULT_255_1_604
10
12.3126241
20
-1.1026372
40
1.2816979
50
66.1845748
51
71.086447
0
ARC
8
DEFAULT_255_1_604
10
12.5149244
20
-0.6471651
40
0.7833226
50
59.3536705
51
66.2693383
0
ARC
8
DEFAULT_255_1_604
10
12.6304402
20
-0.451736
40
0.5563063
50
49.102012
51
59.3293902
0
ARC
8
DEFAULT_255_1_604
10
12.7368645
20
-0.3304311
40
0.3949386
50
32.7923413
51
49.2505082
0
ARC
8
DEFAULT_255_1_604
10
12.7782886
20
-0.3009424
40
0.3441528
50
31.1194044
51
32.4004008
0
ARC
8
DEFAULT_255_1_604
10
12.7671117
20
-0.3053417
40
0.3560005
50
8.1116636
51
30.7958587
0
ARC
8
DEFAULT_255_1_604
10
12.661798
20
-0.3232846
40
0.4628015
50
359.8388829
51
8.4711031
0
ARC
8
DEFAULT_255_1_604
10
12.7431234
20
-0.3296053
40
0.3815071
50
337.4731248
51
0.7538276
0
ARC
8
DEFAULT_255_1_604
10
12.7663507
20
-0.3321708
40
0.3591286
50
307.5917044
51
336.4314267
0
ARC
8
DEFAULT_255_1_604
10
12.7059565
20
-0.264808
40
0.4493987
50
307.6576182
51
308.453814
0
ARC
8
DEFAULT_255_1_604
10
12.676598
20
-0.2193593
40
0.503336
50
284.3733492
51
307.1426274
0
ARC
8
DEFAULT_255_1_604
10
12.6122231
20
0.017467
40
0.7487383
50
272.4384453
51
284.6465541
0
ARC
8
DEFAULT_255_1_604
10
12.5957433
20
0.2513498
40
0.9831319
50
269.9708444
51
272.8180835
0
ARC
8
DEFAULT_255_1_604
10
12.590159
20
-0.0135094
40
0.7182904
50
248.2707574
51
270.4055434
0
ARC
8
DEFAULT_255_1_604
10
12.583274
20
-0.0378686
40
0.693118
50
246.1392493
51
248.0539658
0
ARC
8
DEFAULT_255_1_604
10
12.5286833
20
-0.1525914
40
0.5661284
50
233.1671073
51
246.4952821
0
ARC
8
DEFAULT_255_1_604
10
12.4566589
20
-0.2498273
40
0.445125
50
215.340369
51
233.0842247
0
ARC
8
DEFAULT_255_1_604
10
12.421223
20
-0.2756029
40
0.4013099
50
179.2419065
51
215.2648831
0
ARC
8
DEFAULT_255_1_604
10
12.5210088
20
-0.2737678
40
0.2995708
50
179.3354443
51
199.1044828
0
ARC
8
DEFAULT_255_1_604
10
12.4778069
20
-0.2850642
40
0.2550746
50
199.8829298
51
232.7063531
0
ARC
8
DEFAULT_255_1_604
10
12.5391997
20
-0.2078454
40
0.3537092
50
232.373695
51
255.5136246
0
ARC
8
DEFAULT_255_1_604
10
12.5835119
20
-0.0461164
40
0.5213868
50
255.2447314
51
267.5320255
0
ARC
8
DEFAULT_255_1_604
10
12.5949006
20
0.1142963
40
0.6821558
50
267.1565212
51
270.0287584
0
ARC
8
DEFAULT_255_1_604
10
12.5985135
20
0.0564448
40
0.6243128
50
269.6998489
51
278.1660484
0
ARC
8
DEFAULT_255_1_604
10
12.6317949
20
-0.1685065
40
0.3969162
50
278.0229485
51
290.6258036
0
ARC
8
DEFAULT_255_1_604
10
12.6769916
20
-0.2890648
40
0.2681647
50
290.6618451
51
307.0372594
0
ARC
8
DEFAULT_255_1_604
10
12.7160395
20
-0.336967
40
0.2064202
50
306.3942077
51
355.3031145
0
ARC
8
DEFAULT_255_1_604
10
12.6494585
20
-0.3270086
40
0.2736295
50
354.3664644
51
0.0700163
0
ARC
8
DEFAULT_255_1_604
10
12.6679781
20
-0.3240823
40
0.2551229
50
359.4178864
51
16.1972437
0
ARC
8
DEFAULT_255_1_604
10
12.7271655
20
-0.3078576
40
0.1937613
50
16.4720592
51
52.6262128
0
ARC
8
DEFAULT_255_1_604
10
12.6204472
20
-0.4487688
40
0.3705223
50
52.7385707
51
62.4979505
0
ARC
8
DEFAULT_255_1_604
10
12.4404372
20
-0.7875091
40
0.7541152
50
62.251463
51
68.1224478
0
ARC
8
DEFAULT_255_1_604
10
12.2168219
20
-1.3370552
40
1.3474116
50
68.0060697
51
71.8052792
0
ARC
8
DEFAULT_255_1_604
10
11.9834253
20
-2.0370131
40
2.085252
50
71.718261
51
73.9259731
0
LINE
8
DEFAULT_255_1_604
10
14.550827
20
0.096183
11
14.550827
21
0.0001265
0
LINE
8
DEFAULT_255_1_604
10
13.3281955
20
-0.0134467
11
13.3281955
21
0.096183
0
LINE
8
DEFAULT_255_1_604
10
14.3514054
20
-0.0144908
11
14.3514054
21
0.0982711
0
LINE
8
DEFAULT_255_1_604
10
13.527617
20
0.1118443
11
13.527617
21
0.0001265
0
ARC
8
DEFAULT_255_1_604
10
13.4273809
20
-0.0050202
40
1.1234578
50
350.4878788
51
0.2624782
0
ARC
8
DEFAULT_255_1_604
10
13.72552
20
-0.0562962
40
0.8209453
50
336.0277229
51
350.5787235
0
ARC
8
DEFAULT_255_1_604
10
13.9003512
20
-0.1352994
40
0.6290972
50
319.8875453
51
336.1329732
0
ARC
8
DEFAULT_255_1_604
10
13.9786832
20
-0.1979944
40
0.5288026
50
302.4806062
51
319.6144446
0
ARC
8
DEFAULT_255_1_604
10
13.9637324
20
-0.1691806
40
0.5611451
50
275.8195832
51
302.1884451
0
ARC
8
DEFAULT_255_1_604
10
13.9421057
20
-0.0206513
40
0.7111313
50
269.9171433
51
276.3396634
0
ARC
8
DEFAULT_255_1_604
10
13.9362838
20
-0.1098366
40
0.6219637
50
252.5220373
51
270.4415884
0
ARC
8
DEFAULT_255_1_604
10
13.9175947
20
-0.1799264
40
0.5495062
50
237.5351109
51
252.1858288
0
ARC
8
DEFAULT_255_1_604
10
13.9291941
20
-0.1651294
40
0.56822
50
209.0633462
51
237.3491886
0
ARC
8
DEFAULT_255_1_604
10
14.0424102
20
-0.0940366
40
0.7017519
50
205.1189927
51
209.646587
0
ARC
8
DEFAULT_255_1_604
10
14.1458771
20
-0.0501548
40
0.8140722
50
188.7215036
51
204.8241025
0
ARC
8
DEFAULT_255_1_604
10
14.4055104
20
-0.0064479
40
1.0773376
50
180.3722171
51
188.9253477
0
ARC
8
DEFAULT_255_1_604
10
14.4019968
20
0.1013658
40
1.0738138
50
169.5252679
51
180.2765418
0
ARC
8
DEFAULT_255_1_604
10
14.1546947
20
0.1468477
40
0.8223643
50
155.8315262
51
169.5088234
0
ARC
8
DEFAULT_255_1_604
10
13.9882237
20
0.2240759
40
0.6388706
50
139.6258207
51
156.0379839
0
ARC
8
DEFAULT_255_1_604
10
13.9115674
20
0.2857555
40
0.5405235
50
122.6415314
51
139.3431422
0
ARC
8
DEFAULT_255_1_604
10
13.9246513
20
0.2619169
40
0.5676573
50
93.0223523
51
122.4557518
0
ARC
8
DEFAULT_255_1_604
10
13.9386978
20
0.1363446
40
0.6938351
50
89.9759388
51
93.633943
0
ARC
8
DEFAULT_255_1_604
10
13.9437311
20
0.1883112
40
0.6418858
50
73.7463356
51
90.4232763
0
ARC
8
DEFAULT_255_1_604
10
13.9665547
20
0.2767108
40
0.5506385
50
57.6628526
51
73.4517847
0
ARC
8
DEFAULT_255_1_604
10
13.9655181
20
0.279516
40
0.5488281
50
29.1440385
51
57.4147661
0
ARC
8
DEFAULT_255_1_604
10
13.8440285
20
0.2036367
40
0.6919271
50
24.0981561
51
29.7325219
0
ARC
8
DEFAULT_255_1_604
10
13.7096153
20
0.1479036
40
0.8373914
50
8.6655221
51
23.8241039
0
ARC
8
DEFAULT_255_1_604
10
13.4191649
20
0.100514
40
1.1316703
50
359.780719
51
8.821846
0
ARC
8
DEFAULT_255_1_604
10
13.2700651
20
0.1038299
40
1.0813546
50
359.7054659
51
8.0359408
0
ARC
8
DEFAULT_255_1_604
10
13.660059
20
0.1606239
40
0.6872529
50
7.8927593
51
20.2962204
0
ARC
8
DEFAULT_255_1_604
10
13.8716293
20
0.2386395
40
0.461757
50
20.3230851
51
36.4991617
0
ARC
8
DEFAULT_255_1_604
10
13.9607503
20
0.3072794
40
0.3492946
50
36.1436858
51
85.6627555
0
ARC
8
DEFAULT_255_1_604
10
13.9396337
20
0.1721118
40
0.4857929
50
84.3848681
51
90.076014
0
ARC
8
DEFAULT_255_1_604
10
13.9341279
20
0.2579442
40
0.3999897
50
89.3036369
51
109.9047192
0
ARC
8
DEFAULT_255_1_604
10
13.9220917
20
0.3076236
40
0.3492252
50
110.8229673
51
143.9179211
0
ARC
8
DEFAULT_255_1_604
10
14.0434595
20
0.2149622
40
0.5018955
50
143.5288881
51
163.2981777
0
ARC
8
DEFAULT_255_1_604
10
14.2914727
20
0.1369891
40
0.7618623
50
163.0419607
51
174.3140567
0
ARC
8
DEFAULT_255_1_604
10
14.6040154
20
0.1009017
40
1.0764541
50
174.0508814
51
179.4175554
0
ARC
8
DEFAULT_255_1_604
10
14.5384176
20
-0.0052918
40
1.0108152
50
179.6928756
51
188.7907323
0
ARC
8
DEFAULT_255_1_604
10
14.1921777
20
-0.060675
40
0.6601808
50
188.6329377
51
202.563187
0
ARC
8
DEFAULT_255_1_604
10
14.0291221
20
-0.1261835
40
0.4844747
50
202.8080478
51
216.1195297
0
ARC
8
DEFAULT_255_1_604
10
13.9239071
20
-0.2108483
40
0.3496338
50
215.0755897
51
264.6379402
0
ARC
8
DEFAULT_255_1_604
10
13.9404138
20
-0.1028005
40
0.458795
50
263.8464638
51
270.0828618
0
ARC
8
DEFAULT_255_1_604
10
13.9457918
20
-0.1364066
40
0.4252144
50
269.3647406
51
287.5152792
0
ARC
8
DEFAULT_255_1_604
10
13.9689517
20
-0.2205273
40
0.3380391
50
288.0628943
51
323.8114804
0
ARC
8
DEFAULT_255_1_604
10
13.8557067
20
-0.1360542
40
0.4793151
50
323.6546953
51
342.6591371
0
ARC
8
DEFAULT_255_1_604
10
13.5916522
20
-0.0501421
40
0.7569816
50
342.4090343
51
353.6452671
0
ARC
8
DEFAULT_255_1_604
10
13.2235642
20
-0.0043465
40
1.127887
50
353.4028091
51
359.4846739
0
LINE
8
DEFAULT_255_1_604
10
16.0198641
20
0.8092977
11
16.0198641
21
-0.7109
0
LINE
8
DEFAULT_255_1_604
10
16.0198641
20
-0.7109
11
15.8183544
21
-0.7109
0
LINE
8
DEFAULT_255_1_604
10
15.8183544
20
-0.7109
11
15.8183544
21
-0.0082262
0
LINE
8
DEFAULT_255_1_604
10
15.8183544
20
-0.0082262
11
15.051991
21
-0.0082262
0
LINE
8
DEFAULT_255_1_604
10
15.051991
20
-0.0082262
11
15.051991
21
-0.7109
0
LINE
8
DEFAULT_255_1_604
10
15.051991
20
-0.7109
11
14.8515254
21
-0.7109
0
LINE
8
DEFAULT_255_1_604
10
14.8515254
20
-0.7109
11
14.8515254
21
0.8092977
0
LINE
8
DEFAULT_255_1_604
10
14.8515254
20
0.8092977
11
15.051991
21
0.8092977
0
LINE
8
DEFAULT_255_1_604
10
15.051991
20
0.8092977
11
15.051991
21
0.1556962
0
LINE
8
DEFAULT_255_1_604
10
15.051991
20
0.1556962
11
15.8183544
21
0.1556962
0
LINE
8
DEFAULT_255_1_604
10
15.8183544
20
0.1556962
11
15.8183544
21
0.8092977
0
LINE
8
DEFAULT_255_1_604
10
15.8183544
20
0.8092977
11
16.0198641
21
0.8092977
0
LINE
8
DEFAULT_255_1_604
10
17.3218466
20
-0.5532421
11
17.3218466
21
-0.7109
0
LINE
8
DEFAULT_255_1_604
10
17.3218466
20
-0.7109
11
16.325783
21
-0.7109
0
LINE
8
DEFAULT_255_1_604
10
16.325783
20
-0.7109
11
16.325783
21
-0.5720358
0
LINE
8
DEFAULT_255_1_604
10
16.325783
20
-0.5720358
11
16.8520053
21
0.0126556
0
LINE
8
DEFAULT_255_1_604
10
16.4897054
20
0.3613823
11
16.2965484
21
0.3613823
0
LINE
8
DEFAULT_255_1_604
10
16.9658113
20
-0.1115913
11
16.5586155
21
-0.5532421
0
LINE
8
DEFAULT_255_1_604
10
16.5586155
20
-0.5532421
11
17.3218466
21
-0.5532421
0
ARC
8
DEFAULT_255_1_604
10
15.0983188
20
1.5634624
40
2.3410292
50
318.513271
51
320.7828357
0
ARC
8
DEFAULT_255_1_604
10
15.78552
20
1.0041368
40
1.4549769
50
320.7375321
51
323.9736753
0
ARC
8
DEFAULT_255_1_604
10
16.2951391
20
0.6348972
40
0.8256542
50
323.8963242
51
328.6419085
0
ARC
8
DEFAULT_255_1_604
10
16.5614774
20
0.4706351
40
0.5127425
50
328.8285352
51
331.7901522
0
ARC
8
DEFAULT_255_1_604
10
16.6908685
20
0.4038794
40
0.367172
50
331.4254946
51
352.9365149
0
ARC
8
DEFAULT_255_1_604
10
16.7086055
20
0.3999103
40
0.349086
50
353.2250252
51
0.0169584
0
ARC
8
DEFAULT_255_1_604
10
16.7359056
20
0.4028986
40
0.3217987
50
359.4863351
51
15.9342296
0
ARC
8
DEFAULT_255_1_604
10
16.8018021
20
0.4206207
40
0.2535708
50
16.1714081
51
43.5285108
0
ARC
8
DEFAULT_255_1_604
10
16.8118511
20
0.4306668
40
0.2393664
50
43.4416531
51
83.1662234
0
ARC
8
DEFAULT_255_1_604
10
16.7944207
20
0.3348793
40
0.3365994
50
82.1603671
51
90.1505737
0
ARC
8
DEFAULT_255_1_604
10
16.7903154
20
0.2650952
40
0.4063951
50
89.5459142
51
102.5418751
0
ARC
8
DEFAULT_255_1_604
10
16.7587382
20
0.399091
40
0.2687452
50
102.1738823
51
129.2062395
0
ARC
8
DEFAULT_255_1_604
10
16.7484869
20
0.4152571
40
0.249749
50
129.7282356
51
135.7542178
0
ARC
8
DEFAULT_255_1_604
10
16.7642758
20
0.4026499
40
0.2698631
50
136.1757281
51
166.3675485
0
ARC
8
DEFAULT_255_1_604
10
16.8951647
20
0.3675683
40
0.4053462
50
165.9090448
51
178.8683608
0
ARC
8
DEFAULT_255_1_604
10
17.0075952
20
0.3614653
40
0.5178896
50
178.438946
51
180.0091831
0
ARC
8
DEFAULT_255_1_604
10
16.8254283
20
0.3665335
40
0.5289049
50
163.2878723
51
180.558041
0
ARC
8
DEFAULT_255_1_604
10
16.7212006
20
0.3952134
40
0.4208399
50
133.4540582
51
162.9470171
0
ARC
8
DEFAULT_255_1_604
10
16.7444124
20
0.3705313
40
0.4547218
50
100.7870211
51
133.4382382
0
ARC
8
DEFAULT_255_1_604
10
16.7896222
20
0.1691903
40
0.6610008
50
89.6607391
51
101.3702307
0
ARC
8
DEFAULT_255_1_604
10
16.7982434
20
0.1771615
40
0.6530349
50
78.2171576
51
90.4130072
0
ARC
8
DEFAULT_255_1_604
10
16.8444024
20
0.3882972
40
0.4369273
50
55.9267954
51
78.488844
0
ARC
8
DEFAULT_255_1_604
10
16.8699127
20
0.4322913
40
0.3862098
50
47.9296795
51
55.4050352
0
ARC
8
DEFAULT_255_1_604
10
16.8831403
20
0.4457369
40
0.3673667
50
4.3348317
51
48.056014
0
ARC
8
DEFAULT_255_1_604
10
16.7407686
20
0.4236553
40
0.5111241
50
359.9247088
51
5.596838
0
ARC
8
DEFAULT_255_1_604
10
16.7964678
20
0.4309594
40
0.4554945
50
337.8914976
51
358.9967003
0
ARC
8
DEFAULT_255_1_604
10
16.4437341
20
0.5670408
40
0.8335352
50
326.9133997
51
338.3506587
0
ARC
8
DEFAULT_255_1_604
10
15.9256492
20
0.8990906
40
1.4488861
50
319.647155
51
327.0960531
0
ARC
8
DEFAULT_255_1_604
10
15.4272383
20
1.3102174
40
2.0949336
50
317.2587072
51
319.9045043
0
LINE
8
DEFAULT_255_1_604
10
18.4797444
20
0.188063
11
18.4797444
21
-0.062519
0
LINE
8
DEFAULT_255_1_604
10
17.520224
20
-0.0886213
11
17.520224
21
0.1692694
0
LINE
8
DEFAULT_255_1_604
10
18.2865874
20
-0.1147236
11
18.2865874
21
0.2016362
0
LINE
8
DEFAULT_255_1_604
10
17.713381
20
0.2162535
11
17.713381
21
-0.0927977
0
ARC
8
DEFAULT_255_1_604
10
16.887719
20
-0.068878
40
1.5920381
50
353.844072
51
0.228855
0
ARC
8
DEFAULT_255_1_604
10
17.4907608
20
-0.1362082
40
0.985256
50
344.4935621
51
353.9763669
0
ARC
8
DEFAULT_255_1_604
10
17.8798088
20
-0.2468164
40
0.5808042
50
329.280406
51
344.7472378
0
ARC
8
DEFAULT_255_1_604
10
18.0088509
20
-0.3176461
40
0.4337163
50
324.9354918
51
328.6160618
0
ARC
8
DEFAULT_255_1_604
10
18.0578972
20
-0.3519263
40
0.3738777
50
280.5801844
51
324.9173532
0
ARC
8
DEFAULT_255_1_604
10
18.0057401
20
-0.1347232
40
0.5970733
50
269.5979407
51
281.673183
0
ARC
8
DEFAULT_255_1_604
10
17.9963683
20
-0.1503484
40
0.5814565
50
256.6227814
51
270.5106393
0
ARC
8
DEFAULT_255_1_604
10
17.9441096
20
-0.3516071
40
0.3735921
50
215.8618579
51
257.278794
0
ARC
8
DEFAULT_255_1_604
10
18.0768432
20
-0.2625451
40
0.5333683
50
197.9694693
51
215.2623127
0
ARC
8
DEFAULT_255_1_604
10
18.3999017
20
-0.1535133
40
0.8743151
50
187.8817462
51
198.2346499
0
ARC
8
DEFAULT_255_1_604
10
18.9144493
20
-0.0792385
40
1.3941903
50
180.897698
51
188.0055977
0
ARC
8
DEFAULT_255_1_604
10
19.2931515
20
-0.0655135
40
1.7730781
50
180.7467329
51
181.1494316
0
ARC
8
DEFAULT_255_1_604
10
19.0733664
20
0.1755482
40
1.5531551
50
173.7674183
51
180.231626
0
ARC
8
DEFAULT_255_1_604
10
18.4861447
20
0.2419192
40
0.9622012
50
164.3059658
51
173.90004
0
ARC
8
DEFAULT_255_1_604
10
18.1075877
20
0.3509853
40
0.5682604
50
148.7923002
51
164.5681503
0
ARC
8
DEFAULT_255_1_604
10
17.9840228
20
0.4199573
40
0.4268683
50
144.5889551
51
148.1167696
0
ARC
8
DEFAULT_255_1_604
10
17.9392778
20
0.4511732
40
0.3723131
50
101.6440547
51
144.5142428
0
ARC
8
DEFAULT_255_1_604
10
17.9945339
20
0.2315799
40
0.5986198
50
89.5282941
51
102.5819087
0
ARC
8
DEFAULT_255_1_604
10
18.0048163
20
0.2265003
40
0.6037029
50
77.0438328
51
90.5081498
0
ARC
8
DEFAULT_255_1_604
10
18.0570745
20
0.4400324
40
0.3839026
50
48.2778225
51
77.4994431
0
ARC
8
DEFAULT_255_1_604
10
18.0665208
20
0.4568214
40
0.3651082
50
36.3142913
51
47.6308229
0
ARC
8
DEFAULT_255_1_604
10
17.9535905
20
0.3807417
40
0.5011918
50
18.293146
51
35.6769135
0
ARC
8
DEFAULT_255_1_604
10
17.6229704
20
0.2672628
40
0.8507313
50
8.0247336
51
18.560474
0
ARC
8
DEFAULT_255_1_604
10
17.0818527
20
0.1873466
40
1.3977114
50
1.1273293
51
8.1720346
0
ARC
8
DEFAULT_255_1_604
10
16.661244
20
0.1708359
40
1.818582
50
0.5427621
51
1.3866942
0
ARC
8
DEFAULT_255_1_604
10
16.8978986
20
0.2062639
40
1.3886965
50
359.8090701
51
4.9407098
0
ARC
8
DEFAULT_255_1_604
10
17.4452062
20
0.2551113
40
0.8392168
50
4.8363061
51
12.2905023
0
ARC
8
DEFAULT_255_1_604
10
17.8033659
20
0.334912
40
0.4722819
50
12.0805216
51
23.8174133
0
ARC
8
DEFAULT_255_1_604
10
17.9559428
20
0.3995113
40
0.3066226
50
24.2876241
51
31.394091
0
ARC
8
DEFAULT_255_1_604
10
18.0241492
20
0.444143
40
0.2251665
50
30.7407096
51
82.4657698
0
ARC
8
DEFAULT_255_1_604
10
18.0007671
20
0.3292841
40
0.3421959
50
81.1060461
51
90.2184888
0
ARC
8
DEFAULT_255_1_604
10
17.9961258
20
0.3628568
40
0.3086387
50
89.3806266
51
105.6762951
0
ARC
8
DEFAULT_255_1_604
10
17.9722887
20
0.4495155
40
0.2187631
50
105.798058
51
149.7387379
0
ARC
8
DEFAULT_255_1_604
10
18.1106209
20
0.3663649
40
0.3801546
50
149.420947
51
163.6284234
0
ARC
8
DEFAULT_255_1_604
10
18.3824368
20
0.2834672
40
0.6643218
50
163.3764959
51
172.1410516
0
ARC
8
DEFAULT_255_1_604
10
18.8114629
20
0.2220213
40
1.0977224
50
172.0259084
51
178.0704914
0
ARC
8
DEFAULT_255_1_604
10
19.2063453
20
0.2033306
40
1.49302
50
177.8638579
51
179.5040659
0
ARC
8
DEFAULT_255_1_604
10
19.0660163
20
-0.0975275
40
1.3526435
50
179.7996524
51
185.2459386
0
ARC
8
DEFAULT_255_1_604
10
18.5403728
20
-0.1473052
40
0.8246519
50
185.1410844
51
193.0081331
0
ARC
8
DEFAULT_255_1_604
10
18.1967456
20
-0.2285342
40
0.4715624
50
192.7897213
51
205.2508841
0
ARC
8
DEFAULT_255_1_604
10
18.0606454
20
-0.289308
40
0.3225565
50
205.7999823
51
211.2545647
0
ARC
8
DEFAULT_255_1_604
10
17.9926554
20
-0.3348771
40
0.2408189
50
210.3790492
51
238.400988
0
ARC
8
DEFAULT_255_1_604
10
17.990125
20
-0.3287926
40
0.244734
50
239.6520455
51
265.9792338
0
ARC
8
DEFAULT_255_1_604
10
18.0012
20
-0.241397
40
0.3327272
50
265.1320301
51
270.0603327
0
ARC
8
DEFAULT_255_1_604
10
18.0049425
20
-0.2835425
40
0.2906013
50
269.331179
51
287.2180041
0
ARC
8
DEFAULT_255_1_604
10
18.0228617
20
-0.3489556
40
0.2228266
50
287.7957061
51
329.080821
0
ARC
8
DEFAULT_255_1_604
10
17.8983746
20
-0.2712597
40
0.3695553
50
328.6637907
51
343.3324074
0
ARC
8
DEFAULT_255_1_604
10
17.615892
20
-0.183261
40
0.6654171
50
343.0499757
51
351.9391695
0
ARC
8
DEFAULT_255_1_604
10
17.1651993
20
-0.1168208
40
1.1209764
50
351.8070082
51
357.7957543
0
ARC
8
DEFAULT_255_1_604
10
16.7450955
20
-0.0950282
40
1.5416177
50
357.5869373
51
359.2679819
0
LINE
8
DEFAULT_255_1_604
10
19.68045
20
0.188063
11
19.68045
21
-0.062519
0
LINE
8
DEFAULT_255_1_604
10
18.7209296
20
-0.0886213
11
18.7209296
21
0.1692694
0
LINE
8
DEFAULT_255_1_604
10
19.487293
20
-0.1147236
11
19.487293
21
0.2016362
0
LINE
8
DEFAULT_255_1_604
10
18.9140866
20
0.2162535
11
18.9140866
21
-0.0927977
0
ARC
8
DEFAULT_255_1_604
10
18.0884246
20
-0.068878
40
1.5920381
50
353.844072
51
0.228855
0
ARC
8
DEFAULT_255_1_604
10
18.6914664
20
-0.1362082
40
0.985256
50
344.4935621
51
353.9763669
0
ARC
8
DEFAULT_255_1_604
10
19.0805144
20
-0.2468164
40
0.5808042
50
329.280406
51
344.7472378
0
ARC
8
DEFAULT_255_1_604
10
19.2095565
20
-0.3176461
40
0.4337163
50
324.9354918
51
328.6160618
0
ARC
8
DEFAULT_255_1_604
10
19.2586027
20
-0.3519263
40
0.3738777
50
280.5801844
51
324.9173532
0
ARC
8
DEFAULT_255_1_604
10
19.2064457
20
-0.1347232
40
0.5970733
50
269.5979407
51
281.673183
0
ARC
8
DEFAULT_255_1_604
10
19.1970738
20
-0.1503484
40
0.5814565
50
256.6227814
51
270.5106393
0
ARC
8
DEFAULT_255_1_604
10
19.1448151
20
-0.3516071
40
0.3735921
50
215.8618579
51
257.278794
0
ARC
8
DEFAULT_255_1_604
10
19.2775488
20
-0.2625451
40
0.5333683
50
197.9694693
51
215.2623127
0
ARC
8
DEFAULT_255_1_604
10
19.6006073
20
-0.1535133
40
0.8743151
50
187.8817462
51
198.2346499
0
ARC
8
DEFAULT_255_1_604
10
20.1151549
20
-0.0792385
40
1.3941903
50
180.897698
51
188.0055977
0
ARC
8
DEFAULT_255_1_604
10
20.4938571
20
-0.0655135
40
1.7730781
50
180.7467329
51
181.1494316
0
ARC
8
DEFAULT_255_1_604
10
20.274072
20
0.1755482
40
1.5531551
50
173.7674183
51
180.231626
0
ARC
8
DEFAULT_255_1_604
10
19.6868502
20
0.2419192
40
0.9622012
50
164.3059658
51
173.90004
0
ARC
8
DEFAULT_255_1_604
10
19.3082932
20
0.3509853
40
0.5682604
50
148.7923002
51
164.5681503
0
ARC
8
DEFAULT_255_1_604
10
19.1847283
20
0.4199573
40
0.4268683
50
144.5889551
51
148.1167696
0
ARC
8
DEFAULT_255_1_604
10
19.1399834
20
0.4511732
40
0.3723131
50
101.6440547
51
144.5142428
0
ARC
8
DEFAULT_255_1_604
10
19.1952395
20
0.2315799
40
0.5986198
50
89.5282941
51
102.5819087
0
ARC
8
DEFAULT_255_1_604
10
19.2055218
20
0.2265003
40
0.6037029
50
77.0438328
51
90.5081498
0
ARC
8
DEFAULT_255_1_604
10
19.25778
20
0.4400324
40
0.3839026
50
48.2778225
51
77.4994431
0
ARC
8
DEFAULT_255_1_604
10
19.2672264
20
0.4568214
40
0.3651082
50
36.3142913
51
47.6308229
0
ARC
8
DEFAULT_255_1_604
10
19.1542961
20
0.3807417
40
0.5011918
50
18.293146
51
35.6769135
0
ARC
8
DEFAULT_255_1_604
10
18.823676
20
0.2672628
40
0.8507313
50
8.0247336
51
18.560474
0
ARC
8
DEFAULT_255_1_604
10
18.2825582
20
0.1873466
40
1.3977114
50
1.1273293
51
8.1720346
0
ARC
8
DEFAULT_255_1_604
10
17.8619496
20
0.1708359
40
1.818582
50
0.5427621
51
1.3866942
0
ARC
8
DEFAULT_255_1_604
10
18.0986042
20
0.2062639
40
1.3886965
50
359.8090701
51
4.9407098
0
ARC
8
DEFAULT_255_1_604
10
18.6459118
20
0.2551113
40
0.8392168
50
4.8363061
51
12.2905023
0
ARC
8
DEFAULT_255_1_604
10
19.0040715
20
0.334912
40
0.4722819
50
12.0805216
51
23.8174133
0
ARC
8
DEFAULT_255_1_604
10
19.1566483
20
0.3995113
40
0.3066226
50
24.2876241
51
31.394091
0
ARC
8
DEFAULT_255_1_604
10
19.2248547
20
0.444143
40
0.2251665
50
30.7407096
51
82.4657698
0
ARC
8
DEFAULT_255_1_604
10
19.2014726
20
0.3292841
40
0.3421959
50
81.1060461
51
90.2184888
0
ARC
8
DEFAULT_255_1_604
10
19.1968314
20
0.3628568
40
0.3086387
50
89.3806266
51
105.6762951
0
ARC
8
DEFAULT_255_1_604
10
19.1729943
20
0.4495155
40
0.2187631
50
105.798058
51
149.7387379
0
ARC
8
DEFAULT_255_1_604
10
19.3113265
20
0.3663649
40
0.3801546
50
149.420947
51
163.6284234
0
ARC
8
DEFAULT_255_1_604
10
19.5831424
20
0.2834672
40
0.6643218
50
163.3764959
51
172.1410516
0
ARC
8
DEFAULT_255_1_604
10
20.0121684
20
0.2220213
40
1.0977224
50
172.0259084
51
178.0704914
0
ARC
8
DEFAULT_255_1_604
10
20.4070509
20
0.2033306
40
1.49302
50
177.8638579
51
179.5040659
0
ARC
8
DEFAULT_255_1_604
10
20.2667218
20
-0.0975275
40
1.3526435
50
179.7996524
51
185.2459386
0
ARC
8
DEFAULT_255_1_604
10
19.7410784
20
-0.1473052
40
0.8246519
50
185.1410844
51
193.0081331
0
ARC
8
DEFAULT_255_1_604
10
19.3974511
20
-0.2285342
40
0.4715624
50
192.7897213
51
205.2508841
0
ARC
8
DEFAULT_255_1_604
10
19.2613509
20
-0.289308
40
0.3225565
50
205.7999823
51
211.2545647
0
ARC
8
DEFAULT_255_1_604
10
19.193361
20
-0.3348771
40
0.2408189
50
210.3790492
51
238.400988
0
ARC
8
DEFAULT_255_1_604
10
19.1908306
20
-0.3287926
40
0.244734
50
239.6520455
51
265.9792338
0
ARC
8
DEFAULT_255_1_604
10
19.2019055
20
-0.241397
40
0.3327272
50
265.1320301
51
270.0603327
0
ARC
8
DEFAULT_255_1_604
10
19.2056481
20
-0.2835425
40
0.2906013
50
269.331179
51
287.2180041
0
ARC
8
DEFAULT_255_1_604
10
19.2235672
20
-0.3489556
40
0.2228266
50
287.7957061
51
329.080821
0
ARC
8
DEFAULT_255_1_604
10
19.0990802
20
-0.2712597
40
0.3695553
50
328.6637907
51
343.3324074
0
ARC
8
DEFAULT_255_1_604
10
18.8165976
20
-0.183261
40
0.6654171
50
343.0499757
51
351.9391695
0
ARC
8
DEFAULT_255_1_604
10
18.3659049
20
-0.1168208
40
1.1209764
50
351.8070082
51
357.7957543
0
ARC
8
DEFAULT_255_1_604
10
17.9458011
20
-0.0950282
40
1.5416177
50
357.5869373
51
359.2679819
0
ARC
8
DEFAULT_255_2_778
10
15.2718323
20
42.611689
40
0.3782009
50
0.4397807
51
91.3045231
0
ARC
8
DEFAULT_255_2_778
10
15.2696879
20
42.6094064
40
0.3803695
50
269.0259909
51
0.7811192
0
ARC
8
DEFAULT_255_2_778
10
15.4288293
20
42.5969643
40
0.7639615
50
290.7362057
51
357.8000295
0
ARC
8
DEFAULT_255_2_778
10
15.3436031
20
42.6145235
40
0.8499188
50
356.8376875
51
0.0046095
0
ARC
8
DEFAULT_255_2_778
10
15.3422443
20
42.6145748
40
0.8512778
50
0.0011515
51
85.3589632
0
ARC
8
DEFAULT_255_2_778
10
15.3422371
20
42.5955092
40
0.8702827
50
85.4600549
51
90.0075769
0
ARC
8
DEFAULT_255_2_778
10
20.173385
20
42.6052426
40
0.3845507
50
1.3931151
51
90.158378
0
ARC
8
DEFAULT_255_2_778
10
20.2329096
20
42.5988635
40
0.8684198
50
359.7643557
51
42.1181505
0
ARC
8
DEFAULT_255_2_778
10
20.2353156
20
42.5992931
40
0.866348
50
42.2037872
51
87.9292218
0
ARC
8
DEFAULT_255_2_778
10
20.2305626
20
42.5580097
40
0.9077821
50
87.7235759
51
90.0025578
0
ARC
8
DEFAULT_255_2_778
10
12.9264947
20
42.6121344
40
0.3777354
50
0.3727528
51
91.1638813
0
ARC
8
DEFAULT_255_2_778
10
12.9805692
20
42.5988595
40
0.8684602
50
359.7646302
51
42.1161032
0
ARC
8
DEFAULT_255_2_778
10
12.9830774
20
42.5994127
40
0.8662296
50
42.2002176
51
87.9268901
0
ARC
8
DEFAULT_255_2_778
10
12.9783626
20
42.5583749
40
0.9074169
50
87.7231194
51
90.002558
0
ARC
8
DEFAULT_255_2_778
10
17.559042
20
42.2070858
40
1.2841942
50
233.3100129
51
270.0348017
0
ARC
8
DEFAULT_255_2_778
10
17.5711133
20
42.2274622
40
1.3077482
50
187.7860459
51
233.4193197
0
ARC
8
DEFAULT_255_2_778
10
17.5893588
20
42.2290185
40
1.3260368
50
179.9838663
51
187.7458681
0
ARC
8
DEFAULT_255_2_778
10
17.5478523
20
42.2296375
40
1.2845303
50
143.7084173
51
180.0109545
0
ARC
8
DEFAULT_255_2_778
10
17.5629238
20
42.2245899
40
1.2996747
50
94.9692901
51
143.9223324
0
ARC
8
DEFAULT_255_2_778
10
17.5597032
20
42.2252347
40
1.2987573
50
89.9947559
51
94.8302073
0
ARC
8
DEFAULT_255_2_778
10
17.5619339
20
42.2194304
40
1.3045632
50
58.1407344
51
90.0927508
0
ARC
8
DEFAULT_255_2_778
10
17.5700831
20
42.2250662
40
1.2954809
50
3.5056409
51
58.315291
0
ARC
8
DEFAULT_255_2_778
10
17.5711163
20
42.2291563
40
1.2942058
50
359.9971467
51
3.3277024
0
ARC
8
DEFAULT_255_2_778
10
17.3826088
20
42.2270483
40
1.4827147
50
0.006083
51
0.0789681
0
ARC
8
DEFAULT_255_2_778
10
17.5604187
20
42.2272022
40
1.3049047
50
315.0308293
51
0.0001529
0
ARC
8
DEFAULT_255_2_778
10
17.5609377
20
42.2269521
40
1.3043608
50
270.000667
51
315.0224921
0
LINE
8
DEFAULT_255_2_778
10
17.5609529
20
40.9225914
11
17.5598221
21
40.9225919
0
ARC
8
DEFAULT_255_2_778
10
17.5640812
20
42.2254112
40
0.7580313
50
269.6780691
51
315.5292436
0
ARC
8
DEFAULT_255_2_778
10
17.5610107
20
42.2246878
40
0.7597205
50
315.7303962
51
0.2857903
0
ARC
8
DEFAULT_255_2_778
10
17.8487376
20
42.2289382
40
0.4719845
50
359.944048
51
0.0186519
0
ARC
8
DEFAULT_255_2_778
10
17.5687772
20
42.2279605
40
0.7519457
50
0.086204
51
85.4319233
0
ARC
8
DEFAULT_255_2_778
10
17.5599609
20
42.1855338
40
0.7949581
50
85.0420495
51
90.0100075
0
ARC
8
DEFAULT_255_2_778
10
17.5579396
20
42.2422519
40
0.7382424
50
89.8538973
51
89.9999976
0
ARC
8
DEFAULT_255_2_778
10
17.558077
20
42.2293044
40
0.7511899
50
90.01048
51
134.9443097
0
ARC
8
DEFAULT_255_2_778
10
17.5582947
20
42.2291222
40
0.7514726
50
134.9462486
51
180.0023145
0
ARC
8
DEFAULT_255_2_778
10
17.5708624
20
42.2251875
40
0.7640503
50
179.7072119
51
222.5790813
0
ARC
8
DEFAULT_255_2_778
10
17.5579296
20
42.2141475
40
0.7470579
50
222.6267201
51
270.1451401
0
ARC
8
DEFAULT_255_2_778
10
9.564442
20
42.2070858
40
1.2841942
50
233.3100129
51
270.0348017
0
ARC
8
DEFAULT_255_2_778
10
9.5765133
20
42.2274622
40
1.3077482
50
187.7860459
51
233.4193197
0
ARC
8
DEFAULT_255_2_778
10
9.5947588
20
42.2290185
40
1.3260368
50
179.9838663
51
187.7458681
0
ARC
8
DEFAULT_255_2_778
10
9.5535129
20
42.2294961
40
1.2847909
50
143.1940819
51
180.0046489
0
ARC
8
DEFAULT_255_2_778
10
9.5683078
20
42.2248006
40
1.2994598
50
94.9233187
51
143.4191345
0
ARC
8
DEFAULT_255_2_778
10
9.5651008
20
42.225512
40
1.2984798
50
89.9946509
51
94.7850278
0
ARC
8
DEFAULT_255_2_778
10
9.5673902
20
42.2193441
40
1.3046496
50
58.1428905
51
90.0952196
0
ARC
8
DEFAULT_255_2_778
10
9.5758177
20
42.2254453
40
1.2950254
50
3.2656058
51
58.3171105
0
ARC
8
DEFAULT_255_2_778
10
9.5763693
20
42.2294485
40
1.2942527
50
359.997494
51
3.0900664
0
ARC
8
DEFAULT_255_2_778
10
9.5936718
20
42.2272448
40
1.276952
50
359.9949307
51
0.0963391
0
ARC
8
DEFAULT_255_2_778
10
9.5663093
20
42.2272585
40
1.3043147
50
315.0200668
51
359.994431
0
ARC
8
DEFAULT_255_2_778
10
9.5663338
20
42.22702
40
1.3041287
50
270.0008363
51
315.026719
0
LINE
8
DEFAULT_255_2_778
10
9.5663529
20
40.9228914
11
9.5652221
21
40.9228919
0
ARC
8
DEFAULT_255_2_778
10
9.5694412
20
42.2254135
40
0.7580334
50
269.6810953
51
315.6152252
0
ARC
8
DEFAULT_255_2_778
10
9.5663839
20
42.2247381
40
0.7597504
50
315.8129036
51
0.3254485
0
ARC
8
DEFAULT_255_2_778
10
9.5738176
20
42.2276565
40
0.7523058
50
0.1093155
51
85.7820321
0
ARC
8
DEFAULT_255_2_778
10
9.5653381
20
42.1861263
40
0.7943655
50
85.3923987
51
90.0083732
0
ARC
8
DEFAULT_255_2_778
10
9.5633385
20
42.2413348
40
0.7391595
50
89.8539942
51
89.9999859
0
ARC
8
DEFAULT_255_2_778
10
9.563405
20
42.2294783
40
0.7510159
50
90.0050654
51
134.9497993
0
ARC
8
DEFAULT_255_2_778
10
9.5632746
20
42.2292963
40
0.7510526
50
134.9329452
51
180.0155944
0
ARC
8
DEFAULT_255_2_778
10
9.5762945
20
42.2251612
40
0.7640826
50
179.7052536
51
222.5741919
0
ARC
8
DEFAULT_255_2_778
10
9.5632805
20
42.2141163
40
0.7470269
50
222.6256588
51
270.1489141
0
LINE
8
DEFAULT_255_2_778
10
14.0768221
20
43.4451919
11
14.0768221
21
40.9823919
0
LINE
8
DEFAULT_255_2_778
10
14.0768221
20
40.9823919
11
14.6203221
21
40.9823919
0
LINE
8
DEFAULT_255_2_778
10
14.6203221
20
40.9823919
11
14.6203221
21
42.9897919
0
LINE
8
DEFAULT_255_2_778
10
14.6203221
20
42.9897919
11
15.2632221
21
42.9897919
0
LINE
8
DEFAULT_255_2_778
10
15.2632221
20
42.2290919
11
14.7986221
21
42.2290919
0
LINE
8
DEFAULT_255_2_778
10
14.7986221
20
42.2290919
11
15.6397221
21
40.9820919
0
LINE
8
DEFAULT_255_2_778
10
15.6397221
20
40.9820919
11
16.3126221
21
40.9820919
0
LINE
8
DEFAULT_255_2_778
10
16.3126221
20
40.9820919
11
15.6993221
21
41.8824919
0
LINE
8
DEFAULT_255_2_778
10
15.3421221
20
43.4657919
11
14.6200221
21
43.4657919
0
LINE
8
DEFAULT_255_2_778
10
14.6200221
20
43.4657919
11
14.0766221
21
43.4451919
0
LINE
8
DEFAULT_255_2_778
10
14.0766221
20
43.4451919
11
14.0768221
21
43.4451919
0
LINE
8
DEFAULT_255_2_778
10
19.0142221
20
43.4451919
11
19.0142221
21
40.9823919
0
LINE
8
DEFAULT_255_2_778
10
19.0142221
20
40.9823919
11
19.5577221
21
40.9823919
0
LINE
8
DEFAULT_255_2_778
10
19.5577221
20
40.9823919
11
19.5577221
21
42.9897919
0
LINE
8
DEFAULT_255_2_778
10
19.5577221
20
42.9897919
11
20.1723221
21
42.9897919
0
LINE
8
DEFAULT_255_2_778
10
20.5578221
20
42.6145919
11
20.5578221
21
40.9823919
0
LINE
8
DEFAULT_255_2_778
10
20.5578221
20
40.9823919
11
21.1013221
21
40.9823919
0
LINE
8
DEFAULT_255_2_778
10
21.1013221
20
40.9823919
11
21.1013221
21
42.5952919
0
LINE
8
DEFAULT_255_2_778
10
20.2305221
20
43.4657919
11
19.5577221
21
43.4657919
0
LINE
8
DEFAULT_255_2_778
10
19.5577221
20
43.4657919
11
19.0142221
21
43.4451919
0
LINE
8
DEFAULT_255_2_778
10
19.0142221
20
43.4451919
11
19.0142221
21
43.4451919
0
LINE
8
DEFAULT_255_2_778
10
11.0196221
20
43.4451919
11
11.0196221
21
40.9823919
0
LINE
8
DEFAULT_255_2_778
10
11.0196221
20
40.9823919
11
11.5628221
21
40.9823919
0
LINE
8
DEFAULT_255_2_778
10
11.5628221
20
40.9823919
11
11.5628221
21
42.9897919
0
LINE
8
DEFAULT_255_2_778
10
11.5628221
20
42.9897919
11
12.1671221
21
42.9897919
0
LINE
8
DEFAULT_255_2_778
10
12.1671221
20
42.9897919
11
12.1671221
21
40.9823919
0
LINE
8
DEFAULT_255_2_778
10
12.1671221
20
40.9823919
11
12.7105221
21
40.9823919
0
LINE
8
DEFAULT_255_2_778
10
12.7105221
20
40.9823919
11
12.7105221
21
42.9897919
0
LINE
8
DEFAULT_255_2_778
10
12.7105221
20
42.9897919
11
12.9188221
21
42.9897919
0
LINE
8
DEFAULT_255_2_778
10
13.3042221
20
42.6145919
11
13.3042221
21
40.9823919
0
LINE
8
DEFAULT_255_2_778
10
13.3042221
20
40.9823919
11
13.8490221
21
40.9823919
0
LINE
8
DEFAULT_255_2_778
10
13.8490221
20
40.9823919
11
13.8490221
21
42.5952919
0
LINE
8
DEFAULT_255_2_778
10
12.9783221
20
43.4657919
11
11.5731221
21
43.4657919
0
LINE
8
DEFAULT_255_2_778
10
11.5731221
20
43.4657919
11
11.0193221
21
43.4451919
0
LINE
8
DEFAULT_255_2_778
10
11.0193221
20
43.4451919
11
11.0196221
21
43.4451919
0
LINE
8
DEFAULT_255_2_778
10
17.5598221
20
40.9225919
11
17.5598221
21
40.9228919
0
LINE
8
DEFAULT_255_2_778
10
9.5652221
20
40.9228919
11
9.5652221
21
40.9228919
0
LINE
8
DEFAULT_255_1_604
10
10.8487902
20
39.8352977
11
10.8487902
21
38.3151
0
LINE
8
DEFAULT_255_1_604
10
10.8487902
20
38.3151
11
10.6472805
21
38.3151
0
LINE
8
DEFAULT_255_1_604
10
10.6472805
20
38.3151
11
9.8819612
21
39.486571
0
LINE
8
DEFAULT_255_1_604
10
9.8819612
20
39.486571
11
9.8819612
21
38.3151
0
LINE
8
DEFAULT_255_1_604
10
9.8819612
20
38.3151
11
9.6804515
21
38.3151
0
LINE
8
DEFAULT_255_1_604
10
9.6804515
20
38.3151
11
9.6804515
21
39.8352977
0
LINE
8
DEFAULT_255_1_604
10
9.6804515
20
39.8352977
11
9.8819612
21
39.8352977
0
LINE
8
DEFAULT_255_1_604
10
9.8819612
20
39.8352977
11
10.6493687
21
38.6586062
0
LINE
8
DEFAULT_255_1_604
10
10.6493687
20
38.6586062
11
10.6493687
21
39.8352977
0
LINE
8
DEFAULT_255_1_604
10
10.6493687
20
39.8352977
11
10.8487902
21
39.8352977
0
LINE
8
DEFAULT_255_1_604
10
11.3520425
20
39.8352977
11
11.7185187
21
39.2526944
0
LINE
8
DEFAULT_255_1_604
10
11.7185187
20
39.2526944
11
12.0829067
21
39.8352977
0
LINE
8
DEFAULT_255_1_604
10
12.0829067
20
39.8352977
11
12.3188715
21
39.8352977
0
LINE
8
DEFAULT_255_1_604
10
12.3188715
20
39.8352977
11
11.8385893
21
39.0814634
0
LINE
8
DEFAULT_255_1_604
10
11.8385893
20
39.0814634
11
12.3303565
21
38.3151
0
LINE
8
DEFAULT_255_1_604
10
12.3303565
20
38.3151
11
12.0923036
21
38.3151
0
LINE
8
DEFAULT_255_1_604
10
12.0923036
20
38.3151
11
11.7185187
21
38.9081441
0
LINE
8
DEFAULT_255_1_604
10
11.7185187
20
38.9081441
11
11.3426457
21
38.3151
0
LINE
8
DEFAULT_255_1_604
10
11.3426457
20
38.3151
11
11.1056368
21
38.3151
0
LINE
8
DEFAULT_255_1_604
10
11.1056368
20
38.3151
11
11.5984481
21
39.0814634
0
LINE
8
DEFAULT_255_1_604
10
11.5984481
20
39.0814634
11
11.1171218
21
39.8352977
0
LINE
8
DEFAULT_255_1_604
10
11.1171218
20
39.8352977
11
11.3520425
21
39.8352977
0
LINE
8
DEFAULT_255_1_604
10
12.8868574
20
39.0396997
11
12.8868574
21
38.8820418
0
LINE
8
DEFAULT_255_1_604
10
12.8868574
20
38.8820418
11
12.3773406
21
38.8820418
0
LINE
8
DEFAULT_255_1_604
10
12.3773406
20
38.8820418
11
12.3773406
21
39.0396997
0
LINE
8
DEFAULT_255_1_604
10
12.3773406
20
39.0396997
11
12.8868574
21
39.0396997
0
LINE
8
DEFAULT_255_1_604
10
14.1136653
20
39.395735
11
13.9121556
21
39.395735
0
LINE
8
DEFAULT_255_1_604
10
13.0121484
20
38.7557067
11
13.2136582
21
38.7557067
0
ARC
8
DEFAULT_255_1_604
10
13.9977673
20
40.5586963
40
1.6279202
50
248.9196552
51
254.1440726
0
ARC
8
DEFAULT_255_1_604
10
13.7793232
20
39.9963326
40
1.0246237
50
241.6336607
51
249.0066662
0
ARC
8
DEFAULT_255_1_604
10
13.5806399
20
39.6322745
40
0.6098858
50
230.4983176
51
241.8084263
0
ARC
8
DEFAULT_255_1_604
10
13.4788657
20
39.5025712
40
0.4450852
50
227.4067756
51
229.9866257
0
ARC
8
DEFAULT_255_1_604
10
13.4152848
20
39.4404851
40
0.3563802
50
200.6782895
51
228.1765119
0
ARC
8
DEFAULT_255_1_604
10
13.4246877
20
39.4385345
40
0.3645247
50
179.5063595
51
199.8695341
0
ARC
8
DEFAULT_255_1_604
10
13.4234832
20
39.4481705
40
0.3633646
50
132.4834402
51
181.0242633
0
ARC
8
DEFAULT_255_1_604
10
13.5008769
20
39.3750784
40
0.4696012
50
129.252896
51
133.4243007
0
ARC
8
DEFAULT_255_1_604
10
13.5199447
20
39.346481
40
0.503822
50
101.9877961
51
128.8742602
0
ARC
8
DEFAULT_255_1_604
10
13.5717617
20
39.1227313
40
0.7334669
50
89.5906337
51
102.31693
0
ARC
8
DEFAULT_255_1_604
10
13.5809247
20
39.1641213
40
0.6920693
50
77.2360136
51
90.3247516
0
ARC
8
DEFAULT_255_1_604
10
13.6078398
20
39.289848
40
0.5635052
50
63.8378549
51
77.0807024
0
ARC
8
DEFAULT_255_1_604
10
13.6439564
20
39.3571396
40
0.4871913
50
45.9862967
51
64.1608756
0
ARC
8
DEFAULT_255_1_604
10
13.6778574
20
39.3958607
40
0.4357959
50
32.2748401
51
45.6544751
0
ARC
8
DEFAULT_255_1_604
10
13.6865029
20
39.3983388
40
0.4271704
50
359.6507489
51
32.61301
0
ARC
8
DEFAULT_255_1_604
10
13.5639258
20
39.3989594
40
0.3482447
50
359.4694993
51
14.9832001
0
ARC
8
DEFAULT_255_1_604
10
13.6555846
20
39.4235133
40
0.253354
50
14.9782012
51
48.2004529
0
ARC
8
DEFAULT_255_1_604
10
13.63422
20
39.3966635
40
0.2876169
50
48.5927279
51
74.1242187
0
ARC
8
DEFAULT_255_1_604
10
13.5908652
20
39.2535764
40
0.4371137
50
73.7887574
51
86.6653371
0
ARC
8
DEFAULT_255_1_604
10
13.5775521
20
39.0966868
40
0.5945264
50
86.263989
51
90.0530095
0
ARC
8
DEFAULT_255_1_604
10
13.5738686
20
39.1480432
40
0.5431788
50
89.6694744
51
99.2313066
0
ARC
8
DEFAULT_255_1_604
10
13.5423429
20
39.3358161
40
0.3527818
50
99.0697403
51
113.7658074
0
ARC
8
DEFAULT_255_1_604
10
13.5067412
20
39.41977
40
0.2616027
50
114.0397144
51
127.9852033
0
ARC
8
DEFAULT_255_1_604
10
13.4754911
20
39.4582475
40
0.2120448
50
127.728744
51
176.7105171
0
ARC
8
DEFAULT_255_1_604
10
13.5637874
20
39.4451124
40
0.3010569
50
175.1788725
51
180.0580527
0
ARC
8
DEFAULT_255_1_604
10
13.4541149
20
39.4435183
40
0.1913888
50
179.6140914
51
228.1245604
0
ARC
8
DEFAULT_255_1_604
10
13.5116075
20
39.4967569
40
0.2695053
50
226.5785192
51
230.8787202
0
ARC
8
DEFAULT_255_1_604
10
13.5727708
20
39.5779662
40
0.3711196
50
231.4636783
51
241.9261027
0
ARC
8
DEFAULT_255_1_604
10
13.7283962
20
39.8643597
40
0.6970598
50
241.7177343
51
248.3258679
0
ARC
8
DEFAULT_255_1_604
10
13.908454
20
40.3104359
40
1.1781012
50
248.2004104
51
252.4528805
0
ARC
8
DEFAULT_255_1_604
10
14.065208
20
40.7950946
40
1.6874714
50
252.3394649
51
254.3463217
0
ARC
8
DEFAULT_255_1_604
10
13.0845131
20
37.2874202
40
1.9547183
50
71.0195902
51
74.408661
0
ARC
8
DEFAULT_255_1_604
10
13.3048241
20
37.9233628
40
1.2816979
50
66.1845748
51
71.086447
0
ARC
8
DEFAULT_255_1_604
10
13.5071244
20
38.3788349
40
0.7833226
50
59.3536705
51
66.2693383
0
ARC
8
DEFAULT_255_1_604
10
13.6226402
20
38.574264
40
0.5563063
50
49.102012
51
59.3293902
0
ARC
8
DEFAULT_255_1_604
10
13.7290645
20
38.6955689
40
0.3949386
50
32.7923413
51
49.2505082
0
ARC
8
DEFAULT_255_1_604
10
13.7704886
20
38.7250576
40
0.3441528
50
31.1194044
51
32.4004008
0
ARC
8
DEFAULT_255_1_604
10
13.7593117
20
38.7206583
40
0.3560005
50
8.1116636
51
30.7958587
0
ARC
8
DEFAULT_255_1_604
10
13.653998
20
38.7027154
40
0.4628015
50
359.8388829
51
8.4711031
0
ARC
8
DEFAULT_255_1_604
10
13.7353234
20
38.6963947
40
0.3815071
50
337.4731248
51
0.7538276
0
ARC
8
DEFAULT_255_1_604
10
13.7585507
20
38.6938292
40
0.3591286
50
307.5917044
51
336.4314267
0
ARC
8
DEFAULT_255_1_604
10
13.6981565
20
38.761192
40
0.4493987
50
307.6576182
51
308.453814
0
ARC
8
DEFAULT_255_1_604
10
13.668798
20
38.8066407
40
0.503336
50
284.3733492
51
307.1426274
0
ARC
8
DEFAULT_255_1_604
10
13.6044231
20
39.043467
40
0.7487383
50
272.4384453
51
284.6465541
0
ARC
8
DEFAULT_255_1_604
10
13.5879433
20
39.2773498
40
0.9831319
50
269.9708444
51
272.8180835
0
ARC
8
DEFAULT_255_1_604
10
13.582359
20
39.0124906
40
0.7182904
50
248.2707574
51
270.4055434
0
ARC
8
DEFAULT_255_1_604
10
13.575474
20
38.9881314
40
0.693118
50
246.1392493
51
248.0539658
0
ARC
8
DEFAULT_255_1_604
10
13.5208833
20
38.8734086
40
0.5661284
50
233.1671073
51
246.4952821
0
ARC
8
DEFAULT_255_1_604
10
13.4488589
20
38.7761727
40
0.445125
50
215.340369
51
233.0842247
0
ARC
8
DEFAULT_255_1_604
10
13.413423
20
38.7503971
40
0.4013099
50
179.2419065
51
215.2648831
0
ARC
8
DEFAULT_255_1_604
10
13.5132088
20
38.7522322
40
0.2995708
50
179.3354443
51
199.1044828
0
ARC
8
DEFAULT_255_1_604
10
13.4700069
20
38.7409358
40
0.2550746
50
199.8829298
51
232.7063531
0
ARC
8
DEFAULT_255_1_604
10
13.5313997
20
38.8181546
40
0.3537092
50
232.373695
51
255.5136246
0
ARC
8
DEFAULT_255_1_604
10
13.5757119
20
38.9798836
40
0.5213868
50
255.2447314
51
267.5320255
0
ARC
8
DEFAULT_255_1_604
10
13.5871006
20
39.1402963
40
0.6821558
50
267.1565212
51
270.0287584
0
ARC
8
DEFAULT_255_1_604
10
13.5907135
20
39.0824448
40
0.6243128
50
269.6998489
51
278.1660484
0
ARC
8
DEFAULT_255_1_604
10
13.6239949
20
38.8574935
40
0.3969162
50
278.0229485
51
290.6258036
0
ARC
8
DEFAULT_255_1_604
10
13.6691916
20
38.7369352
40
0.2681647
50
290.6618451
51
307.0372594
0
ARC
8
DEFAULT_255_1_604
10
13.7082395
20
38.689033
40
0.2064202
50
306.3942077
51
355.3031145
0
ARC
8
DEFAULT_255_1_604
10
13.6416585
20
38.6989914
40
0.2736295
50
354.3664644
51
0.0700163
0
ARC
8
DEFAULT_255_1_604
10
13.6601781
20
38.7019177
40
0.2551229
50
359.4178864
51
16.1972437
0
ARC
8
DEFAULT_255_1_604
10
13.7193655
20
38.7181424
40
0.1937613
50
16.4720592
51
52.6262128
0
ARC
8
DEFAULT_255_1_604
10
13.6126472
20
38.5772312
40
0.3705223
50
52.7385707
51
62.4979505
0
ARC
8
DEFAULT_255_1_604
10
13.4326372
20
38.2384909
40
0.7541152
50
62.251463
51
68.1224478
0
ARC
8
DEFAULT_255_1_604
10
13.2090219
20
37.6889448
40
1.3474116
50
68.0060697
51
71.8052792
0
ARC
8
DEFAULT_255_1_604
10
12.9756253
20
36.9889869
40
2.085252
50
71.718261
51
73.9259731
0
LINE
8
DEFAULT_255_1_604
10
14.2942932
20
38.8486309
11
14.2942932
21
38.88413
0
LINE
8
DEFAULT_255_1_604
10
15.2527694
20
38.9050119
11
15.2527694
21
38.8246168
0
LINE
8
DEFAULT_255_1_604
10
15.2527694
20
38.8246168
11
14.4874501
21
38.8246168
0
LINE
8
DEFAULT_255_1_604
10
15.1201698
20
38.6043134
11
15.2381521
21
38.5124333
0
LINE
8
DEFAULT_255_1_604
10
14.4937147
20
38.9833188
11
15.0596125
21
38.9833188
0
LINE
8
DEFAULT_255_1_604
10
15.0596125
20
38.9833188
11
15.0596125
21
38.997936
0
ARC
8
DEFAULT_255_1_604
10
14.8063938
20
38.8630726
40
0.5688837
50
252.3265389
51
270.5810275
0
ARC
8
DEFAULT_255_1_604
10
14.7797558
20
38.7667888
40
0.469073
50
223.3000907
51
251.8562406
0
ARC
8
DEFAULT_255_1_604
10
14.8072315
20
38.7934757
40
0.5073717
50
190.9374269
51
223.3654367
0
ARC
8
DEFAULT_255_1_604
10
15.0314673
20
38.8441677
40
0.7371878
50
179.6531083
51
191.4990061
0
ARC
8
DEFAULT_255_1_604
10
15.0473283
20
38.8883058
40
0.7530468
50
167.4007028
51
180.3177172
0
ARC
8
DEFAULT_255_1_604
10
14.910566
20
38.9172322
40
0.6132701
50
154.1833926
51
167.2510008
0
ARC
8
DEFAULT_255_1_604
10
14.8284946
20
38.9604491
40
0.520579
50
134.315176
51
154.5314211
0
ARC
8
DEFAULT_255_1_604
10
14.8002211
20
38.9852482
40
0.4830918
50
122.8617774
51
133.9706154
0
ARC
8
DEFAULT_255_1_604
10
14.7867686
20
39.014179
40
0.4515123
50
89.8248792
51
123.419936
0
ARC
8
DEFAULT_255_1_604
10
14.7932744
20
38.9301125
40
0.5356012
50
74.7874713
51
90.5483389
0
ARC
8
DEFAULT_255_1_604
10
14.8314594
20
39.0711589
40
0.3894774
50
39.8178634
51
74.7634032
0
ARC
8
DEFAULT_255_1_604
10
14.7648146
20
39.0192028
40
0.4739443
50
16.8991162
51
39.4830757
0
ARC
8
DEFAULT_255_1_604
10
14.5185244
20
38.9403209
40
0.7325394
50
4.9635001
51
17.2027603
0
ARC
8
DEFAULT_255_1_604
10
14.2041428
20
38.9071455
40
1.0486288
50
359.883421
51
5.2831589
0
ARC
8
DEFAULT_255_1_604
10
14.9890345
20
38.8332367
40
0.5016584
50
180.9845526
51
194.9402599
0
ARC
8
DEFAULT_255_1_604
10
14.8525801
20
38.7959333
40
0.3602007
50
194.803019
51
222.0413236
0
ARC
8
DEFAULT_255_1_604
10
14.8130477
20
38.7567101
40
0.3045866
50
221.5416852
51
268.8615074
0
ARC
8
DEFAULT_255_1_604
10
14.8225256
20
38.8443027
40
0.3924265
50
267.7319899
51
270.0113829
0
ARC
8
DEFAULT_255_1_604
10
14.8248526
20
38.8708454
40
0.4189754
50
269.6924514
51
280.4117236
0
ARC
8
DEFAULT_255_1_604
10
14.8477814
20
38.7514005
40
0.297355
50
280.22574
51
298.6335021
0
ARC
8
DEFAULT_255_1_604
10
14.8623004
20
38.7208301
40
0.2635725
50
299.0478643
51
300.4619896
0
ARC
8
DEFAULT_255_1_604
10
14.7745691
20
38.8670688
40
0.4341046
50
300.6577543
51
322.0377941
0
ARC
8
DEFAULT_255_1_604
10
14.7284558
20
38.9070149
40
0.4950435
50
321.6757688
51
322.3045346
0
ARC
8
DEFAULT_255_1_604
10
14.8500329
20
38.7549236
40
0.4576441
50
276.9728716
51
328.0035687
0
ARC
8
DEFAULT_255_1_604
10
14.8140329
20
38.9473627
40
0.6531473
50
269.8359436
51
278.0582185
0
ARC
8
DEFAULT_255_1_604
10
14.7844875
20
39.0442159
40
0.2627969
50
89.2017676
51
117.2852172
0
ARC
8
DEFAULT_255_1_604
10
14.7913961
20
39.0387586
40
0.2708383
50
118.0549075
51
137.4542471
0
ARC
8
DEFAULT_255_1_604
10
14.8401155
20
38.9944961
40
0.3366612
50
137.5109473
51
158.8515134
0
ARC
8
DEFAULT_255_1_604
10
14.9880302
20
38.9347977
40
0.4961573
50
158.5845224
51
170.1720121
0
ARC
8
DEFAULT_255_1_604
10
15.1401013
20
38.9045983
40
0.6511625
50
169.837727
51
173.0564047
0
ARC
8
DEFAULT_255_1_604
10
14.5294812
20
38.9709976
40
0.5308152
50
2.9089609
51
12.8848339
0
ARC
8
DEFAULT_255_1_604
10
14.7076508
20
39.0129313
40
0.3477829
50
12.6958044
51
28.6407234
0
ARC
8
DEFAULT_255_1_604
10
14.7780722
20
39.0493845
40
0.2685114
50
29.0165315
51
41.1489785
0
ARC
8
DEFAULT_255_1_604
10
14.8044224
20
39.0723271
40
0.2335729
50
41.1644762
51
85.0015347
0
ARC
8
DEFAULT_255_1_604
10
14.7887085
20
38.9768594
40
0.3301282
50
83.7281987
51
90.0971732
0
LINE
8
DEFAULT_255_1_604
10
16.0222651
20
39.4510719
11
16.0222651
21
39.2714881
0
LINE
8
DEFAULT_255_1_604
10
15.6693621
20
39.1169625
11
15.6693621
21
38.3151
0
LINE
8
DEFAULT_255_1_604
10
15.6693621
20
38.3151
11
15.4762051
21
38.3151
0
LINE
8
DEFAULT_255_1_604
10
15.4762051
20
38.3151
11
15.4762051
21
39.4448073
0
LINE
8
DEFAULT_255_1_604
10
15.4762051
20
39.4448073
11
15.6641416
21
39.4448073
0
LINE
8
DEFAULT_255_1_604
10
15.6641416
20
39.4448073
11
15.6672739
21
39.3142958
0
ARC
8
DEFAULT_255_1_604
10
15.9356205
20
38.743824
40
0.5347305
50
80.6750133
51
86.8938552
0
ARC
8
DEFAULT_255_1_604
10
15.9277425
20
38.6176994
40
0.6610976
50
86.8043921
51
90.0424441
0
ARC
8
DEFAULT_255_1_604
10
15.9229378
20
38.9373696
40
0.3414543
50
89.2759316
51
106.6212113
0
ARC
8
DEFAULT_255_1_604
10
15.8963624
20
39.0339541
40
0.2413135
50
107.1346409
51
157.645781
0
ARC
8
DEFAULT_255_1_604
10
15.9852937
20
38.9845303
40
0.3425654
50
155.6573462
51
157.2575463
0
ARC
8
DEFAULT_255_1_604
10
15.9596489
20
39.1360394
40
0.3424303
50
127.8167322
51
148.6299905
0
ARC
8
DEFAULT_255_1_604
10
15.9266868
20
39.1698497
40
0.2955584
50
91.333022
51
126.7875291
0
ARC
8
DEFAULT_255_1_604
10
15.9365541
20
39.0772535
40
0.3884357
50
89.9859132
51
92.4704204
0
ARC
8
DEFAULT_255_1_604
10
15.9376552
20
39.1127772
40
0.3529134
50
85.3579682
51
90.1632676
0
ARC
8
DEFAULT_255_1_604
10
15.9486339
20
39.2431386
40
0.2220914
50
78.402434
51
85.4592432
0
ARC
8
DEFAULT_255_1_604
10
15.9674735
20
39.3330084
40
0.1302696
50
67.7850617
51
78.5730171
0
ARC
8
DEFAULT_255_1_604
10
15.9815016
20
39.3693686
40
0.0913078
50
63.4843993
51
67.3079256
0
LINE
8
DEFAULT_255_1_604
10
16.4096231
20
39.4448073
11
16.4096231
21
38.3151
0
LINE
8
DEFAULT_255_1_604
10
16.4096231
20
38.3151
11
16.2164662
21
38.3151
0
LINE
8
DEFAULT_255_1_604
10
16.2164662
20
38.3151
11
16.2164662
21
39.4448073
0
LINE
8
DEFAULT_255_1_604
10
16.2164662
20
39.4448073
11
16.4096231
21
39.4448073
0
ARC
8
DEFAULT_255_1_604
10
16.3280199
20
39.7456899
40
0.127221
50
161.4152826
51
180.5531793
0
ARC
8
DEFAULT_255_1_604
10
16.3118744
20
39.7501326
40
0.1105054
50
138.1828767
51
160.9306615
0
ARC
8
DEFAULT_255_1_604
10
16.2975665
20
39.7625496
40
0.0915633
50
104.6366954
51
138.0040467
0
ARC
8
DEFAULT_255_1_604
10
16.3114964
20
39.7148976
40
0.1411961
50
92.0600946
51
105.2196955
0
ARC
8
DEFAULT_255_1_604
10
16.314533
20
39.6702039
40
0.1859755
50
89.976034
51
92.500056
0
ARC
8
DEFAULT_255_1_604
10
16.3158353
20
39.6996546
40
0.1565297
50
78.0235533
51
90.4482292
0
ARC
8
DEFAULT_255_1_604
10
16.3278042
20
39.7534074
40
0.1014649
50
55.0520287
51
78.3364827
0
ARC
8
DEFAULT_255_1_604
10
16.3343405
20
39.7643835
40
0.0887287
50
42.0505191
51
54.4515384
0
ARC
8
DEFAULT_255_1_604
10
16.3167759
20
39.7482774
40
0.1125591
50
1.7494808
51
42.1498785
0
ARC
8
DEFAULT_255_1_604
10
16.2836992
20
39.7445042
40
0.1457617
50
359.983267
51
2.8350503
0
ARC
8
DEFAULT_255_1_604
10
16.3052515
20
39.7432622
40
0.1242152
50
342.1067842
51
0.5532568
0
ARC
8
DEFAULT_255_1_604
10
16.3237945
20
39.7381523
40
0.1050022
50
316.7111892
51
341.6514662
0
ARC
8
DEFAULT_255_1_604
10
16.3325095
20
39.7303448
40
0.0933055
50
285.4403898
51
316.5315783
0
ARC
8
DEFAULT_255_1_604
10
16.3182017
20
39.7778857
40
0.1429444
50
272.354587
51
285.8950436
0
ARC
8
DEFAULT_255_1_604
10
16.3147029
20
39.8256885
40
0.1908567
50
269.972359
51
272.8144941
0
ARC
8
DEFAULT_255_1_604
10
16.313438
20
39.7969178
40
0.16209
50
258.8433004
51
270.4145702
0
ARC
8
DEFAULT_255_1_604
10
16.301743
20
39.7403003
40
0.104281
50
238.5433713
51
259.1283918
0
ARC
8
DEFAULT_255_1_604
10
16.2928828
20
39.7242312
40
0.0859538
50
222.5061974
51
237.9916454
0
ARC
8
DEFAULT_255_1_604
10
16.3094733
20
39.7393194
40
0.1083791
50
184.107168
51
222.4604359
0
ARC
8
DEFAULT_255_1_604
10
16.3445288
20
39.7443208
40
0.143724
50
179.9438243
51
185.0949628
0
LINE
8
DEFAULT_255_1_604
10
16.669602
20
38.8486309
11
16.669602
21
38.88413
0
LINE
8
DEFAULT_255_1_604
10
17.6280783
20
38.9050119
11
17.6280783
21
38.8246168
0
LINE
8
DEFAULT_255_1_604
10
17.6280783
20
38.8246168
11
16.862759
21
38.8246168
0
LINE
8
DEFAULT_255_1_604
10
17.4954786
20
38.6043134
11
17.613461
21
38.5124333
0
LINE
8
DEFAULT_255_1_604
10
16.8690235
20
38.9833188
11
17.4349213
21
38.9833188
0
LINE
8
DEFAULT_255_1_604
10
17.4349213
20
38.9833188
11
17.4349213
21
38.997936
0
ARC
8
DEFAULT_255_1_604
10
17.1817027
20
38.8630726
40
0.5688837
50
252.3265389
51
270.5810275
0
ARC
8
DEFAULT_255_1_604
10
17.1550647
20
38.7667888
40
0.469073
50
223.3000907
51
251.8562406
0
ARC
8
DEFAULT_255_1_604
10
17.1825403
20
38.7934757
40
0.5073717
50
190.9374269
51
223.3654367
0
ARC
8
DEFAULT_255_1_604
10
17.4067762
20
38.8441677
40
0.7371878
50
179.6531083
51
191.4990061
0
ARC
8
DEFAULT_255_1_604
10
17.4226372
20
38.8883058
40
0.7530468
50
167.4007028
51
180.3177172
0
ARC
8
DEFAULT_255_1_604
10
17.2858748
20
38.9172322
40
0.6132701
50
154.1833926
51
167.2510008
0
ARC
8
DEFAULT_255_1_604
10
17.2038034
20
38.9604491
40
0.520579
50
134.315176
51
154.5314211
0
ARC
8
DEFAULT_255_1_604
10
17.1755299
20
38.9852482
40
0.4830918
50
122.8617774
51
133.9706154
0
ARC
8
DEFAULT_255_1_604
10
17.1620774
20
39.014179
40
0.4515123
50
89.8248792
51
123.419936
0
ARC
8
DEFAULT_255_1_604
10
17.1685832
20
38.9301125
40
0.5356012
50
74.7874713
51
90.5483389
0
ARC
8
DEFAULT_255_1_604
10
17.2067682
20
39.0711589
40
0.3894774
50
39.8178634
51
74.7634032
0
ARC
8
DEFAULT_255_1_604
10
17.1401234
20
39.0192028
40
0.4739443
50
16.8991162
51
39.4830757
0
ARC
8
DEFAULT_255_1_604
10
16.8938332
20
38.9403209
40
0.7325394
50
4.9635001
51
17.2027603
0
ARC
8
DEFAULT_255_1_604
10
16.5794516
20
38.9071455
40
1.0486288
50
359.883421
51
5.2831589
0
ARC
8
DEFAULT_255_1_604
10
17.3643433
20
38.8332367
40
0.5016584
50
180.9845526
51
194.9402599
0
ARC
8
DEFAULT_255_1_604
10
17.2278889
20
38.7959333
40
0.3602007
50
194.803019
51
222.0413236
0
ARC
8
DEFAULT_255_1_604
10
17.1883565
20
38.7567101
40
0.3045866
50
221.5416852
51
268.8615074
0
ARC
8
DEFAULT_255_1_604
10
17.1978345
20
38.8443027
40
0.3924265
50
267.7319899
51
270.0113829
0
ARC
8
DEFAULT_255_1_604
10
17.2001614
20
38.8708454
40
0.4189754
50
269.6924514
51
280.4117236
0
ARC
8
DEFAULT_255_1_604
10
17.2230903
20
38.7514005
40
0.297355
50
280.22574
51
298.6335021
0
ARC
8
DEFAULT_255_1_604
10
17.2376092
20
38.7208301
40
0.2635725
50
299.0478643
51
300.4619896
0
ARC
8
DEFAULT_255_1_604
10
17.149878
20
38.8670688
40
0.4341046
50
300.6577543
51
322.0377941
0
ARC
8
DEFAULT_255_1_604
10
17.1037646
20
38.9070149
40
0.4950435
50
321.6757688
51
322.3045346
0
ARC
8
DEFAULT_255_1_604
10
17.2253417
20
38.7549236
40
0.4576441
50
276.9728716
51
328.0035687
0
ARC
8
DEFAULT_255_1_604
10
17.1893417
20
38.9473627
40
0.6531473
50
269.8359436
51
278.0582185
0
ARC
8
DEFAULT_255_1_604
10
17.1597963
20
39.0442159
40
0.2627969
50
89.2017676
51
117.2852172
0
ARC
8
DEFAULT_255_1_604
10
17.1667049
20
39.0387586
40
0.2708383
50
118.0549075
51
137.4542471
0
ARC
8
DEFAULT_255_1_604
10
17.2154243
20
38.9944961
40
0.3366612
50
137.5109473
51
158.8515134
0
ARC
8
DEFAULT_255_1_604
10
17.363339
20
38.9347977
40
0.4961573
50
158.5845224
51
170.1720121
0
ARC
8
DEFAULT_255_1_604
10
17.5154102
20
38.9045983
40
0.6511625
50
169.837727
51
173.0564047
0
ARC
8
DEFAULT_255_1_604
10
16.9047901
20
38.9709976
40
0.5308152
50
2.9089609
51
12.8848339
0
ARC
8
DEFAULT_255_1_604
10
17.0829596
20
39.0129313
40
0.3477829
50
12.6958044
51
28.6407234
0
ARC
8
DEFAULT_255_1_604
10
17.153381
20
39.0493845
40
0.2685114
50
29.0165315
51
41.1489785
0
ARC
8
DEFAULT_255_1_604
10
17.1797312
20
39.0723271
40
0.2335729
50
41.1644762
51
85.0015347
0
ARC
8
DEFAULT_255_1_604
10
17.1640173
20
38.9768594
40
0.3301282
50
83.7281987
51
90.0971732
0
LINE
8
DEFAULT_255_1_604
10
18.6920078
20
39.1127861
11
18.4978067
21
39.1127861
0
LINE
8
DEFAULT_255_1_604
10
17.8045298
20
38.6627826
11
17.9976868
21
38.6627826
0
ARC
8
DEFAULT_255_1_604
10
18.3433485
20
38.6166854
40
0.1659545
50
359.3332918
51
18.5869693
0
ARC
8
DEFAULT_255_1_604
10
18.3704714
20
38.6238581
40
0.1379723
50
19.3538597
51
54.6486846
0
ARC
8
DEFAULT_255_1_604
10
18.3049498
20
38.5335008
40
0.2495822
50
54.3821574
51
65.0626296
0
ARC
8
DEFAULT_255_1_604
10
18.2050293
20
38.3232866
40
0.4823312
50
64.8282789
51
71.4201829
0
ARC
8
DEFAULT_255_1_604
10
18.0877308
20
37.9791371
40
0.8459195
50
71.3165387
51
75.8003729
0
ARC
8
DEFAULT_255_1_604
10
17.978442
20
37.5581087
40
1.2808957
50
75.6808998
51
78.0064359
0
ARC
8
DEFAULT_255_1_604
10
18.5566756
20
40.2850816
40
1.5067083
50
254.6900687
51
258.046694
0
ARC
8
DEFAULT_255_1_604
10
18.4217412
20
39.7964938
40
0.9998322
50
249.9011026
51
254.7553346
0
ARC
8
DEFAULT_255_1_604
10
18.2913114
20
39.4422468
40
0.6223379
50
243.3101833
51
249.9704018
0
ARC
8
DEFAULT_255_1_604
10
18.2095131
20
39.2791262
40
0.4398571
50
234.4048409
51
243.2861569
0
ARC
8
DEFAULT_255_1_604
10
18.1285816
20
39.1673728
40
0.3018794
50
220.8663801
51
234.5496307
0
ARC
8
DEFAULT_255_1_604
10
18.0841087
20
39.1268893
40
0.2417639
50
214.3062143
51
220.5069484
0
ARC
8
DEFAULT_255_1_604
10
18.0807569
20
39.1228793
40
0.2367393
50
186.9131943
51
213.961742
0
ARC
8
DEFAULT_255_1_604
10
18.1499215
20
39.1340724
40
0.306761
50
179.8805304
51
187.4337042
0
ARC
8
DEFAULT_255_1_604
10
18.1297919
20
39.1366846
40
0.2866375
50
132.0053874
51
180.3942945
0
ARC
8
DEFAULT_255_1_604
10
18.215121
20
39.0579399
40
0.402396
50
129.2318925
51
133.5306032
0
ARC
8
DEFAULT_255_1_604
10
18.2221046
20
39.0456669
40
0.4163259
50
100.4409475
51
128.9080942
0
ARC
8
DEFAULT_255_1_604
10
18.2577073
20
38.8785696
40
0.5871276
50
89.6983966
51
100.9026849
0
ARC
8
DEFAULT_255_1_604
10
18.2651219
20
38.8577181
40
0.6079865
50
77.6964607
51
90.4074888
0
ARC
8
DEFAULT_255_1_604
10
18.3081493
20
39.0432579
40
0.417547
50
50.7277075
51
78.0398334
0
ARC
8
DEFAULT_255_1_604
10
18.3659252
20
39.1105807
40
0.3288635
50
25.7545568
51
51.0955393
0
ARC
8
DEFAULT_255_1_604
10
18.3660886
20
39.117071
40
0.3259474
50
359.2467721
51
24.739438
0
ARC
8
DEFAULT_255_1_604
10
18.3290972
20
39.1133602
40
0.1687106
50
359.8050252
51
45.154444
0
ARC
8
DEFAULT_255_1_604
10
18.2761826
20
39.0681118
40
0.2381735
50
43.8052684
51
49.6267625
0
ARC
8
DEFAULT_255_1_604
10
18.2772349
20
39.0682543
40
0.2373843
50
49.797996
51
82.1218746
0
ARC
8
DEFAULT_255_1_604
10
18.2617629
20
38.9842157
40
0.3227729
50
81.4460438
51
90.1712916
0
ARC
8
DEFAULT_255_1_604
10
18.258591
20
38.9157903
40
0.3912031
50
89.6767755
51
99.1265073
0
ARC
8
DEFAULT_255_1_604
10
18.2362873
20
39.0501783
40
0.2549797
50
98.9679933
51
113.4574466
0
ARC
8
DEFAULT_255_1_604
10
18.2108251
20
39.1110553
40
0.1890002
50
113.722788
51
127.4761666
0
ARC
8
DEFAULT_255_1_604
10
18.188939
20
39.1370775
40
0.1550403
50
126.9084522
51
150.3163516
0
ARC
8
DEFAULT_255_1_604
10
18.1827361
20
39.1436913
40
0.1464005
50
151.3629522
51
180.0705062
0
ARC
8
DEFAULT_255_1_604
10
18.2182296
20
39.1409807
40
0.1819115
50
179.2029916
51
180.001301
0
ARC
8
DEFAULT_255_1_604
10
18.1759581
20
39.1392797
40
0.1396502
50
179.3037757
51
198.4226433
0
ARC
8
DEFAULT_255_1_604
10
18.1510181
20
39.132789
40
0.11395
50
199.2893135
51
238.6035039
0
ARC
8
DEFAULT_255_1_604
10
18.2293886
20
39.2558135
40
0.2598043
50
237.9848398
51
246.874465
0
ARC
8
DEFAULT_255_1_604
10
18.3408746
20
39.5108472
40
0.538136
50
246.6227699
51
251.8173458
0
ARC
8
DEFAULT_255_1_604
10
18.4749043
20
39.9133455
40
0.9623613
50
251.7138342
51
255.0779169
0
ARC
8
DEFAULT_255_1_604
10
18.6307873
20
40.4939173
40
1.5634956
50
255.0366579
51
257.4704818
0
ARC
8
DEFAULT_255_1_604
10
17.9667467
20
37.5021569
40
1.5010731
50
73.6837964
51
77.5015534
0
ARC
8
DEFAULT_255_1_604
10
18.1082943
20
37.9831537
40
0.9996821
50
68.7043889
51
73.7248685
0
ARC
8
DEFAULT_255_1_604
10
18.2256425
20
38.2855711
40
0.6752958
50
63.5910481
51
68.662269
0
ARC
8
DEFAULT_255_1_604
10
18.3259258
20
38.4855526
40
0.4515812
50
54.7105759
51
63.7015853
0
ARC
8
DEFAULT_255_1_604
10
18.4070967
20
38.598935
40
0.3121414
50
41.0622331
51
54.8488879
0
ARC
8
DEFAULT_255_1_604
10
18.4514732
20
38.6396491
40
0.2519421
50
34.4945621
51
40.7101042
0
ARC
8
DEFAULT_255_1_604
10
18.4575589
20
38.64595
40
0.2433645
50
9.3762056
51
34.0833606
0
ARC
8
DEFAULT_255_1_604
10
18.3726362
20
38.629653
40
0.3298151
50
359.7697347
51
9.7660326
0
ARC
8
DEFAULT_255_1_604
10
18.39833
20
38.6240692
40
0.3041485
50
335.8653164
51
0.8022128
0
ARC
8
DEFAULT_255_1_604
10
18.4080824
20
38.625816
40
0.2960156
50
307.7358446
51
334.7848731
0
ARC
8
DEFAULT_255_1_604
10
18.3558917
20
38.6844828
40
0.374392
50
307.0244581
51
308.5575637
0
ARC
8
DEFAULT_255_1_604
10
18.3224842
20
38.7345645
40
0.4345067
50
282.9362008
51
306.5648807
0
ARC
8
DEFAULT_255_1_604
10
18.2754637
20
38.9253061
40
0.6309412
50
271.1025187
51
283.2201266
0
ARC
8
DEFAULT_255_1_604
10
18.2671719
20
39.0867864
40
0.7925681
50
269.9920888
51
271.4772209
0
ARC
8
DEFAULT_255_1_604
10
18.2637616
20
38.9465376
40
0.6523278
50
259.0723002
51
270.2899234
0
ARC
8
DEFAULT_255_1_604
10
18.236174
20
38.8013353
40
0.5045288
50
245.4965108
51
259.0224886
0
ARC
8
DEFAULT_255_1_604
10
18.2000247
20
38.7257075
40
0.4207223
50
228.9685045
51
245.7044665
0
ARC
8
DEFAULT_255_1_604
10
18.1655082
20
38.6831984
40
0.3660011
50
214.4014496
51
228.6759731
0
ARC
8
DEFAULT_255_1_604
10
18.1278996
20
38.6626164
40
0.3233698
50
179.9705552
51
215.1573782
0
ARC
8
DEFAULT_255_1_604
10
18.2189801
20
38.6721739
40
0.2214926
50
182.4300863
51
203.0326833
0
ARC
8
DEFAULT_255_1_604
10
18.1950114
20
38.6648393
40
0.1965823
50
203.7986498
51
232.5484232
0
ARC
8
DEFAULT_255_1_604
10
18.2309594
20
38.710528
40
0.2547137
50
232.3785729
51
256.3934183
0
ARC
8
DEFAULT_255_1_604
10
18.2609012
20
38.8262077
40
0.3741955
50
256.1044304
51
268.4631008
0
ARC
8
DEFAULT_255_1_604
10
18.2669488
20
38.9299774
40
0.4781013
50
268.0721467
51
270.013615
0
ARC
8
DEFAULT_255_1_604
10
18.2693564
20
38.8943663
40
0.4424962
50
269.7029704
51
278.8341658
0
ARC
8
DEFAULT_255_1_604
10
18.2930295
20
38.747442
40
0.2936804
50
278.6725624
51
292.8233393
0
ARC
8
DEFAULT_255_1_604
10
18.319097
20
38.6822623
40
0.2234962
50
293.1453527
51
303.6659015
0
ARC
8
DEFAULT_255_1_604
10
18.3535327
20
38.6333519
40
0.1637068
50
303.1244943
51
321.7431629
0
ARC
8
DEFAULT_255_1_604
10
18.3776944
20
38.6121602
40
0.131623
50
322.4744849
51
1.1292956
0
LINE
8
DEFAULT_255_1_234
10
4.9274119
20
36.5116792
11
4.9274119
21
36.3904
0
LINE
8
DEFAULT_255_1_234
10
4.9274119
20
36.3904
11
4.161184
21
36.3904
0
LINE
8
DEFAULT_255_1_234
10
4.161184
20
36.3904
11
4.161184
21
36.4972221
0
LINE
8
DEFAULT_255_1_234
10
4.161184
20
36.4972221
11
4.5659836
21
36.9469995
0
LINE
8
DEFAULT_255_1_234
10
4.2872823
20
37.2152595
11
4.1386952
21
37.2152595
0
LINE
8
DEFAULT_255_1_234
10
4.6535296
20
36.8514218
11
4.3402918
21
36.5116792
0
LINE
8
DEFAULT_255_1_234
10
4.3402918
20
36.5116792
11
4.9274119
21
36.5116792
0
ARC
8
DEFAULT_255_1_234
10
3.216967
20
38.1399527
40
1.8008286
50
318.5132453
51
320.7828378
0
ARC
8
DEFAULT_255_1_234
10
3.7456644
20
37.7096426
40
1.1191493
50
320.7372736
51
323.9737074
0
ARC
8
DEFAULT_255_1_234
10
4.1376501
20
37.4256361
40
0.6350923
50
323.8961724
51
328.6421089
0
ARC
8
DEFAULT_255_1_234
10
4.3423096
20
37.2994031
40
0.3946393
50
328.8299013
51
331.789948
0
ARC
8
DEFAULT_255_1_234
10
4.4420274
20
37.2479509
40
0.2824501
50
331.4255242
51
352.9364833
0
ARC
8
DEFAULT_255_1_234
10
4.4556775
20
37.2448976
40
0.2685315
50
353.2248685
51
0.0169286
0
ARC
8
DEFAULT_255_1_234
10
4.4766652
20
37.247195
40
0.2475536
50
359.4866256
51
15.9339782
0
ARC
8
DEFAULT_255_1_234
10
4.5273637
20
37.2608286
40
0.1950618
50
16.1714718
51
43.5284424
0
ARC
8
DEFAULT_255_1_234
10
4.5350946
20
37.2685573
40
0.184134
50
43.4415429
51
83.1661404
0
ARC
8
DEFAULT_255_1_234
10
4.5216864
20
37.1948771
40
0.258926
50
82.160215
51
90.1505798
0
ARC
8
DEFAULT_255_1_234
10
4.5185291
20
37.1411865
40
0.3126255
50
89.5460705
51
102.5418777
0
ARC
8
DEFAULT_255_1_234
10
4.4942377
20
37.2442665
40
0.2067346
50
102.1739365
51
129.2061916
0
ARC
8
DEFAULT_255_1_234
10
4.4863449
20
37.2567094
40
0.1921118
50
129.7279328
51
135.7542026
0
ARC
8
DEFAULT_255_1_234
10
4.4984977
20
37.2470045
40
0.2075944
50
136.175737
51
166.3674722
0
ARC
8
DEFAULT_255_1_234
10
4.5991896
20
37.2200182
40
0.3118201
50
165.9092917
51
178.8683903
0
ARC
8
DEFAULT_255_1_234
10
4.6856757
20
37.2153179
40
0.3983935
50
178.438168
51
180.0083905
0
ARC
8
DEFAULT_255_1_234
10
4.5455359
20
37.2192231
40
0.4068601
50
163.2878735
51
180.5581814
0
ARC
8
DEFAULT_255_1_234
10
4.4653621
20
37.241284
40
0.3237344
50
133.454115
51
162.9470031
0
ARC
8
DEFAULT_255_1_234
10
4.4832162
20
37.2223
40
0.349795
50
100.7869394
51
133.4384016
0
ARC
8
DEFAULT_255_1_234
10
4.5179934
20
37.0674319
40
0.5084616
50
89.6605301
51
101.3704185
0
ARC
8
DEFAULT_255_1_234
10
4.5246273
20
37.0735496
40
0.502348
50
78.2171172
51
90.4130393
0
ARC
8
DEFAULT_255_1_234
10
4.5601351
20
37.2359637
40
0.3361092
50
55.9268222
51
78.4888551
0
ARC
8
DEFAULT_255_1_234
10
4.5797791
20
37.2698324
40
0.2970617
50
47.9292255
51
55.4054003
0
ARC
8
DEFAULT_255_1_234
10
4.5899352
20
37.2801502
40
0.2825983
50
4.3347696
51
48.0560701
0
ARC
8
DEFAULT_255_1_234
10
4.4803745
20
37.2631601
40
0.393225
50
359.925209
51
5.5967654
0
ARC
8
DEFAULT_255_1_234
10
4.5232637
20
37.2687816
40
0.3503892
50
337.8914096
51
358.9967724
0
ARC
8
DEFAULT_255_1_234
10
4.2519049
20
37.3734706
40
0.6412172
50
326.9135351
51
338.3505194
0
ARC
8
DEFAULT_255_1_234
10
3.8533353
20
37.6289284
40
1.1146189
50
319.6472867
51
327.095818
0
ARC
8
DEFAULT_255_1_234
10
3.4700356
20
37.9451
40
1.6114559
50
317.2586784
51
319.9046139
0
LINE
8
DEFAULT_255_1_234
10
5.7121127
20
37.5598211
11
5.7121127
21
36.783152
0
LINE
8
DEFAULT_255_1_234
10
5.7121127
20
36.783152
11
5.8743538
21
36.783152
0
LINE
8
DEFAULT_255_1_234
10
5.8743538
20
36.783152
11
5.8743538
21
36.6618728
0
LINE
8
DEFAULT_255_1_234
10
5.8743538
20
36.6618728
11
5.7121127
21
36.6618728
0
LINE
8
DEFAULT_255_1_234
10
5.7121127
20
36.6618728
11
5.7121127
21
36.3904
0
LINE
8
DEFAULT_255_1_234
10
5.7121127
20
36.3904
11
5.5627224
21
36.3904
0
LINE
8
DEFAULT_255_1_234
10
5.5627224
20
36.3904
11
5.5627224
21
36.6618728
0
LINE
8
DEFAULT_255_1_234
10
5.5627224
20
36.6618728
11
5.0302181
21
36.6618728
0
LINE
8
DEFAULT_255_1_234
10
5.0302181
20
36.6618728
11
5.0302181
21
36.7494187
0
LINE
8
DEFAULT_255_1_234
10
5.0302181
20
36.7494187
11
5.5538875
21
37.5598211
0
LINE
8
DEFAULT_255_1_234
10
5.5538875
20
37.5598211
11
5.7121127
21
37.5598211
0
LINE
8
DEFAULT_255_1_234
10
5.5450525
20
37.3244912
11
5.1988846
21
36.783152
0
LINE
8
DEFAULT_255_1_234
10
5.1988846
20
36.783152
11
5.5627224
21
36.783152
0
LINE
8
DEFAULT_255_1_234
10
5.5627224
20
36.783152
11
5.5627224
21
37.3566181
0
LINE
8
DEFAULT_255_1_234
10
5.5627224
20
37.3566181
11
5.5450525
21
37.3244912
0
LINE
8
DEFAULT_255_1_234
10
6.101652
20
37.5598211
11
6.434166
21
36.5952093
0
LINE
8
DEFAULT_255_1_234
10
6.434166
20
36.5952093
11
6.7682863
21
37.5598211
0
LINE
8
DEFAULT_255_1_234
10
6.7682863
20
37.5598211
11
6.9369528
21
37.5598211
0
LINE
8
DEFAULT_255_1_234
10
6.9369528
20
37.5598211
11
6.5032389
21
36.3904
0
LINE
8
DEFAULT_255_1_234
10
6.5032389
20
36.3904
11
6.3666994
21
36.3904
0
LINE
8
DEFAULT_255_1_234
10
6.3666994
20
36.3904
11
5.9337887
21
37.5598211
0
LINE
8
DEFAULT_255_1_234
10
5.9337887
20
37.5598211
11
6.101652
21
37.5598211
0
LINE
8
DEFAULT_255_1_234
10
23.1654817
20
37.0819327
11
23.1654817
21
36.8891709
0
LINE
8
DEFAULT_255_1_234
10
22.427365
20
36.8690916
11
22.427365
21
37.0674755
0
LINE
8
DEFAULT_255_1_234
10
23.0168946
20
36.8490123
11
23.0168946
21
37.0923739
0
LINE
8
DEFAULT_255_1_234
10
22.5759521
20
37.1036184
11
22.5759521
21
36.8658789
0
ARC
8
DEFAULT_255_1_234
10
21.9407707
20
36.8842805
40
1.2247208
50
353.8441951
51
0.2287902
0
ARC
8
DEFAULT_255_1_234
10
22.4047211
20
36.8324806
40
0.7578929
50
344.4934747
51
353.9765454
0
ARC
8
DEFAULT_255_1_234
10
22.7039801
20
36.7473981
40
0.4467846
50
329.2803592
51
344.7472793
0
ARC
8
DEFAULT_255_1_234
10
22.8032626
20
36.6929018
40
0.3336173
50
324.9352394
51
328.6160465
0
ARC
8
DEFAULT_255_1_234
10
22.8409734
20
36.6665427
40
0.2876076
50
280.580143
51
324.9173126
0
ARC
8
DEFAULT_255_1_234
10
22.8008527
20
36.8336099
40
0.4592847
50
269.5977311
51
281.6734359
0
ARC
8
DEFAULT_255_1_234
10
22.7936433
20
36.8216173
40
0.4472986
50
256.6228859
51
270.51044
0
ARC
8
DEFAULT_255_1_234
10
22.753441
20
36.6667877
40
0.2873874
50
215.8618325
51
257.2788573
0
ARC
8
DEFAULT_255_1_234
10
22.8555442
20
36.7352977
40
0.4102928
50
197.9693508
51
215.2623606
0
ARC
8
DEFAULT_255_1_234
10
23.1040558
20
36.8191709
40
0.6725652
50
187.8816417
51
198.2346507
0
ARC
8
DEFAULT_255_1_234
10
23.4998766
20
36.8763079
40
1.0724845
50
180.8976217
51
188.0055519
0
ARC
8
DEFAULT_255_1_234
10
23.7798954
20
36.8866777
40
1.3526448
50
180.7449369
51
181.1510016
0
ARC
8
DEFAULT_255_1_234
10
23.6221683
20
37.0723042
40
1.1948131
50
173.7675579
51
180.231553
0
ARC
8
DEFAULT_255_1_234
10
23.170383
20
37.1233666
40
0.7401564
50
164.3058563
51
173.9002247
0
ARC
8
DEFAULT_255_1_234
10
22.8791899
20
37.2072656
40
0.4371288
50
148.7922025
51
164.568378
0
ARC
8
DEFAULT_255_1_234
10
22.7840351
20
37.2603929
40
0.3282386
50
144.5883898
51
148.1176286
0
ARC
8
DEFAULT_255_1_234
10
22.7497249
20
37.2843315
40
0.2864044
50
101.6440918
51
144.514236
0
ARC
8
DEFAULT_255_1_234
10
22.7922315
20
37.1154069
40
0.4604934
50
89.5284041
51
102.5819763
0
ARC
8
DEFAULT_255_1_234
10
22.8001403
20
37.1115018
40
0.464401
50
77.0437873
51
90.5081339
0
ARC
8
DEFAULT_255_1_234
10
22.8403405
20
37.2757615
40
0.2953195
50
48.2778575
51
77.4994676
0
ARC
8
DEFAULT_255_1_234
10
22.8476036
20
37.2886746
40
0.2808655
50
36.3142134
51
47.6305865
0
ARC
8
DEFAULT_255_1_234
10
22.7607343
20
37.2301515
40
0.3855453
50
18.2931786
51
35.6769206
0
ARC
8
DEFAULT_255_1_234
10
22.5064102
20
37.1428593
40
0.654423
50
8.024666
51
18.5605216
0
ARC
8
DEFAULT_255_1_234
10
22.0901022
20
37.0813792
40
1.0752407
50
1.1274072
51
8.1718305
0
ARC
8
DEFAULT_255_1_234
10
21.7665213
20
37.0686885
40
1.3990231
50
0.5424119
51
1.3863029
0
ARC
8
DEFAULT_255_1_234
10
21.948659
20
37.0959342
40
1.0682415
50
359.8090433
51
4.9407866
0
ARC
8
DEFAULT_255_1_234
10
22.3696604
20
37.1335113
40
0.6455691
50
4.8362157
51
12.2904523
0
ARC
8
DEFAULT_255_1_234
10
22.6451719
20
37.1948965
40
0.3633074
50
12.0805627
51
23.8173984
0
ARC
8
DEFAULT_255_1_234
10
22.7625425
20
37.2445919
40
0.2358723
50
24.2871213
51
31.3935614
0
ARC
8
DEFAULT_255_1_234
10
22.8150122
20
37.2789233
40
0.1732111
50
30.7407893
51
82.4657128
0
ARC
8
DEFAULT_255_1_234
10
22.7970256
20
37.1905691
40
0.263235
50
81.1060089
51
90.2184952
0
ARC
8
DEFAULT_255_1_234
10
22.7934555
20
37.2163924
40
0.2374236
50
89.3806855
51
105.6762551
0
ARC
8
DEFAULT_255_1_234
10
22.7751186
20
37.2830567
40
0.1682847
50
105.7981136
51
149.7388061
0
ARC
8
DEFAULT_255_1_234
10
22.8815264
20
37.219095
40
0.2924306
50
149.4208916
51
163.6286378
0
ARC
8
DEFAULT_255_1_234
10
23.0906152
20
37.155325
40
0.5110213
50
163.3763315
51
172.1410975
0
ARC
8
DEFAULT_255_1_234
10
23.4206871
20
37.1080518
40
0.8444586
50
172.0259487
51
178.0703232
0
ARC
8
DEFAULT_255_1_234
10
23.723696
20
37.0936906
40
1.1477868
50
177.8631668
51
179.5044149
0
ARC
8
DEFAULT_255_1_234
10
23.6164365
20
36.8622389
40
1.0404907
50
179.7995573
51
185.2460446
0
ARC
8
DEFAULT_255_1_234
10
23.2121404
20
36.8239513
40
0.6343885
50
185.1411642
51
193.0079639
0
ARC
8
DEFAULT_255_1_234
10
22.9477877
20
36.7614641
40
0.3627568
50
192.7897626
51
205.2507664
0
ARC
8
DEFAULT_255_1_234
10
22.8431424
20
36.7147415
40
0.2481908
50
205.8005384
51
211.2537509
0
ARC
8
DEFAULT_255_1_234
10
22.7907864
20
36.679658
40
0.1852521
50
210.3789793
51
238.4008143
0
ARC
8
DEFAULT_255_1_234
10
22.7888386
20
36.6843376
40
0.1882621
50
239.6520629
51
265.9793761
0
ARC
8
DEFAULT_255_1_234
10
22.7973586
20
36.7515427
40
0.2559272
50
265.1315437
51
270.060332
0
ARC
8
DEFAULT_255_1_234
10
22.8002365
20
36.7191534
40
0.2235528
50
269.3314664
51
287.2178029
0
ARC
8
DEFAULT_255_1_234
10
22.8140217
20
36.6688279
40
0.1714108
50
287.7958004
51
329.080874
0
ARC
8
DEFAULT_255_1_234
10
22.7182674
20
36.728593
40
0.2842745
50
328.6634704
51
343.3325132
0
ARC
8
DEFAULT_255_1_234
10
22.5009694
20
36.7962863
40
0.5118644
50
343.0499468
51
351.9393422
0
ARC
8
DEFAULT_255_1_234
10
22.1542994
20
36.8473949
40
0.8622784
50
351.8069023
51
357.7959224
0
ARC
8
DEFAULT_255_1_234
10
21.830755
20
36.8641721
40
1.1862365
50
357.5871873
51
359.2677531
0
LINE
8
DEFAULT_255_1_234
10
23.4490021
20
37.5598211
11
23.7815161
21
36.5952093
0
LINE
8
DEFAULT_255_1_234
10
23.7815161
20
36.5952093
11
24.1156364
21
37.5598211
0
LINE
8
DEFAULT_255_1_234
10
24.1156364
20
37.5598211
11
24.2843029
21
37.5598211
0
LINE
8
DEFAULT_255_1_234
10
24.2843029
20
37.5598211
11
23.850589
21
36.3904
0
LINE
8
DEFAULT_255_1_234
10
23.850589
20
36.3904
11
23.7140495
21
36.3904
0
LINE
8
DEFAULT_255_1_234
10
23.7140495
20
36.3904
11
23.2811388
21
37.5598211
0
LINE
8
DEFAULT_255_1_234
10
23.2811388
20
37.5598211
11
23.4490021
21
37.5598211
0
LINE
8
DEFAULT_255_1_234
10
21.9038902
20
5.8098211
11
21.9038902
21
4.6404
0
LINE
8
DEFAULT_255_1_234
10
21.9038902
20
4.6404
11
21.7496808
21
4.6404
0
LINE
8
DEFAULT_255_1_234
10
21.7496808
20
4.6404
11
21.7496808
21
5.8098211
0
LINE
8
DEFAULT_255_1_234
10
21.7496808
20
5.8098211
11
21.9038902
21
5.8098211
0
LINE
8
DEFAULT_255_1_234
10
23.0853589
20
5.2612534
11
23.0853589
21
5.1873614
0
LINE
8
DEFAULT_255_1_234
10
22.1448423
20
5.1769201
11
22.1448423
21
5.2612534
0
LINE
8
DEFAULT_255_1_234
10
22.9319527
20
5.1761169
11
22.9319527
21
5.2628597
0
LINE
8
DEFAULT_255_1_234
10
22.2982485
20
5.273301
11
22.2982485
21
5.1873614
0
ARC
8
DEFAULT_255_1_234
10
22.2211615
20
5.1834015
40
0.8642064
50
350.487711
51
0.2625388
0
ARC
8
DEFAULT_255_1_234
10
22.4504857
20
5.1439578
40
0.631518
50
336.0277639
51
350.5787438
0
ARC
8
DEFAULT_255_1_234
10
22.584968
20
5.0831892
40
0.4839466
50
319.8877444
51
336.1328423
0
ARC
8
DEFAULT_255_1_234
10
22.6452321
20
5.034958
40
0.4067874
50
302.4806467
51
319.6143626
0
ARC
8
DEFAULT_255_1_234
10
22.6337331
20
5.0571202
40
0.4316636
50
275.8195682
51
302.1884709
0
ARC
8
DEFAULT_255_1_234
10
22.6170964
20
5.1713665
40
0.5470306
50
269.9171439
51
276.3397983
0
ARC
8
DEFAULT_255_1_234
10
22.6126174
20
5.1027681
40
0.4784458
50
252.5219675
51
270.4416499
0
ARC
8
DEFAULT_255_1_234
10
22.5982433
20
5.0488592
40
0.422716
50
237.5352116
51
252.1857531
0
ARC
8
DEFAULT_255_1_234
10
22.6071629
20
5.0602363
40
0.4371052
50
209.063312
51
237.3492538
0
ARC
8
DEFAULT_255_1_234
10
22.6941477
20
5.1148685
40
0.5397041
50
205.1183774
51
209.6470015
0
ARC
8
DEFAULT_255_1_234
10
22.7738514
20
5.148683
40
0.6262326
50
188.7215458
51
204.8240747
0
ARC
8
DEFAULT_255_1_234
10
22.9736042
20
5.1823067
40
0.8287794
50
180.3723947
51
188.9252049
0
ARC
8
DEFAULT_255_1_234
10
22.9708794
20
5.2652402
40
0.8260467
50
169.5253763
51
180.2765336
0
ARC
8
DEFAULT_255_1_234
10
22.7806243
20
5.3002309
40
0.6326007
50
155.8315255
51
169.5089989
0
ARC
8
DEFAULT_255_1_234
10
22.6525744
20
5.3596348
40
0.4914567
50
139.6258461
51
156.0379525
0
ARC
8
DEFAULT_255_1_234
10
22.5936077
20
5.4070799
40
0.4158054
50
122.6416387
51
139.3430715
0
ARC
8
DEFAULT_255_1_234
10
22.6036697
20
5.3887451
40
0.4366739
50
93.0223692
51
122.455762
0
ARC
8
DEFAULT_255_1_234
10
22.6144694
20
5.2922709
40
0.5336137
50
89.975342
51
93.6341897
0
ARC
8
DEFAULT_255_1_234
10
22.6183473
20
5.3321242
40
0.4937738
50
73.746375
51
90.4233405
0
ARC
8
DEFAULT_255_1_234
10
22.6359052
20
5.4001287
40
0.4235786
50
57.662753
51
73.4518111
0
ARC
8
DEFAULT_255_1_234
10
22.6351058
20
5.4022832
40
0.4221899
50
29.1440151
51
57.414694
0
ARC
8
DEFAULT_255_1_234
10
22.5416253
20
5.3439005
40
0.5322966
50
24.0982783
51
29.7323517
0
ARC
8
DEFAULT_255_1_234
10
22.4382528
20
5.3010399
40
0.6441673
50
8.6655297
51
23.8241346
0
ARC
8
DEFAULT_255_1_234
10
22.2148266
20
5.2645854
40
0.8705386
50
359.7806941
51
8.8218784
0
ARC
8
DEFAULT_255_1_234
10
22.1001264
20
5.2671345
40
0.8318373
50
359.7055579
51
8.036044
0
ARC
8
DEFAULT_255_1_234
10
22.400127
20
5.3108239
40
0.5286768
50
7.8928306
51
20.2962107
0
ARC
8
DEFAULT_255_1_234
10
22.5628841
20
5.3708395
40
0.3552073
50
20.3231126
51
36.4992797
0
ARC
8
DEFAULT_255_1_234
10
22.6314387
20
5.4236402
40
0.2686974
50
36.1437156
51
85.6627023
0
ARC
8
DEFAULT_255_1_234
10
22.6151933
20
5.3196221
40
0.373739
50
84.3852322
51
90.0757696
0
ARC
8
DEFAULT_255_1_234
10
22.6109605
20
5.3856839
40
0.3076997
50
89.3038458
51
109.9045693
0
ARC
8
DEFAULT_255_1_234
10
22.6016996
20
5.4239062
40
0.2686424
50
110.8228367
51
143.9179474
0
ARC
8
DEFAULT_255_1_234
10
22.6950656
20
5.3526236
40
0.3860887
50
143.5289163
51
163.2980757
0
ARC
8
DEFAULT_255_1_234
10
22.8858477
20
5.2926433
40
0.5860659
50
163.0418846
51
174.3140048
0
ARC
8
DEFAULT_255_1_234
10
23.1262589
20
5.2648854
40
0.8280531
50
174.0509143
51
179.4176892
0
ARC
8
DEFAULT_255_1_234
10
23.0758328
20
5.1831954
40
0.7775954
50
179.6930361
51
188.7906598
0
ARC
8
DEFAULT_255_1_234
10
22.8094807
20
5.1405935
40
0.5078633
50
188.6331305
51
202.5629587
0
ARC
8
DEFAULT_255_1_234
10
22.6840399
20
5.0901996
40
0.3726913
50
202.8081362
51
216.1193925
0
ARC
8
DEFAULT_255_1_234
10
22.6030969
20
5.0250676
40
0.2689577
50
215.0755913
51
264.6379694
0
ARC
8
DEFAULT_255_1_234
10
22.6157919
20
5.1081513
40
0.3528978
50
263.846392
51
270.0833719
0
ARC
8
DEFAULT_255_1_234
10
22.6199309
20
5.0823374
40
0.3271036
50
269.3649385
51
287.5152008
0
ARC
8
DEFAULT_255_1_234
10
22.6377467
20
5.0176238
40
0.2600406
50
288.0630309
51
323.8113348
0
ARC
8
DEFAULT_255_1_234
10
22.5506309
20
5.0826049
40
0.3687189
50
323.6547608
51
342.6590488
0
ARC
8
DEFAULT_255_1_234
10
22.3474924
20
5.1486952
40
0.5823286
50
342.4091907
51
353.6451149
0
ARC
8
DEFAULT_255_1_234
10
22.0643434
20
5.183919
40
0.8676442
50
353.4029884
51
359.4847795
0
LINE
8
DEFAULT_255_1_234
10
24.1800848
20
5.222701
11
24.1800848
21
4.7938062
0
LINE
8
DEFAULT_255_1_234
10
23.2789238
20
5.1688884
11
23.2789238
21
5.2708915
0
LINE
8
DEFAULT_255_1_234
10
24.1800848
20
5.4668659
11
24.0258754
21
5.4668659
0
LINE
8
DEFAULT_255_1_234
10
23.4339363
20
5.2749073
11
23.4339363
21
5.1793296
0
LINE
8
DEFAULT_255_1_234
10
24.0266786
20
4.8347681
11
24.0266786
21
5.0974059
0
LINE
8
DEFAULT_255_1_234
10
24.0266786
20
5.0974059
11
23.756009
21
5.0974059
0
LINE
8
DEFAULT_255_1_234
10
23.756009
20
5.0974059
11
23.756009
21
5.222701
0
LINE
8
DEFAULT_255_1_234
10
23.756009
20
5.222701
11
24.1800848
21
5.222701
0
ARC
8
DEFAULT_255_1_234
10
23.8969354
20
4.9931396
40
0.3462765
50
295.8437914
51
324.8549609
0
ARC
8
DEFAULT_255_1_234
10
23.8553321
20
5.0684567
40
0.4322211
50
291.5695085
51
296.4549398
0
ARC
8
DEFAULT_255_1_234
10
23.8042573
20
5.2049275
40
0.5779178
50
278.6622409
51
291.3045483
0
ARC
8
DEFAULT_255_1_234
10
23.7703064
20
5.4197408
40
0.7953952
50
270.020006
51
278.7494541
0
ARC
8
DEFAULT_255_1_234
10
23.7664988
20
5.5514036
40
0.927067
50
269.9969998
51
270.2524872
0
ARC
8
DEFAULT_255_1_234
10
23.7626702
20
5.1430589
40
0.5187361
50
253.5786322
51
270.4175299
0
ARC
8
DEFAULT_255_1_234
10
23.7453358
20
5.0759236
40
0.4494451
50
238.8203306
51
253.2788235
0
ARC
8
DEFAULT_255_1_234
10
23.7433731
20
5.0708231
40
0.4440665
50
206.7883783
51
238.6962764
0
ARC
8
DEFAULT_255_1_234
10
23.8207641
20
5.1172405
40
0.5341121
50
206.1129412
51
207.4916643
0
ARC
8
DEFAULT_255_1_234
10
23.8804556
20
5.1426488
40
0.5989041
50
188.6921119
51
205.7821245
0
ARC
8
DEFAULT_255_1_234
10
24.0660918
20
5.174223
40
0.7871862
50
180.3882829
51
188.9219216
0
ARC
8
DEFAULT_255_1_234
10
24.1888732
20
5.2765464
40
0.909967
50
170.2024264
51
180.3560651
0
ARC
8
DEFAULT_255_1_234
10
23.872525
20
5.3331237
40
0.5886083
50
154.2857445
51
170.3893044
0
ARC
8
DEFAULT_255_1_234
10
23.7443453
20
5.391795
40
0.4476743
50
139.8401567
51
153.9332699
0
ARC
8
DEFAULT_255_1_234
10
23.7084189
20
5.4205577
40
0.4016697
50
98.4190291
51
139.6707122
0
ARC
8
DEFAULT_255_1_234
10
23.7463706
20
5.2360328
40
0.5898566
50
89.7659205
51
99.4415478
0
ARC
8
DEFAULT_255_1_234
10
23.7528956
20
5.2425844
40
0.5833147
50
78.0551672
51
90.4042112
0
ARC
8
DEFAULT_255_1_234
10
23.7933466
20
5.4244644
40
0.3970055
50
54.6380464
51
78.3339173
0
ARC
8
DEFAULT_255_1_234
10
23.8123522
20
5.4564795
40
0.3599102
50
50.031736
51
54.1558201
0
ARC
8
DEFAULT_255_1_234
10
23.8016309
20
5.4468766
40
0.3741624
50
18.1092409
51
49.7180913
0
ARC
8
DEFAULT_255_1_234
10
23.6559509
20
5.3935089
40
0.5292424
50
7.9672797
51
18.6984571
0
ARC
8
DEFAULT_255_1_234
10
23.6709988
20
5.4058504
40
0.3600838
50
9.7557294
51
27.3215714
0
ARC
8
DEFAULT_255_1_234
10
23.7837459
20
5.4621912
40
0.2340608
50
27.7361077
51
84.5257964
0
ARC
8
DEFAULT_255_1_234
10
23.7509846
20
5.297864
40
0.4011215
50
82.106034
51
90.2001166
0
ARC
8
DEFAULT_255_1_234
10
23.7460063
20
5.3486215
40
0.3503799
50
89.4150119
51
105.5823402
0
ARC
8
DEFAULT_255_1_234
10
23.7203061
20
5.4421867
40
0.2533503
50
105.6678618
51
144.2648758
0
ARC
8
DEFAULT_255_1_234
10
23.8096317
20
5.3786289
40
0.3629787
50
144.3561283
51
162.8564086
0
ARC
8
DEFAULT_255_1_234
10
24.0180226
20
5.3117017
40
0.5818441
50
162.6076014
51
173.6780284
0
ARC
8
DEFAULT_255_1_234
10
24.3241369
20
5.274489
40
0.8902007
50
173.4670142
51
179.9730753
0
ARC
8
DEFAULT_255_1_234
10
24.1333041
20
5.175126
40
0.6993804
50
179.6556203
51
190.0080463
0
ARC
8
DEFAULT_255_1_234
10
23.901687
20
5.1326375
40
0.4639066
50
189.8116607
51
206.6796816
0
ARC
8
DEFAULT_255_1_234
10
23.8172022
20
5.0932503
40
0.3707421
50
207.1031645
51
217.7074368
0
ARC
8
DEFAULT_255_1_234
10
23.7537711
20
5.0380559
40
0.2868417
50
216.7345547
51
265.6812148
0
ARC
8
DEFAULT_255_1_234
10
23.7668502
20
5.1284855
40
0.3780509
50
264.7366618
51
270.0611241
0
ARC
8
DEFAULT_255_1_234
10
23.7691765
20
5.4125111
40
0.662079
50
269.8335834
51
276.0539546
0
ARC
8
DEFAULT_255_1_234
10
23.7898769
20
5.222356
40
0.4708016
50
275.9894168
51
284.4615085
0
ARC
8
DEFAULT_255_1_234
10
23.8096776
20
5.1390663
40
0.3852094
50
284.7034461
51
286.4953897
0
ARC
8
DEFAULT_255_1_234
10
23.850379
20
5.0079965
40
0.2479842
50
286.0770838
51
304.2625829
0
ARC
8
DEFAULT_255_1_234
10
23.8637204
20
4.9861594
40
0.2224291
50
304.5891602
51
317.1073298
0
LINE
8
DEFAULT_255_1_234
10
22.3692023
20
13.4091849
11
22.2141897
21
13.4091849
0
LINE
8
DEFAULT_255_1_234
10
21.5218539
20
12.9168394
11
21.6768665
21
12.9168394
0
ARC
8
DEFAULT_255_1_234
10
22.280071
20
14.3038768
40
1.252368
50
248.9199003
51
254.1439814
0
ARC
8
DEFAULT_255_1_234
10
22.1120205
20
13.8712234
40
0.788226
50
241.633709
51
249.0064503
0
ARC
8
DEFAULT_255_1_234
10
21.95916
20
13.5911317
40
0.4691427
50
230.498225
51
241.8087113
0
ARC
8
DEFAULT_255_1_234
10
21.8807174
20
13.4911906
40
0.3421437
50
227.4064532
51
229.9881192
0
ARC
8
DEFAULT_255_1_234
10
21.8319694
20
13.4436088
40
0.2741476
50
200.6781896
51
228.1763934
0
ARC
8
DEFAULT_255_1_234
10
21.8392005
20
13.4421077
40
0.2804109
50
179.5061581
51
199.8694617
0
ARC
8
DEFAULT_255_1_234
10
21.8382757
20
13.449521
40
0.2795204
50
132.4834203
51
181.0242172
0
ARC
8
DEFAULT_255_1_234
10
21.8978339
20
13.3932704
40
0.3612768
50
129.2532479
51
133.4242687
0
ARC
8
DEFAULT_255_1_234
10
21.9124789
20
13.3712965
40
0.3875675
50
101.98776
51
128.8742646
0
ARC
8
DEFAULT_255_1_234
10
21.9523399
20
13.1991741
40
0.5642249
50
89.5906553
51
102.3169264
0
ARC
8
DEFAULT_255_1_234
10
21.9593891
20
13.2310148
40
0.5323783
50
77.2360837
51
90.3248275
0
ARC
8
DEFAULT_255_1_234
10
21.9800971
20
13.32774
40
0.4334697
50
63.837784
51
77.0809408
0
ARC
8
DEFAULT_255_1_234
10
22.0078732
20
13.3794911
40
0.3747796
50
45.9864267
51
64.1607727
0
ARC
8
DEFAULT_255_1_234
10
22.0339614
20
13.4092866
40
0.3352302
50
32.2747395
51
45.6547121
0
ARC
8
DEFAULT_255_1_234
10
22.0406054
20
13.411188
40
0.328603
50
359.6507365
51
32.6130309
0
ARC
8
DEFAULT_255_1_234
10
21.946315
20
13.411666
40
0.2678863
50
359.469343
51
14.9832209
0
ARC
8
DEFAULT_255_1_234
10
22.0168212
20
13.4305539
40
0.1948938
50
14.9781179
51
48.2004265
0
ARC
8
DEFAULT_255_1_234
10
22.0003856
20
13.4098983
40
0.2212521
50
48.5927837
51
74.1241538
0
ARC
8
DEFAULT_255_1_234
10
21.9670346
20
13.2998248
40
0.3362561
50
73.7888341
51
86.6652678
0
ARC
8
DEFAULT_255_1_234
10
21.9567911
20
13.1790881
40
0.4573953
50
86.2640471
51
90.0526343
0
ARC
8
DEFAULT_255_1_234
10
21.9539624
20
13.2186192
40
0.4178709
50
89.6697524
51
99.2309573
0
ARC
8
DEFAULT_255_1_234
10
21.9297075
20
13.3630964
40
0.2713749
50
99.069534
51
113.7658566
0
ARC
8
DEFAULT_255_1_234
10
21.9023266
20
13.4276677
40
0.2012469
50
114.0401004
51
127.9850673
0
ARC
8
DEFAULT_255_1_234
10
21.878283
20
13.457273
40
0.1631167
50
127.7287463
51
176.7105154
0
ARC
8
DEFAULT_255_1_234
10
21.9461547
20
13.4471693
40
0.2315392
50
175.1779447
51
180.0581938
0
ARC
8
DEFAULT_255_1_234
10
21.8618394
20
13.4459428
40
0.1472271
50
179.6142195
51
228.1246017
0
ARC
8
DEFAULT_255_1_234
10
21.9060063
20
13.4868308
40
0.2072299
50
226.5779593
51
230.8800004
0
ARC
8
DEFAULT_255_1_234
10
21.9531141
20
13.5493636
40
0.2854818
50
231.4635071
51
241.9260842
0
ARC
8
DEFAULT_255_1_234
10
22.0728319
20
13.76968
40
0.53622
50
241.7178533
51
248.3259551
0
ARC
8
DEFAULT_255_1_234
10
22.2113691
20
14.1129064
40
0.9063478
50
248.2007737
51
252.4528373
0
ARC
8
DEFAULT_255_1_234
10
22.3317416
20
14.4850441
40
1.2974635
50
252.3391078
51
254.3469452
0
ARC
8
DEFAULT_255_1_234
10
21.5775119
20
11.7873148
40
1.5037162
50
71.0197183
51
74.4087047
0
ARC
8
DEFAULT_255_1_234
10
21.7469804
20
12.2765111
40
0.9859993
50
66.1847285
51
71.086374
0
ARC
8
DEFAULT_255_1_234
10
21.9026116
20
12.62692
40
0.6025855
50
59.3536294
51
66.2691831
0
ARC
8
DEFAULT_255_1_234
10
21.9914769
20
12.7772609
40
0.4279449
50
49.1020879
51
59.3293958
0
ARC
8
DEFAULT_255_1_234
10
22.0733509
20
12.8705834
40
0.3038015
50
32.7919921
51
49.2505539
0
ARC
8
DEFAULT_255_1_234
10
22.1054599
20
12.8934191
40
0.264448
50
31.1181161
51
32.4005348
0
ARC
8
DEFAULT_255_1_234
10
22.0966136
20
12.8898779
40
0.2738556
50
8.1116974
51
30.7958831
0
ARC
8
DEFAULT_255_1_234
10
22.0155804
20
12.8760753
40
0.3560327
50
359.8389159
51
8.4706516
0
ARC
8
DEFAULT_255_1_234
10
22.0781596
20
12.8712137
40
0.2934776
50
337.4731098
51
0.7537279
0
ARC
8
DEFAULT_255_1_234
10
22.0960291
20
12.8692387
40
0.2762607
50
307.5917067
51
336.4315538
0
ARC
8
DEFAULT_255_1_234
10
22.0500119
20
12.9205102
40
0.3449979
50
307.6551545
51
308.4529766
0
ARC
8
DEFAULT_255_1_234
10
22.0269838
20
12.956025
40
0.3871988
50
284.3734338
51
307.1424381
0
ARC
8
DEFAULT_255_1_234
10
21.9774668
20
13.1381932
40
0.5759636
50
272.4382747
51
284.646547
0
ARC
8
DEFAULT_255_1_234
10
21.9647876
20
13.3181893
40
0.7563528
50
269.9708387
51
272.8178037
0
ARC
8
DEFAULT_255_1_234
10
21.9604916
20
13.1143716
40
0.5525489
50
248.2707594
51
270.4055579
0
ARC
8
DEFAULT_255_1_234
10
21.9550657
20
13.0953192
40
0.5328452
50
246.1383403
51
248.0542782
0
ARC
8
DEFAULT_255_1_234
10
21.9132036
20
13.0073843
40
0.4355005
50
233.1670131
51
246.4950969
0
ARC
8
DEFAULT_255_1_234
10
21.8577941
20
12.9325812
40
0.3424126
50
215.3403242
51
233.0843104
0
ARC
8
DEFAULT_255_1_234
10
21.8305372
20
12.9127549
40
0.3087104
50
179.2419209
51
215.2648451
0
ARC
8
DEFAULT_255_1_234
10
21.9072966
20
12.9141666
40
0.2304457
50
179.335461
51
199.1045811
0
ARC
8
DEFAULT_255_1_234
10
21.8740643
20
12.9054766
40
0.1962176
50
199.8828939
51
232.7063202
0
ARC
8
DEFAULT_255_1_234
10
21.9212911
20
12.9648788
40
0.2720938
50
232.3738199
51
255.5136649
0
ARC
8
DEFAULT_255_1_234
10
21.9553778
20
13.0892835
40
0.4010747
50
255.2446292
51
267.5320849
0
ARC
8
DEFAULT_255_1_234
10
21.9641401
20
13.2125702
40
0.5246356
50
267.1557994
51
270.0286766
0
ARC
8
DEFAULT_255_1_234
10
21.9669173
20
13.168195
40
0.4802668
50
269.7000017
51
278.1660162
0
ARC
8
DEFAULT_255_1_234
10
21.9925178
20
12.9951515
40
0.3053425
50
278.0231263
51
290.625471
0
ARC
8
DEFAULT_255_1_234
10
22.0272865
20
12.9024025
40
0.206291
50
290.6619762
51
307.0370976
0
ARC
8
DEFAULT_255_1_234
10
22.0573254
20
12.8655504
40
0.1587906
50
306.3943566
51
355.3030547
0
ARC
8
DEFAULT_255_1_234
10
22.0061186
20
12.8732113
40
0.2104809
50
354.3660432
51
0.0698737
0
ARC
8
DEFAULT_255_1_234
10
22.0203531
20
12.8754617
40
0.1962563
50
359.417946
51
16.1971788
0
ARC
8
DEFAULT_255_1_234
10
22.0658841
20
12.8879418
40
0.149053
50
16.4723299
51
52.6262157
0
ARC
8
DEFAULT_255_1_234
10
21.9837895
20
12.7795433
40
0.2850296
50
52.7386432
51
62.4979148
0
ARC
8
DEFAULT_255_1_234
10
21.8452972
20
12.5189283
40
0.5801521
50
62.2515216
51
68.1220564
0
ARC
8
DEFAULT_255_1_234
10
21.6732883
20
12.0961872
40
1.0365451
50
68.0062803
51
71.8053402
0
ARC
8
DEFAULT_255_1_234
10
21.4937255
20
11.5576758
40
1.6042013
50
71.7183119
51
73.9258742
0
LINE
8
DEFAULT_255_1_234
10
22.506545
20
13.0100075
11
22.506545
21
13.0204488
0
LINE
8
DEFAULT_255_1_234
10
23.2976712
20
13.0132202
11
23.2976712
21
13.002779
0
ARC
8
DEFAULT_255_1_234
10
23.065163
20
13.0236837
40
0.5586273
50
166.3003825
51
180.3317926
0
ARC
8
DEFAULT_255_1_234
10
22.9788789
20
13.0429964
40
0.4702272
50
153.8608245
51
166.0967125
0
ARC
8
DEFAULT_255_1_234
10
22.9123191
20
13.078675
40
0.3947658
50
135.1316692
51
154.253643
0
ARC
8
DEFAULT_255_1_234
10
22.8844751
20
13.1032666
40
0.3576898
50
121.7044358
51
134.776924
0
ARC
8
DEFAULT_255_1_234
10
22.8911745
20
13.0903867
40
0.3721701
50
93.4002104
51
121.5398234
0
ARC
8
DEFAULT_255_1_234
10
22.90067
20
13.0078228
40
0.4551749
50
89.9706281
51
93.9769836
0
ARC
8
DEFAULT_255_1_234
10
22.9053792
20
13.0468362
40
0.4161854
50
71.3323442
51
90.6161982
0
ARC
8
DEFAULT_255_1_234
10
22.9216489
20
13.1070578
40
0.3539455
50
41.1815071
51
70.707185
0
ARC
8
DEFAULT_255_1_234
10
22.8738889
20
13.0636919
40
0.4184468
50
12.1971897
51
41.3445735
0
ARC
8
DEFAULT_255_1_234
10
22.6812897
20
13.0178425
40
0.616399
50
359.5703439
51
12.5804035
0
ARC
8
DEFAULT_255_1_234
10
22.7285971
20
12.9996116
40
0.5690829
50
347.0197749
51
0.3188898
0
ARC
8
DEFAULT_255_1_234
10
22.8244474
20
12.9789808
40
0.4710501
50
334.3504053
51
346.846361
0
ARC
8
DEFAULT_255_1_234
10
22.9089897
20
12.9350805
40
0.3758475
50
310.422922
51
334.8045033
0
ARC
8
DEFAULT_255_1_234
10
22.9171723
20
12.9286782
40
0.3656736
50
301.8486886
51
310.097356
0
ARC
8
DEFAULT_255_1_234
10
22.9139449
20
12.9362638
40
0.3738224
50
274.307774
51
301.655379
0
ARC
8
DEFAULT_255_1_234
10
22.9028756
20
13.0240361
40
0.4621997
50
269.9546461
51
274.8588071
0
ARC
8
DEFAULT_255_1_234
10
22.8979689
20
12.9739249
40
0.4121134
50
250.888809
51
270.631312
0
ARC
8
DEFAULT_255_1_234
10
22.8829609
20
12.9180277
40
0.3544073
50
221.1701932
51
250.2227191
0
ARC
8
DEFAULT_255_1_234
10
22.9313764
20
12.9621439
40
0.4198961
50
191.6263638
51
221.3526367
0
ARC
8
DEFAULT_255_1_234
10
23.1201759
20
13.0058329
40
0.6136451
50
179.610213
51
192.0693181
0
ARC
8
DEFAULT_255_1_234
10
23.1624987
20
12.9995633
40
0.5065736
50
179.636298
51
190.6162791
0
ARC
8
DEFAULT_255_1_234
10
22.9982655
20
12.967559
40
0.3392576
50
190.4136628
51
208.7170242
0
ARC
8
DEFAULT_255_1_234
10
22.947228
20
12.9422366
40
0.2823401
50
209.1867941
51
217.4225593
0
ARC
8
DEFAULT_255_1_234
10
22.8943114
20
12.8956558
40
0.2120636
50
216.1156896
51
265.2575835
0
ARC
8
DEFAULT_255_1_234
10
22.9022263
20
12.9530109
40
0.2698952
50
264.5897417
51
270.0601757
0
ARC
8
DEFAULT_255_1_234
10
22.9055323
20
12.9150185
40
0.2319225
50
269.2532621
51
291.8792492
0
ARC
8
DEFAULT_255_1_234
10
22.9084545
20
12.8972238
40
0.2143562
50
292.9269754
51
323.1776747
0
ARC
8
DEFAULT_255_1_234
10
22.8691366
20
12.9320452
40
0.2667346
50
322.2518483
51
323.0930371
0
ARC
8
DEFAULT_255_1_234
10
22.8397026
20
12.950199
40
0.3011886
50
323.6941278
51
343.8493282
0
ARC
8
DEFAULT_255_1_234
10
22.6818569
20
12.998235
40
0.4661719
50
343.5748474
51
355.0079071
0
ARC
8
DEFAULT_255_1_234
10
22.4810814
20
13.0190424
40
0.6680042
50
354.7285225
51
0.1206288
0
ARC
8
DEFAULT_255_1_234
10
22.657928
20
13.0236751
40
0.4911667
50
359.623636
51
11.2015604
0
ARC
8
DEFAULT_255_1_234
10
22.8113508
20
13.055264
40
0.3345323
50
10.9989411
51
30.8319188
0
ARC
8
DEFAULT_255_1_234
10
22.850938
20
13.0761297
40
0.2898553
50
31.3008956
51
37.3959224
0
ARC
8
DEFAULT_255_1_234
10
22.9005959
20
13.1180653
40
0.2249582
50
36.5915954
51
62.2442953
0
ARC
8
DEFAULT_255_1_234
10
22.9052412
20
13.1177602
40
0.2231053
50
63.3365542
51
89.7195421
0
ARC
8
DEFAULT_255_1_234
10
22.9009266
20
13.0608884
40
0.2800267
50
88.8936788
51
90.0047485
0
ARC
8
DEFAULT_255_1_234
10
22.8977625
20
13.1181787
40
0.2227586
50
89.1921125
51
114.7099455
0
ARC
8
DEFAULT_255_1_234
10
22.9006389
20
13.1219628
40
0.2205633
50
115.7997161
51
142.2900762
0
ARC
8
DEFAULT_255_1_234
10
22.9445122
20
13.0829658
40
0.2791541
50
141.4658779
51
142.3795754
0
ARC
8
DEFAULT_255_1_234
10
22.9554026
20
13.0786557
40
0.2904292
50
143.0175714
51
163.234115
0
ARC
8
DEFAULT_255_1_234
10
23.1132199
20
13.0287054
40
0.4559523
50
162.9447461
51
174.3732162
0
ARC
8
DEFAULT_255_1_234
10
23.3278012
20
13.0046143
40
0.6718682
50
174.1228657
51
180.1565175
0
LINE
8
DEFAULT_255_1_234
10
23.957077
20
13.7529433
11
23.957077
21
12.5779
0
LINE
8
DEFAULT_255_1_234
10
23.957077
20
12.5779
11
23.8076866
21
12.5779
0
LINE
8
DEFAULT_255_1_234
10
23.8076866
20
12.5779
11
23.8076866
21
13.5682133
0
LINE
8
DEFAULT_255_1_234
10
23.8076866
20
13.5682133
11
23.5081028
21
13.4581785
0
LINE
8
DEFAULT_255_1_234
10
23.5081028
20
13.4581785
11
23.5081028
21
13.5931117
0
LINE
8
DEFAULT_255_1_234
10
23.5081028
20
13.5931117
11
23.9337849
21
13.7529433
0
LINE
8
DEFAULT_255_1_234
10
23.9337849
20
13.7529433
11
23.957077
21
13.7529433
0
LINE
8
DEFAULT_255_1_234
10
21.9038902
20
21.6848211
11
21.9038902
21
20.5154
0
LINE
8
DEFAULT_255_1_234
10
21.9038902
20
20.5154
11
21.7496808
21
20.5154
0
LINE
8
DEFAULT_255_1_234
10
21.7496808
20
20.5154
11
21.7496808
21
21.6848211
0
LINE
8
DEFAULT_255_1_234
10
21.7496808
20
21.6848211
11
21.9038902
21
21.6848211
0
LINE
8
DEFAULT_255_1_234
10
23.0853589
20
21.1362534
11
23.0853589
21
21.0623614
0
LINE
8
DEFAULT_255_1_234
10
22.1448423
20
21.0519201
11
22.1448423
21
21.1362534
0
LINE
8
DEFAULT_255_1_234
10
22.9319527
20
21.0511169
11
22.9319527
21
21.1378597
0
LINE
8
DEFAULT_255_1_234
10
22.2982485
20
21.148301
11
22.2982485
21
21.0623614
0
ARC
8
DEFAULT_255_1_234
10
22.2211615
20
21.0584015
40
0.8642064
50
350.487711
51
0.2625388
0
ARC
8
DEFAULT_255_1_234
10
22.4504857
20
21.0189578
40
0.631518
50
336.0277639
51
350.5787438
0
ARC
8
DEFAULT_255_1_234
10
22.584968
20
20.9581892
40
0.4839466
50
319.8877444
51
336.1328423
0
ARC
8
DEFAULT_255_1_234
10
22.6452321
20
20.909958
40
0.4067874
50
302.4806467
51
319.6143626
0
ARC
8
DEFAULT_255_1_234
10
22.6337331
20
20.9321202
40
0.4316636
50
275.8195682
51
302.1884709
0
ARC
8
DEFAULT_255_1_234
10
22.6170964
20
21.0463665
40
0.5470306
50
269.9171439
51
276.3397983
0
ARC
8
DEFAULT_255_1_234
10
22.6126174
20
20.9777681
40
0.4784458
50
252.5219675
51
270.4416499
0
ARC
8
DEFAULT_255_1_234
10
22.5982433
20
20.9238592
40
0.422716
50
237.5352116
51
252.1857531
0
ARC
8
DEFAULT_255_1_234
10
22.6071629
20
20.9352363
40
0.4371052
50
209.063312
51
237.3492538
0
ARC
8
DEFAULT_255_1_234
10
22.6941477
20
20.9898685
40
0.5397041
50
205.1183774
51
209.6470015
0
ARC
8
DEFAULT_255_1_234
10
22.7738514
20
21.023683
40
0.6262326
50
188.7215458
51
204.8240747
0
ARC
8
DEFAULT_255_1_234
10
22.9736042
20
21.0573067
40
0.8287794
50
180.3723947
51
188.9252049
0
ARC
8
DEFAULT_255_1_234
10
22.9708794
20
21.1402402
40
0.8260467
50
169.5253763
51
180.2765336
0
ARC
8
DEFAULT_255_1_234
10
22.7806243
20
21.1752309
40
0.6326007
50
155.8315255
51
169.5089989
0
ARC
8
DEFAULT_255_1_234
10
22.6525744
20
21.2346348
40
0.4914567
50
139.6258461
51
156.0379525
0
ARC
8
DEFAULT_255_1_234
10
22.5936077
20
21.2820799
40
0.4158054
50
122.6416387
51
139.3430715
0
ARC
8
DEFAULT_255_1_234
10
22.6036697
20
21.2637451
40
0.4366739
50
93.0223692
51
122.455762
0
ARC
8
DEFAULT_255_1_234
10
22.6144694
20
21.1672709
40
0.5336137
50
89.975342
51
93.6341897
0
ARC
8
DEFAULT_255_1_234
10
22.6183473
20
21.2071242
40
0.4937738
50
73.746375
51
90.4233405
0
ARC
8
DEFAULT_255_1_234
10
22.6359052
20
21.2751287
40
0.4235786
50
57.662753
51
73.4518111
0
ARC
8
DEFAULT_255_1_234
10
22.6351058
20
21.2772832
40
0.4221899
50
29.1440151
51
57.414694
0
ARC
8
DEFAULT_255_1_234
10
22.5416253
20
21.2189005
40
0.5322966
50
24.0982783
51
29.7323517
0
ARC
8
DEFAULT_255_1_234
10
22.4382528
20
21.1760399
40
0.6441673
50
8.6655297
51
23.8241346
0
ARC
8
DEFAULT_255_1_234
10
22.2148266
20
21.1395854
40
0.8705386
50
359.7806941
51
8.8218784
0
ARC
8
DEFAULT_255_1_234
10
22.1001264
20
21.1421345
40
0.8318373
50
359.7055579
51
8.036044
0
ARC
8
DEFAULT_255_1_234
10
22.400127
20
21.1858239
40
0.5286768
50
7.8928306
51
20.2962107
0
ARC
8
DEFAULT_255_1_234
10
22.5628841
20
21.2458395
40
0.3552073
50
20.3231126
51
36.4992797
0
ARC
8
DEFAULT_255_1_234
10
22.6314387
20
21.2986402
40
0.2686974
50
36.1437156
51
85.6627023
0
ARC
8
DEFAULT_255_1_234
10
22.6151933
20
21.1946221
40
0.373739
50
84.3852322
51
90.0757696
0
ARC
8
DEFAULT_255_1_234
10
22.6109605
20
21.2606839
40
0.3076997
50
89.3038458
51
109.9045693
0
ARC
8
DEFAULT_255_1_234
10
22.6016996
20
21.2989062
40
0.2686424
50
110.8228367
51
143.9179474
0
ARC
8
DEFAULT_255_1_234
10
22.6950656
20
21.2276236
40
0.3860887
50
143.5289163
51
163.2980757
0
ARC
8
DEFAULT_255_1_234
10
22.8858477
20
21.1676433
40
0.5860659
50
163.0418846
51
174.3140048
0
ARC
8
DEFAULT_255_1_234
10
23.1262589
20
21.1398854
40
0.8280531
50
174.0509143
51
179.4176892
0
ARC
8
DEFAULT_255_1_234
10
23.0758328
20
21.0581954
40
0.7775954
50
179.6930361
51
188.7906598
0
ARC
8
DEFAULT_255_1_234
10
22.8094807
20
21.0155935
40
0.5078633
50
188.6331305
51
202.5629587
0
ARC
8
DEFAULT_255_1_234
10
22.6840399
20
20.9651996
40
0.3726913
50
202.8081362
51
216.1193925
0
ARC
8
DEFAULT_255_1_234
10
22.6030969
20
20.9000676
40
0.2689577
50
215.0755913
51
264.6379694
0
ARC
8
DEFAULT_255_1_234
10
22.6157919
20
20.9831513
40
0.3528978
50
263.846392
51
270.0833719
0
ARC
8
DEFAULT_255_1_234
10
22.6199309
20
20.9573374
40
0.3271036
50
269.3649385
51
287.5152008
0
ARC
8
DEFAULT_255_1_234
10
22.6377467
20
20.8926238
40
0.2600406
50
288.0630309
51
323.8113348
0
ARC
8
DEFAULT_255_1_234
10
22.5506309
20
20.9576049
40
0.3687189
50
323.6547608
51
342.6590488
0
ARC
8
DEFAULT_255_1_234
10
22.3474924
20
21.0236952
40
0.5823286
50
342.4091907
51
353.6451149
0
ARC
8
DEFAULT_255_1_234
10
22.0643434
20
21.058919
40
0.8676442
50
353.4029884
51
359.4847795
0
LINE
8
DEFAULT_255_1_234
10
24.1800848
20
21.097701
11
24.1800848
21
20.6688062
0
LINE
8
DEFAULT_255_1_234
10
23.2789238
20
21.0438884
11
23.2789238
21
21.1458915
0
LINE
8
DEFAULT_255_1_234
10
24.1800848
20
21.3418659
11
24.0258754
21
21.3418659
0
LINE
8
DEFAULT_255_1_234
10
23.4339363
20
21.1499073
11
23.4339363
21
21.0543296
0
LINE
8
DEFAULT_255_1_234
10
24.0266786
20
20.7097681
11
24.0266786
21
20.9724059
0
LINE
8
DEFAULT_255_1_234
10
24.0266786
20
20.9724059
11
23.756009
21
20.9724059
0
LINE
8
DEFAULT_255_1_234
10
23.756009
20
20.9724059
11
23.756009
21
21.097701
0
LINE
8
DEFAULT_255_1_234
10
23.756009
20
21.097701
11
24.1800848
21
21.097701
0
ARC
8
DEFAULT_255_1_234
10
23.8969354
20
20.8681396
40
0.3462765
50
295.8437914
51
324.8549609
0
ARC
8
DEFAULT_255_1_234
10
23.8553321
20
20.9434567
40
0.4322211
50
291.5695085
51
296.4549398
0
ARC
8
DEFAULT_255_1_234
10
23.8042573
20
21.0799275
40
0.5779178
50
278.6622409
51
291.3045483
0
ARC
8
DEFAULT_255_1_234
10
23.7703064
20
21.2947408
40
0.7953952
50
270.020006
51
278.7494541
0
ARC
8
DEFAULT_255_1_234
10
23.7664988
20
21.4264036
40
0.927067
50
269.9969998
51
270.2524872
0
ARC
8
DEFAULT_255_1_234
10
23.7626702
20
21.0180589
40
0.5187361
50
253.5786322
51
270.4175299
0
ARC
8
DEFAULT_255_1_234
10
23.7453358
20
20.9509236
40
0.4494451
50
238.8203306
51
253.2788235
0
ARC
8
DEFAULT_255_1_234
10
23.7433731
20
20.9458231
40
0.4440665
50
206.7883783
51
238.6962764
0
ARC
8
DEFAULT_255_1_234
10
23.8207641
20
20.9922405
40
0.5341121
50
206.1129412
51
207.4916643
0
ARC
8
DEFAULT_255_1_234
10
23.8804556
20
21.0176488
40
0.5989041
50
188.6921119
51
205.7821245
0
ARC
8
DEFAULT_255_1_234
10
24.0660918
20
21.049223
40
0.7871862
50
180.3882829
51
188.9219216
0
ARC
8
DEFAULT_255_1_234
10
24.1888732
20
21.1515464
40
0.909967
50
170.2024264
51
180.3560651
0
ARC
8
DEFAULT_255_1_234
10
23.872525
20
21.2081237
40
0.5886083
50
154.2857445
51
170.3893044
0
ARC
8
DEFAULT_255_1_234
10
23.7443453
20
21.266795
40
0.4476743
50
139.8401567
51
153.9332699
0
ARC
8
DEFAULT_255_1_234
10
23.7084189
20
21.2955577
40
0.4016697
50
98.4190291
51
139.6707122
0
ARC
8
DEFAULT_255_1_234
10
23.7463706
20
21.1110328
40
0.5898566
50
89.7659205
51
99.4415478
0
ARC
8
DEFAULT_255_1_234
10
23.7528956
20
21.1175844
40
0.5833147
50
78.0551672
51
90.4042112
0
ARC
8
DEFAULT_255_1_234
10
23.7933466
20
21.2994644
40
0.3970055
50
54.6380464
51
78.3339173
0
ARC
8
DEFAULT_255_1_234
10
23.8123522
20
21.3314795
40
0.3599102
50
50.031736
51
54.1558201
0
ARC
8
DEFAULT_255_1_234
10
23.8016309
20
21.3218766
40
0.3741624
50
18.1092409
51
49.7180913
0
ARC
8
DEFAULT_255_1_234
10
23.6559509
20
21.2685089
40
0.5292424
50
7.9672797
51
18.6984571
0
ARC
8
DEFAULT_255_1_234
10
23.6709988
20
21.2808504
40
0.3600838
50
9.7557294
51
27.3215714
0
ARC
8
DEFAULT_255_1_234
10
23.7837459
20
21.3371912
40
0.2340608
50
27.7361077
51
84.5257964
0
ARC
8
DEFAULT_255_1_234
10
23.7509846
20
21.172864
40
0.4011215
50
82.106034
51
90.2001166
0
ARC
8
DEFAULT_255_1_234
10
23.7460063
20
21.2236215
40
0.3503799
50
89.4150119
51
105.5823402
0
ARC
8
DEFAULT_255_1_234
10
23.7203061
20
21.3171867
40
0.2533503
50
105.6678618
51
144.2648758
0
ARC
8
DEFAULT_255_1_234
10
23.8096317
20
21.2536289
40
0.3629787
50
144.3561283
51
162.8564086
0
ARC
8
DEFAULT_255_1_234
10
24.0180226
20
21.1867017
40
0.5818441
50
162.6076014
51
173.6780284
0
ARC
8
DEFAULT_255_1_234
10
24.3241369
20
21.149489
40
0.8902007
50
173.4670142
51
179.9730753
0
ARC
8
DEFAULT_255_1_234
10
24.1333041
20
21.050126
40
0.6993804
50
179.6556203
51
190.0080463
0
ARC
8
DEFAULT_255_1_234
10
23.901687
20
21.0076375
40
0.4639066
50
189.8116607
51
206.6796816
0
ARC
8
DEFAULT_255_1_234
10
23.8172022
20
20.9682503
40
0.3707421
50
207.1031645
51
217.7074368
0
ARC
8
DEFAULT_255_1_234
10
23.7537711
20
20.9130559
40
0.2868417
50
216.7345547
51
265.6812148
0
ARC
8
DEFAULT_255_1_234
10
23.7668502
20
21.0034855
40
0.3780509
50
264.7366618
51
270.0611241
0
ARC
8
DEFAULT_255_1_234
10
23.7691765
20
21.2875111
40
0.662079
50
269.8335834
51
276.0539546
0
ARC
8
DEFAULT_255_1_234
10
23.7898769
20
21.097356
40
0.4708016
50
275.9894168
51
284.4615085
0
ARC
8
DEFAULT_255_1_234
10
23.8096776
20
21.0140663
40
0.3852094
50
284.7034461
51
286.4953897
0
ARC
8
DEFAULT_255_1_234
10
23.850379
20
20.8829965
40
0.2479842
50
286.0770838
51
304.2625829
0
ARC
8
DEFAULT_255_1_234
10
23.8637204
20
20.8611594
40
0.2224291
50
304.5891602
51
317.1073298
0
LINE
8
DEFAULT_255_1_234
10
22.3616023
20
29.2841849
11
22.2065897
21
29.2841849
0
LINE
8
DEFAULT_255_1_234
10
21.5142539
20
28.7918394
11
21.6692665
21
28.7918394
0
ARC
8
DEFAULT_255_1_234
10
22.272471
20
30.1788768
40
1.252368
50
248.9199003
51
254.1439814
0
ARC
8
DEFAULT_255_1_234
10
22.1044205
20
29.7462234
40
0.788226
50
241.633709
51
249.0064503
0
ARC
8
DEFAULT_255_1_234
10
21.95156
20
29.4661317
40
0.4691427
50
230.498225
51
241.8087113
0
ARC
8
DEFAULT_255_1_234
10
21.8731174
20
29.3661906
40
0.3421437
50
227.4064532
51
229.9881192
0
ARC
8
DEFAULT_255_1_234
10
21.8243694
20
29.3186088
40
0.2741476
50
200.6781896
51
228.1763934
0
ARC
8
DEFAULT_255_1_234
10
21.8316005
20
29.3171077
40
0.2804109
50
179.5061581
51
199.8694617
0
ARC
8
DEFAULT_255_1_234
10
21.8306757
20
29.324521
40
0.2795204
50
132.4834203
51
181.0242172
0
ARC
8
DEFAULT_255_1_234
10
21.8902339
20
29.2682704
40
0.3612768
50
129.2532479
51
133.4242687
0
ARC
8
DEFAULT_255_1_234
10
21.9048789
20
29.2462965
40
0.3875675
50
101.98776
51
128.8742646
0
ARC
8
DEFAULT_255_1_234
10
21.9447399
20
29.0741741
40
0.5642249
50
89.5906553
51
102.3169264
0
ARC
8
DEFAULT_255_1_234
10
21.9517891
20
29.1060148
40
0.5323783
50
77.2360837
51
90.3248275
0
ARC
8
DEFAULT_255_1_234
10
21.9724971
20
29.20274
40
0.4334697
50
63.837784
51
77.0809408
0
ARC
8
DEFAULT_255_1_234
10
22.0002732
20
29.2544911
40
0.3747796
50
45.9864267
51
64.1607727
0
ARC
8
DEFAULT_255_1_234
10
22.0263614
20
29.2842866
40
0.3352302
50
32.2747395
51
45.6547121
0
ARC
8
DEFAULT_255_1_234
10
22.0330054
20
29.286188
40
0.328603
50
359.6507365
51
32.6130309
0
ARC
8
DEFAULT_255_1_234
10
21.938715
20
29.286666
40
0.2678863
50
359.469343
51
14.9832209
0
ARC
8
DEFAULT_255_1_234
10
22.0092212
20
29.3055539
40
0.1948938
50
14.9781179
51
48.2004265
0
ARC
8
DEFAULT_255_1_234
10
21.9927856
20
29.2848983
40
0.2212521
50
48.5927837
51
74.1241538
0
ARC
8
DEFAULT_255_1_234
10
21.9594346
20
29.1748248
40
0.3362561
50
73.7888341
51
86.6652678
0
ARC
8
DEFAULT_255_1_234
10
21.9491911
20
29.0540881
40
0.4573953
50
86.2640471
51
90.0526343
0
ARC
8
DEFAULT_255_1_234
10
21.9463624
20
29.0936192
40
0.4178709
50
89.6697524
51
99.2309573
0
ARC
8
DEFAULT_255_1_234
10
21.9221075
20
29.2380964
40
0.2713749
50
99.069534
51
113.7658566
0
ARC
8
DEFAULT_255_1_234
10
21.8947266
20
29.3026677
40
0.2012469
50
114.0401004
51
127.9850673
0
ARC
8
DEFAULT_255_1_234
10
21.870683
20
29.332273
40
0.1631167
50
127.7287463
51
176.7105154
0
ARC
8
DEFAULT_255_1_234
10
21.9385547
20
29.3221693
40
0.2315392
50
175.1779447
51
180.0581938
0
ARC
8
DEFAULT_255_1_234
10
21.8542394
20
29.3209428
40
0.1472271
50
179.6142195
51
228.1246017
0
ARC
8
DEFAULT_255_1_234
10
21.8984063
20
29.3618308
40
0.2072299
50
226.5779593
51
230.8800004
0
ARC
8
DEFAULT_255_1_234
10
21.9455141
20
29.4243636
40
0.2854818
50
231.4635071
51
241.9260842
0
ARC
8
DEFAULT_255_1_234
10
22.0652319
20
29.64468
40
0.53622
50
241.7178533
51
248.3259551
0
ARC
8
DEFAULT_255_1_234
10
22.2037691
20
29.9879064
40
0.9063478
50
248.2007737
51
252.4528373
0
ARC
8
DEFAULT_255_1_234
10
22.3241416
20
30.3600441
40
1.2974635
50
252.3391078
51
254.3469452
0
ARC
8
DEFAULT_255_1_234
10
21.5699119
20
27.6623148
40
1.5037162
50
71.0197183
51
74.4087047
0
ARC
8
DEFAULT_255_1_234
10
21.7393804
20
28.1515111
40
0.9859993
50
66.1847285
51
71.086374
0
ARC
8
DEFAULT_255_1_234
10
21.8950116
20
28.50192
40
0.6025855
50
59.3536294
51
66.2691831
0
ARC
8
DEFAULT_255_1_234
10
21.9838769
20
28.6522609
40
0.4279449
50
49.1020879
51
59.3293958
0
ARC
8
DEFAULT_255_1_234
10
22.0657509
20
28.7455834
40
0.3038015
50
32.7919921
51
49.2505539
0
ARC
8
DEFAULT_255_1_234
10
22.0978599
20
28.7684191
40
0.264448
50
31.1181161
51
32.4005348
0
ARC
8
DEFAULT_255_1_234
10
22.0890136
20
28.7648779
40
0.2738556
50
8.1116974
51
30.7958831
0
ARC
8
DEFAULT_255_1_234
10
22.0079804
20
28.7510753
40
0.3560327
50
359.8389159
51
8.4706516
0
ARC
8
DEFAULT_255_1_234
10
22.0705596
20
28.7462137
40
0.2934776
50
337.4731098
51
0.7537279
0
ARC
8
DEFAULT_255_1_234
10
22.0884291
20
28.7442387
40
0.2762607
50
307.5917067
51
336.4315538
0
ARC
8
DEFAULT_255_1_234
10
22.0424119
20
28.7955102
40
0.3449979
50
307.6551545
51
308.4529766
0
ARC
8
DEFAULT_255_1_234
10
22.0193838
20
28.831025
40
0.3871988
50
284.3734338
51
307.1424381
0
ARC
8
DEFAULT_255_1_234
10
21.9698668
20
29.0131932
40
0.5759636
50
272.4382747
51
284.646547
0
ARC
8
DEFAULT_255_1_234
10
21.9571876
20
29.1931893
40
0.7563528
50
269.9708387
51
272.8178037
0
ARC
8
DEFAULT_255_1_234
10
21.9528916
20
28.9893716
40
0.5525489
50
248.2707594
51
270.4055579
0
ARC
8
DEFAULT_255_1_234
10
21.9474657
20
28.9703192
40
0.5328452
50
246.1383403
51
248.0542782
0
ARC
8
DEFAULT_255_1_234
10
21.9056036
20
28.8823843
40
0.4355005
50
233.1670131
51
246.4950969
0
ARC
8
DEFAULT_255_1_234
10
21.8501941
20
28.8075812
40
0.3424126
50
215.3403242
51
233.0843104
0
ARC
8
DEFAULT_255_1_234
10
21.8229372
20
28.7877549
40
0.3087104
50
179.2419209
51
215.2648451
0
ARC
8
DEFAULT_255_1_234
10
21.8996966
20
28.7891666
40
0.2304457
50
179.335461
51
199.1045811
0
ARC
8
DEFAULT_255_1_234
10
21.8664643
20
28.7804766
40
0.1962176
50
199.8828939
51
232.7063202
0
ARC
8
DEFAULT_255_1_234
10
21.9136911
20
28.8398788
40
0.2720938
50
232.3738199
51
255.5136649
0
ARC
8
DEFAULT_255_1_234
10
21.9477778
20
28.9642835
40
0.4010747
50
255.2446292
51
267.5320849
0
ARC
8
DEFAULT_255_1_234
10
21.9565401
20
29.0875702
40
0.5246356
50
267.1557994
51
270.0286766
0
ARC
8
DEFAULT_255_1_234
10
21.9593173
20
29.043195
40
0.4802668
50
269.7000017
51
278.1660162
0
ARC
8
DEFAULT_255_1_234
10
21.9849178
20
28.8701515
40
0.3053425
50
278.0231263
51
290.625471
0
ARC
8
DEFAULT_255_1_234
10
22.0196865
20
28.7774025
40
0.206291
50
290.6619762
51
307.0370976
0
ARC
8
DEFAULT_255_1_234
10
22.0497254
20
28.7405504
40
0.1587906
50
306.3943566
51
355.3030547
0
ARC
8
DEFAULT_255_1_234
10
21.9985186
20
28.7482113
40
0.2104809
50
354.3660432
51
0.0698737
0
ARC
8
DEFAULT_255_1_234
10
22.0127531
20
28.7504617
40
0.1962563
50
359.417946
51
16.1971788
0
ARC
8
DEFAULT_255_1_234
10
22.0582841
20
28.7629418
40
0.149053
50
16.4723299
51
52.6262157
0
ARC
8
DEFAULT_255_1_234
10
21.9761895
20
28.6545433
40
0.2850296
50
52.7386432
51
62.4979148
0
ARC
8
DEFAULT_255_1_234
10
21.8376972
20
28.3939283
40
0.5801521
50
62.2515216
51
68.1220564
0
ARC
8
DEFAULT_255_1_234
10
21.6656883
20
27.9711872
40
1.0365451
50
68.0062803
51
71.8053402
0
ARC
8
DEFAULT_255_1_234
10
21.4861255
20
27.4326758
40
1.6042013
50
71.7183119
51
73.9258742
0
LINE
8
DEFAULT_255_1_234
10
22.498945
20
28.8850075
11
22.498945
21
28.8954488
0
LINE
8
DEFAULT_255_1_234
10
23.2900712
20
28.8882202
11
23.2900712
21
28.877779
0
ARC
8
DEFAULT_255_1_234
10
23.057563
20
28.8986837
40
0.5586273
50
166.3003825
51
180.3317926
0
ARC
8
DEFAULT_255_1_234
10
22.9712789
20
28.9179964
40
0.4702272
50
153.8608245
51
166.0967125
0
ARC
8
DEFAULT_255_1_234
10
22.9047191
20
28.953675
40
0.3947658
50
135.1316692
51
154.253643
0
ARC
8
DEFAULT_255_1_234
10
22.8768751
20
28.9782666
40
0.3576898
50
121.7044358
51
134.776924
0
ARC
8
DEFAULT_255_1_234
10
22.8835745
20
28.9653867
40
0.3721701
50
93.4002104
51
121.5398234
0
ARC
8
DEFAULT_255_1_234
10
22.89307
20
28.8828228
40
0.4551749
50
89.9706281
51
93.9769836
0
ARC
8
DEFAULT_255_1_234
10
22.8977792
20
28.9218362
40
0.4161854
50
71.3323442
51
90.6161982
0
ARC
8
DEFAULT_255_1_234
10
22.9140489
20
28.9820578
40
0.3539455
50
41.1815071
51
70.707185
0
ARC
8
DEFAULT_255_1_234
10
22.8662889
20
28.9386919
40
0.4184468
50
12.1971897
51
41.3445735
0
ARC
8
DEFAULT_255_1_234
10
22.6736897
20
28.8928425
40
0.616399
50
359.5703439
51
12.5804035
0
ARC
8
DEFAULT_255_1_234
10
22.7209971
20
28.8746116
40
0.5690829
50
347.0197749
51
0.3188898
0
ARC
8
DEFAULT_255_1_234
10
22.8168474
20
28.8539808
40
0.4710501
50
334.3504053
51
346.846361
0
ARC
8
DEFAULT_255_1_234
10
22.9013897
20
28.8100805
40
0.3758475
50
310.422922
51
334.8045033
0
ARC
8
DEFAULT_255_1_234
10
22.9095723
20
28.8036782
40
0.3656736
50
301.8486886
51
310.097356
0
ARC
8
DEFAULT_255_1_234
10
22.9063449
20
28.8112638
40
0.3738224
50
274.307774
51
301.655379
0
ARC
8
DEFAULT_255_1_234
10
22.8952756
20
28.8990361
40
0.4621997
50
269.9546461
51
274.8588071
0
ARC
8
DEFAULT_255_1_234
10
22.8903689
20
28.8489249
40
0.4121134
50
250.888809
51
270.631312
0
ARC
8
DEFAULT_255_1_234
10
22.8753609
20
28.7930277
40
0.3544073
50
221.1701932
51
250.2227191
0
ARC
8
DEFAULT_255_1_234
10
22.9237764
20
28.8371439
40
0.4198961
50
191.6263638
51
221.3526367
0
ARC
8
DEFAULT_255_1_234
10
23.1125759
20
28.8808329
40
0.6136451
50
179.610213
51
192.0693181
0
ARC
8
DEFAULT_255_1_234
10
23.1548987
20
28.8745633
40
0.5065736
50
179.636298
51
190.6162791
0
ARC
8
DEFAULT_255_1_234
10
22.9906655
20
28.842559
40
0.3392576
50
190.4136628
51
208.7170242
0
ARC
8
DEFAULT_255_1_234
10
22.939628
20
28.8172366
40
0.2823401
50
209.1867941
51
217.4225593
0
ARC
8
DEFAULT_255_1_234
10
22.8867114
20
28.7706558
40
0.2120636
50
216.1156896
51
265.2575835
0
ARC
8
DEFAULT_255_1_234
10
22.8946263
20
28.8280109
40
0.2698952
50
264.5897417
51
270.0601757
0
ARC
8
DEFAULT_255_1_234
10
22.8979323
20
28.7900185
40
0.2319225
50
269.2532621
51
291.8792492
0
ARC
8
DEFAULT_255_1_234
10
22.9008545
20
28.7722238
40
0.2143562
50
292.9269754
51
323.1776747
0
ARC
8
DEFAULT_255_1_234
10
22.8615366
20
28.8070452
40
0.2667346
50
322.2518483
51
323.0930371
0
ARC
8
DEFAULT_255_1_234
10
22.8321026
20
28.825199
40
0.3011886
50
323.6941278
51
343.8493282
0
ARC
8
DEFAULT_255_1_234
10
22.6742569
20
28.873235
40
0.4661719
50
343.5748474
51
355.0079071
0
ARC
8
DEFAULT_255_1_234
10
22.4734814
20
28.8940424
40
0.6680042
50
354.7285225
51
0.1206288
0
ARC
8
DEFAULT_255_1_234
10
22.650328
20
28.8986751
40
0.4911667
50
359.623636
51
11.2015604
0
ARC
8
DEFAULT_255_1_234
10
22.8037508
20
28.930264
40
0.3345323
50
10.9989411
51
30.8319188
0
ARC
8
DEFAULT_255_1_234
10
22.843338
20
28.9511297
40
0.2898553
50
31.3008956
51
37.3959224
0
ARC
8
DEFAULT_255_1_234
10
22.8929959
20
28.9930653
40
0.2249582
50
36.5915954
51
62.2442953
0
ARC
8
DEFAULT_255_1_234
10
22.8976412
20
28.9927602
40
0.2231053
50
63.3365542
51
89.7195421
0
ARC
8
DEFAULT_255_1_234
10
22.8933266
20
28.9358884
40
0.2800267
50
88.8936788
51
90.0047485
0
ARC
8
DEFAULT_255_1_234
10
22.8901625
20
28.9931787
40
0.2227586
50
89.1921125
51
114.7099455
0
ARC
8
DEFAULT_255_1_234
10
22.8930389
20
28.9969628
40
0.2205633
50
115.7997161
51
142.2900762
0
ARC
8
DEFAULT_255_1_234
10
22.9369122
20
28.9579658
40
0.2791541
50
141.4658779
51
142.3795754
0
ARC
8
DEFAULT_255_1_234
10
22.9478026
20
28.9536557
40
0.2904292
50
143.0175714
51
163.234115
0
ARC
8
DEFAULT_255_1_234
10
23.1056199
20
28.9037054
40
0.4559523
50
162.9447461
51
174.3732162
0
ARC
8
DEFAULT_255_1_234
10
23.3202012
20
28.8796143
40
0.6718682
50
174.1228657
51
180.1565175
0
LINE
8
DEFAULT_255_1_234
10
24.194445
20
29.1444327
11
24.194445
21
28.9516709
0
LINE
8
DEFAULT_255_1_234
10
23.4563282
20
28.9315916
11
23.4563282
21
29.1299755
0
LINE
8
DEFAULT_255_1_234
10
24.0458578
20
28.9115123
11
24.0458578
21
29.1548739
0
LINE
8
DEFAULT_255_1_234
10
23.6049154
20
29.1661184
11
23.6049154
21
28.9283789
0
ARC
8
DEFAULT_255_1_234
10
22.9697339
20
28.9467805
40
1.2247208
50
353.8441951
51
0.2287902
0
ARC
8
DEFAULT_255_1_234
10
23.4336843
20
28.8949806
40
0.7578929
50
344.4934747
51
353.9765454
0
ARC
8
DEFAULT_255_1_234
10
23.7329433
20
28.8098981
40
0.4467846
50
329.2803592
51
344.7472793
0
ARC
8
DEFAULT_255_1_234
10
23.8322258
20
28.7554018
40
0.3336173
50
324.9352394
51
328.6160465
0
ARC
8
DEFAULT_255_1_234
10
23.8699367
20
28.7290427
40
0.2876076
50
280.580143
51
324.9173126
0
ARC
8
DEFAULT_255_1_234
10
23.8298159
20
28.8961099
40
0.4592847
50
269.5977311
51
281.6734359
0
ARC
8
DEFAULT_255_1_234
10
23.8226065
20
28.8841173
40
0.4472986
50
256.6228859
51
270.51044
0
ARC
8
DEFAULT_255_1_234
10
23.7824043
20
28.7292877
40
0.2873874
50
215.8618325
51
257.2788573
0
ARC
8
DEFAULT_255_1_234
10
23.8845074
20
28.7977977
40
0.4102928
50
197.9693508
51
215.2623606
0
ARC
8
DEFAULT_255_1_234
10
24.133019
20
28.8816709
40
0.6725652
50
187.8816417
51
198.2346507
0
ARC
8
DEFAULT_255_1_234
10
24.5288398
20
28.9388079
40
1.0724845
50
180.8976217
51
188.0055519
0
ARC
8
DEFAULT_255_1_234
10
24.8088586
20
28.9491777
40
1.3526448
50
180.7449369
51
181.1510016
0
ARC
8
DEFAULT_255_1_234
10
24.6511315
20
29.1348042
40
1.1948131
50
173.7675579
51
180.231553
0
ARC
8
DEFAULT_255_1_234
10
24.1993462
20
29.1858666
40
0.7401564
50
164.3058563
51
173.9002247
0
ARC
8
DEFAULT_255_1_234
10
23.9081531
20
29.2697656
40
0.4371288
50
148.7922025
51
164.568378
0
ARC
8
DEFAULT_255_1_234
10
23.8129983
20
29.3228929
40
0.3282386
50
144.5883898
51
148.1176286
0
ARC
8
DEFAULT_255_1_234
10
23.7786881
20
29.3468315
40
0.2864044
50
101.6440918
51
144.514236
0
ARC
8
DEFAULT_255_1_234
10
23.8211948
20
29.1779069
40
0.4604934
50
89.5284041
51
102.5819763
0
ARC
8
DEFAULT_255_1_234
10
23.8291035
20
29.1740018
40
0.464401
50
77.0437873
51
90.5081339
0
ARC
8
DEFAULT_255_1_234
10
23.8693037
20
29.3382615
40
0.2953195
50
48.2778575
51
77.4994676
0
ARC
8
DEFAULT_255_1_234
10
23.8765669
20
29.3511746
40
0.2808655
50
36.3142134
51
47.6305865
0
ARC
8
DEFAULT_255_1_234
10
23.7896975
20
29.2926515
40
0.3855453
50
18.2931786
51
35.6769206
0
ARC
8
DEFAULT_255_1_234
10
23.5353734
20
29.2053593
40
0.654423
50
8.024666
51
18.5605216
0
ARC
8
DEFAULT_255_1_234
10
23.1190654
20
29.1438792
40
1.0752407
50
1.1274072
51
8.1718305
0
ARC
8
DEFAULT_255_1_234
10
22.7954845
20
29.1311885
40
1.3990231
50
0.5424119
51
1.3863029
0
ARC
8
DEFAULT_255_1_234
10
22.9776223
20
29.1584342
40
1.0682415
50
359.8090433
51
4.9407866
0
ARC
8
DEFAULT_255_1_234
10
23.3986237
20
29.1960113
40
0.6455691
50
4.8362157
51
12.2904523
0
ARC
8
DEFAULT_255_1_234
10
23.6741352
20
29.2573965
40
0.3633074
50
12.0805627
51
23.8173984
0
ARC
8
DEFAULT_255_1_234
10
23.7915057
20
29.3070919
40
0.2358723
50
24.2871213
51
31.3935614
0
ARC
8
DEFAULT_255_1_234
10
23.8439754
20
29.3414233
40
0.1732111
50
30.7407893
51
82.4657128
0
ARC
8
DEFAULT_255_1_234
10
23.8259888
20
29.2530691
40
0.263235
50
81.1060089
51
90.2184952
0
ARC
8
DEFAULT_255_1_234
10
23.8224187
20
29.2788924
40
0.2374236
50
89.3806855
51
105.6762551
0
ARC
8
DEFAULT_255_1_234
10
23.8040818
20
29.3455567
40
0.1682847
50
105.7981136
51
149.7388061
0
ARC
8
DEFAULT_255_1_234
10
23.9104896
20
29.281595
40
0.2924306
50
149.4208916
51
163.6286378
0
ARC
8
DEFAULT_255_1_234
10
24.1195784
20
29.217825
40
0.5110213
50
163.3763315
51
172.1410975
0
ARC
8
DEFAULT_255_1_234
10
24.4496503
20
29.1705518
40
0.8444586
50
172.0259487
51
178.0703232
0
ARC
8
DEFAULT_255_1_234
10
24.7526593
20
29.1561906
40
1.1477868
50
177.8631668
51
179.5044149
0
ARC
8
DEFAULT_255_1_234
10
24.6453997
20
28.9247389
40
1.0404907
50
179.7995573
51
185.2460446
0
ARC
8
DEFAULT_255_1_234
10
24.2411037
20
28.8864513
40
0.6343885
50
185.1411642
51
193.0079639
0
ARC
8
DEFAULT_255_1_234
10
23.9767509
20
28.8239641
40
0.3627568
50
192.7897626
51
205.2507664
0
ARC
8
DEFAULT_255_1_234
10
23.8721056
20
28.7772415
40
0.2481908
50
205.8005384
51
211.2537509
0
ARC
8
DEFAULT_255_1_234
10
23.8197497
20
28.742158
40
0.1852521
50
210.3789793
51
238.4008143
0
ARC
8
DEFAULT_255_1_234
10
23.8178018
20
28.7468376
40
0.1882621
50
239.6520629
51
265.9793761
0
ARC
8
DEFAULT_255_1_234
10
23.8263219
20
28.8140427
40
0.2559272
50
265.1315437
51
270.060332
0
ARC
8
DEFAULT_255_1_234
10
23.8291997
20
28.7816534
40
0.2235528
50
269.3314664
51
287.2178029
0
ARC
8
DEFAULT_255_1_234
10
23.8429849
20
28.7313279
40
0.1714108
50
287.7958004
51
329.080874
0
ARC
8
DEFAULT_255_1_234
10
23.7472306
20
28.791093
40
0.2842745
50
328.6634704
51
343.3325132
0
ARC
8
DEFAULT_255_1_234
10
23.5299326
20
28.8587863
40
0.5118644
50
343.0499468
51
351.9393422
0
ARC
8
DEFAULT_255_1_234
10
23.1832626
20
28.9098949
40
0.8622784
50
351.8069023
51
357.7959224
0
ARC
8
DEFAULT_255_1_234
10
22.8597182
20
28.9266721
40
1.1862365
50
357.5871873
51
359.2677531
0
ENDSEC
0
EOF