0
SECTION
2
HEADER
9
$MEASUREMENT
70
1
0
ENDSEC
0
SECTION
2
TABLES
0
TABLE
2
LTYPE
0
LTYPE
72
65
70
64
2
CONTINUOUS
3
______
73
0
40
0
0
ENDTAB
0
TABLE
2
LAYER
0
LAYER
2
DEFAULT_255_2_778
70
0
62
255
6
CONTINUOUS
0
ENDTAB
0
ENDSEC
0
SECTION
2
ENTITIES
0
LINE
8
DEFAULT_255_2_778
10
2.3561228
20
26.3192372
11
1.2562228
21
26.3192372
0
LINE
8
DEFAULT_255_2_778
10
1.2562228
20
26.3192372
11
1.2562228
21
30.3192372
0
LINE
8
DEFAULT_255_2_778
10
1.2562228
20
30.3192372
11
2.3561228
21
30.3192372
0
LINE
8
DEFAULT_255_2_778
10
64.4062228
20
50.7191372
11
56.5062228
21
50.7191372
0
LINE
8
DEFAULT_255_2_778
10
56.5062228
20
50.7191372
11
56.5062228
21
38.8692372
0
LINE
8
DEFAULT_255_2_778
10
56.5062228
20
38.8692372
11
64.4062228
21
38.8692372
0
LINE
8
DEFAULT_255_2_778
10
64.4062228
20
38.8692372
11
64.4062228
21
50.7191372
0
LINE
8
DEFAULT_255_2_778
10
57.0262082
20
49.9992722
11
63.4561082
21
49.9992722
0
LINE
8
DEFAULT_255_2_778
10
63.4561082
20
49.9992722
11
63.4561082
21
39.1193722
0
LINE
8
DEFAULT_255_2_778
10
63.4561082
20
39.1193722
11
57.0262082
21
39.1193722
0
LINE
8
DEFAULT_255_2_778
10
57.0262082
20
39.1193722
11
57.0262082
21
49.9992722
0
LINE
8
DEFAULT_255_2_778
10
73.3563082
20
3.7691722
11
14.3563082
21
3.7691722
0
LINE
8
DEFAULT_255_2_778
10
14.3563082
20
3.7691722
11
14.3563082
21
1.3190722
0
LINE
8
DEFAULT_255_2_778
10
14.6164082
20
1.3190722
11
14.6164082
21
0.9190722
0
LINE
8
DEFAULT_255_2_778
10
14.6164082
20
0.9190722
11
14.0163082
21
0.9190722
0
LINE
8
DEFAULT_255_2_778
10
14.0163082
20
0.9190722
11
14.0163082
21
0.5189722
0
LINE
8
DEFAULT_255_2_778
10
14.0163082
20
0.5189722
11
13.2162082
21
0.5189722
0
LINE
8
DEFAULT_255_2_778
10
13.2162082
20
0.5189722
11
13.2162082
21
0.1189722
0
LINE
8
DEFAULT_255_2_778
10
13.2162082
20
0.1189722
11
12.4164082
21
0.1189722
0
LINE
8
DEFAULT_255_2_778
10
12.4164082
20
0.1189722
11
12.4164082
21
-0.1810278
0
LINE
8
DEFAULT_255_2_778
10
12.4164082
20
-0.1810278
11
9.3562082
21
-0.1810278
0
LINE
8
DEFAULT_255_2_778
10
9.3562082
20
-0.1810278
11
7.8563082
21
1.3188722
0
LINE
8
DEFAULT_255_2_778
10
70.506226
20
33.4506585
11
70.506226
21
36.1250585
0
LINE
8
DEFAULT_255_2_778
10
72.961026
20
33.1651585
11
69.806326
21
36.9690585
0
LINE
8
DEFAULT_255_2_778
10
69.806326
20
36.9690585
11
68.956226
21
36.9690585
0
LINE
8
DEFAULT_255_2_778
10
68.956226
20
36.9690585
11
68.342926
21
33.6191585
0
LINE
8
DEFAULT_255_2_778
10
73.356226
20
97.8692585
11
3.906326
21
97.8692585
0
LINE
8
DEFAULT_255_2_778
10
73.3560614
20
101.3191798
11
7.3562614
21
101.3191798
0
LINE
8
DEFAULT_255_2_778
10
7.3562614
20
101.3191798
11
2.8562614
21
96.8190798
0
LINE
8
DEFAULT_255_2_778
10
2.8562614
20
96.8190798
11
2.3561614
21
96.8190798
0
LINE
8
DEFAULT_255_2_778
10
2.3561614
20
96.8190798
11
2.3561614
21
94.0189798
0
LINE
8
DEFAULT_255_2_778
10
2.3561614
20
94.0189798
11
4.0560614
21
94.0189798
0
LINE
8
DEFAULT_255_2_778
10
4.0560614
20
94.0189798
11
4.0560614
21
80.5188798
0
LINE
8
DEFAULT_255_2_778
10
4.0560614
20
80.5188798
11
2.3561614
21
80.5188798
0
LINE
8
DEFAULT_255_2_778
10
2.3561614
20
80.5188798
11
2.3561614
21
1.3187798
0
LINE
8
DEFAULT_255_2_778
10
2.3561614
20
1.3187798
11
73.3560614
21
1.3187798
0
LINE
8
DEFAULT_255_2_778
10
73.3560614
20
1.3187798
11
73.3560614
21
33.1190798
0
LINE
8
DEFAULT_255_2_778
10
73.3560614
20
33.1190798
11
69.0560614
21
33.6191798
0
LINE
8
DEFAULT_255_2_778
10
69.0560614
20
33.6191798
11
67.5560614
21
33.6191798
0
LINE
8
DEFAULT_255_2_778
10
67.5560614
20
33.6191798
11
67.5560614
21
69.0190798
0
LINE
8
DEFAULT_255_2_778
10
67.5560614
20
69.0190798
11
69.0560614
21
69.0190798
0
LINE
8
DEFAULT_255_2_778
10
69.0560614
20
69.0190798
11
73.3560614
21
69.5191798
0
LINE
8
DEFAULT_255_2_778
10
73.3560614
20
69.5191798
11
73.3560614
21
105.8191798
0
LINE
8
DEFAULT_255_2_778
10
73.3560614
20
105.8191798
11
69.4560614
21
105.8191798
0
LINE
8
DEFAULT_255_2_778
10
69.4560614
20
105.8191798
11
69.4560614
21
101.3191798
0
LINE
8
DEFAULT_255_2_778
10
64.4061355
20
52.1190265
11
64.4061355
21
92.7691265
0
LINE
8
DEFAULT_255_2_778
10
64.4061355
20
92.7691265
11
56.5062355
21
92.7691265
0
LINE
8
DEFAULT_255_2_778
10
56.5062355
20
92.7691265
11
56.5062355
21
52.1190265
0
LINE
8
DEFAULT_255_2_778
10
56.5062355
20
52.1190265
11
64.4061355
21
52.1190265
0
LINE
8
DEFAULT_255_2_778
10
63.4561291
20
91.3991712
11
63.4561291
21
52.3691712
0
LINE
8
DEFAULT_255_2_778
10
63.4561291
20
52.3691712
11
57.0262291
21
52.3691712
0
LINE
8
DEFAULT_255_2_778
10
57.0262291
20
52.3691712
11
57.0262291
21
91.3991712
0
LINE
8
DEFAULT_255_2_778
10
57.0262291
20
91.3991712
11
63.4561291
21
91.3991712
0
LINE
8
DEFAULT_255_2_778
10
7.8563291
20
101.3191712
11
9.3562291
21
102.8190712
0
LINE
8
DEFAULT_255_2_778
10
9.3562291
20
102.8190712
11
12.2563291
21
102.8190712
0
LINE
8
DEFAULT_255_2_778
10
12.2563291
20
102.8190712
11
12.2563291
21
102.5190712
0
LINE
8
DEFAULT_255_2_778
10
12.2563291
20
102.5190712
11
13.0564291
21
102.5190712
0
LINE
8
DEFAULT_255_2_778
10
13.0564291
20
102.5190712
11
13.0564291
21
102.1189712
0
LINE
8
DEFAULT_255_2_778
10
13.0564291
20
102.1189712
11
13.8565291
21
102.1189712
0
LINE
8
DEFAULT_255_2_778
10
13.8565291
20
102.1189712
11
13.8565291
21
101.7189712
0
LINE
8
DEFAULT_255_2_778
10
13.8565291
20
101.7189712
11
14.4566291
21
101.7189712
0
LINE
8
DEFAULT_255_2_778
10
14.4566291
20
101.7189712
11
14.4566291
21
101.3188712
0
LINE
8
DEFAULT_255_2_778
10
70.6562291
20
66.5134712
11
70.6562291
21
69.2053712
0
LINE
8
DEFAULT_255_2_778
10
73.1268291
20
69.4924712
11
69.9563291
21
65.6691712
0
LINE
8
DEFAULT_255_2_778
10
69.9563291
20
65.6691712
11
69.1562291
21
65.6691712
0
LINE
8
DEFAULT_255_2_778
10
69.1562291
20
65.6691712
11
68.5429291
21
69.0190712
0
LINE
8
DEFAULT_255_2_778
10
73.3562291
20
104.3192712
11
69.4563291
21
104.3192712
0
LINE
8
DEFAULT_255_2_778
10
3.9563291
20
80.7192712
11
3.9563291
21
93.8192712
0
LINE
8
DEFAULT_255_2_778
10
4.0560269
20
93.8192557
11
2.3561269
21
93.8192557
0
LINE
8
DEFAULT_255_2_778
10
2.3561269
20
93.8192557
11
2.3561269
21
80.7192557
0
LINE
8
DEFAULT_255_2_778
10
2.3561269
20
80.7192557
11
4.0560269
21
80.7192557
0
LINE
8
DEFAULT_255_2_778
10
67.5560269
20
56.3190557
11
65.9561269
21
56.3190557
0
LINE
8
DEFAULT_255_2_778
10
67.5560269
20
54.8191557
11
65.9561269
21
54.8191557
0
LINE
8
DEFAULT_255_2_778
10
67.5560323
20
64.0192996
11
65.9561323
21
64.0192996
0
LINE
8
DEFAULT_255_2_778
10
65.9561323
20
64.0192996
11
65.9561323
21
38.6192996
0
LINE
8
DEFAULT_255_2_778
10
65.9561323
20
38.6192996
11
67.5560323
21
38.6192996
0
ENDSEC
0
EOF