0
SECTION
2
HEADER
9
$MEASUREMENT
70
1
0
ENDSEC
0
SECTION
2
TABLES
0
TABLE
2
LTYPE
0
LTYPE
72
65
70
64
2
CONTINUOUS
3
______
73
0
40
0
0
ENDTAB
0
TABLE
2
LAYER
0
LAYER
2
DEFAULT_255_2_778
70
0
62
255
6
CONTINUOUS
0
ENDTAB
0
ENDSEC
0
SECTION
2
ENTITIES
0
LINE
8
DEFAULT_255_2_778
10
16.0114614
20
49.9988066
11
12.2114614
21
49.9988066
0
LINE
8
DEFAULT_255_2_778
10
12.2114614
20
49.9988066
11
12.2114614
21
39.8687066
0
LINE
8
DEFAULT_255_2_778
10
12.2114614
20
39.8687066
11
16.0114614
21
39.8687066
0
LINE
8
DEFAULT_255_2_778
10
71.2114614
20
2.4688066
11
0.2115614
21
2.4688066
0
ARC
8
DEFAULT_255_2_778
10
92.3275042
20
15.3347415
40
6.000959
50
219.7341298
51
247.2964336
0
LINE
8
DEFAULT_255_2_778
10
0.6070533
20
33.1649724
11
3.7616533
21
36.9688724
0
LINE
8
DEFAULT_255_2_778
10
3.7616533
20
36.9688724
11
4.6117533
21
36.9688724
0
LINE
8
DEFAULT_255_2_778
10
4.6117533
20
36.9688724
11
5.2250533
21
33.6189724
0
LINE
8
DEFAULT_255_2_778
10
3.0615533
20
33.4501724
11
3.0615533
21
36.1245724
0
LINE
8
DEFAULT_255_2_778
10
65.7114533
20
1.3186724
11
64.2115533
21
-0.1812276
0
LINE
8
DEFAULT_255_2_778
10
64.2115533
20
-0.1812276
11
61.1516533
21
-0.1812276
0
LINE
8
DEFAULT_255_2_778
10
61.1516533
20
-0.1812276
11
61.1516533
21
0.1187724
0
LINE
8
DEFAULT_255_2_778
10
61.1516533
20
0.1187724
11
60.3512533
21
0.1187724
0
LINE
8
DEFAULT_255_2_778
10
60.3512533
20
0.1187724
11
60.3512533
21
0.5187724
0
LINE
8
DEFAULT_255_2_778
10
60.3512533
20
0.5187724
11
59.5511533
21
0.5187724
0
LINE
8
DEFAULT_255_2_778
10
59.5511533
20
0.5187724
11
59.5511533
21
0.9188724
0
LINE
8
DEFAULT_255_2_778
10
59.5511533
20
0.9188724
11
58.9511533
21
0.9188724
0
LINE
8
DEFAULT_255_2_778
10
58.9511533
20
0.9188724
11
58.9511533
21
1.3188724
0
LINE
8
DEFAULT_255_2_778
10
90.0113533
20
7.4987724
11
90.0113533
21
9.7987724
0
LINE
8
DEFAULT_255_2_778
10
87.7126533
20
11.4987724
11
80.0611533
21
11.4987724
0
LINE
8
DEFAULT_255_2_778
10
80.0611533
20
11.4987724
11
80.0611533
21
7.4987724
0
LINE
8
DEFAULT_255_2_778
10
80.0611533
20
7.4987724
11
90.0110533
21
7.4987724
0
LINE
8
DEFAULT_255_2_778
10
72.1061533
20
4.8799724
11
72.2787533
21
4.9331724
0
LINE
8
DEFAULT_255_2_778
10
72.2787533
20
4.9331724
11
79.8113533
21
7.4990724
0
LINE
8
DEFAULT_255_2_778
10
79.8113533
20
7.4990724
11
80.0614533
21
7.4990724
0
ARC
8
DEFAULT_255_2_778
10
92.3290232
20
15.3351573
40
6.0022229
50
197.7143854
51
219.7295714
0
LINE
8
DEFAULT_255_2_778
10
80.061395
20
11.4987475
11
79.811395
21
11.4987475
0
LINE
8
DEFAULT_255_2_778
10
86.611395
20
13.5088475
11
84.611495
21
13.5088475
0
LINE
8
DEFAULT_255_2_778
10
84.611495
20
13.5088475
11
84.611495
21
12.0088475
0
LINE
8
DEFAULT_255_2_778
10
84.611495
20
12.0088475
11
85.011495
21
12.0088475
0
LINE
8
DEFAULT_255_2_778
10
85.011495
20
12.0088475
11
85.011495
21
11.4987475
0
LINE
8
DEFAULT_255_2_778
10
4.111495
20
101.3187475
11
4.111495
21
105.8187475
0
LINE
8
DEFAULT_255_2_778
10
4.111495
20
105.8187475
11
0.211495
21
105.8187475
0
LINE
8
DEFAULT_255_2_778
10
0.211495
20
105.8187475
11
0.211495
21
69.5187475
0
LINE
8
DEFAULT_255_2_778
10
0.211495
20
69.5187475
11
4.511495
21
69.0186475
0
LINE
8
DEFAULT_255_2_778
10
4.511495
20
69.0186475
11
6.011395
21
69.0186475
0
LINE
8
DEFAULT_255_2_778
10
6.011395
20
69.0186475
11
6.011395
21
33.6187475
0
LINE
8
DEFAULT_255_2_778
10
6.011395
20
33.6187475
11
4.511495
21
33.6187475
0
LINE
8
DEFAULT_255_2_778
10
4.511495
20
33.6187475
11
0.211495
21
33.1186475
0
LINE
8
DEFAULT_255_2_778
10
0.211495
20
33.1186475
11
0.211495
21
1.3186475
0
LINE
8
DEFAULT_255_2_778
10
0.211495
20
1.3186475
11
71.211395
21
1.3186475
0
LINE
8
DEFAULT_255_2_778
10
71.211395
20
1.3186475
11
71.211395
21
80.8188475
0
LINE
8
DEFAULT_255_2_778
10
71.211395
20
80.8188475
11
69.511395
21
80.8188475
0
LINE
8
DEFAULT_255_2_778
10
69.511395
20
80.8188475
11
69.511395
21
96.3186475
0
LINE
8
DEFAULT_255_2_778
10
69.511395
20
96.3186475
11
71.211395
21
96.3186475
0
LINE
8
DEFAULT_255_2_778
10
71.211395
20
96.3186475
11
71.211395
21
96.8186475
0
LINE
8
DEFAULT_255_2_778
10
71.211395
20
96.8186475
11
70.711295
21
96.8186475
0
LINE
8
DEFAULT_255_2_778
10
70.711295
20
96.8186475
11
66.211295
21
101.3187475
0
LINE
8
DEFAULT_255_2_778
10
66.211295
20
101.3187475
11
0.211495
21
101.3187475
0
LINE
8
DEFAULT_255_2_778
10
68.3616749
20
99.1686766
11
0.2115749
21
99.1686766
0
LINE
8
DEFAULT_255_2_778
10
5.0248749
20
69.0185766
11
4.4115749
21
65.6686766
0
LINE
8
DEFAULT_255_2_778
10
4.4115749
20
65.6686766
11
3.6114749
21
65.6686766
0
LINE
8
DEFAULT_255_2_778
10
3.6114749
20
65.6686766
11
0.4409749
21
69.4919766
0
ARC
8
DEFAULT_255_2_778
10
92.3270876
20
55.702977
40
6.0004472
50
112.7010504
51
140.2651665
0
ARC
8
DEFAULT_255_2_778
10
92.3299659
20
55.7020946
40
6.003186
50
140.2722179
51
162.2838281
0
LINE
8
DEFAULT_255_2_778
10
2.9116773
20
66.5130757
11
2.9116773
21
69.2049757
0
LINE
8
DEFAULT_255_2_778
10
4.1115773
20
104.3188757
11
0.2115773
21
104.3188757
0
LINE
8
DEFAULT_255_2_778
10
16.0114773
20
91.7688757
11
12.2114773
21
91.7688757
0
LINE
8
DEFAULT_255_2_778
10
12.2114773
20
91.7688757
11
12.2114773
21
52.3689757
0
LINE
8
DEFAULT_255_2_778
10
12.2114773
20
52.3689757
11
16.0114773
21
52.3689757
0
LINE
8
DEFAULT_255_2_778
10
59.1115773
20
101.3187757
11
59.1115773
21
101.7187757
0
LINE
8
DEFAULT_255_2_778
10
59.1115773
20
101.7187757
11
59.7115773
21
101.7187757
0
LINE
8
DEFAULT_255_2_778
10
59.7115773
20
101.7187757
11
59.7115773
21
102.1188757
0
LINE
8
DEFAULT_255_2_778
10
59.7115773
20
102.1188757
11
60.5116773
21
102.1188757
0
LINE
8
DEFAULT_255_2_778
10
60.5116773
20
102.1188757
11
60.5116773
21
102.5188757
0
LINE
8
DEFAULT_255_2_778
10
60.5116773
20
102.5188757
11
61.3117773
21
102.5188757
0
LINE
8
DEFAULT_255_2_778
10
61.3117773
20
102.5188757
11
61.3117773
21
102.8189757
0
LINE
8
DEFAULT_255_2_778
10
61.3117773
20
102.8189757
11
64.2118773
21
102.8189757
0
LINE
8
DEFAULT_255_2_778
10
64.2118773
20
102.8189757
11
65.7117773
21
101.3190757
0
LINE
8
DEFAULT_255_2_778
10
80.0614773
20
59.5389757
11
80.0614773
21
63.5388757
0
LINE
8
DEFAULT_255_2_778
10
72.2787773
20
66.1045757
11
79.8114773
21
63.5386757
0
LINE
8
DEFAULT_255_2_778
10
79.8114773
20
63.5386757
11
90.0113773
21
63.5386757
0
LINE
8
DEFAULT_255_2_778
10
90.0113773
20
63.5386757
11
90.0113773
21
61.2385757
0
LINE
8
DEFAULT_255_2_778
10
71.2114773
20
66.4622757
11
79.8114773
21
63.5338757
0
LINE
8
DEFAULT_255_2_778
10
79.8114773
20
63.5338757
11
79.8114773
21
59.5338757
0
LINE
8
DEFAULT_255_2_778
10
79.8114773
20
59.5338757
11
79.7114773
21
59.5338757
0
LINE
8
DEFAULT_255_2_778
10
79.7114773
20
59.5338757
11
76.3115773
21
57.5540757
0
LINE
8
DEFAULT_255_2_778
10
76.3115773
20
57.5540757
11
76.3115773
21
13.4839757
0
LINE
8
DEFAULT_255_2_778
10
76.3115773
20
13.4839757
11
79.7114773
21
11.5040757
0
LINE
8
DEFAULT_255_2_778
10
79.7114773
20
11.5040757
11
79.8114773
21
11.5040757
0
LINE
8
DEFAULT_255_2_778
10
79.8114773
20
11.5040757
11
79.8114773
21
7.5041757
0
LINE
8
DEFAULT_255_2_778
10
79.8114773
20
7.5041757
11
71.2114773
21
4.5756757
0
LINE
8
DEFAULT_255_2_778
10
85.0115773
20
59.5389757
11
85.0115773
21
59.0287757
0
LINE
8
DEFAULT_255_2_778
10
85.0115773
20
59.0287757
11
84.6115773
21
59.0287757
0
LINE
8
DEFAULT_255_2_778
10
84.6115773
20
59.0287757
11
84.6115773
21
57.5288757
0
LINE
8
DEFAULT_255_2_778
10
84.6115773
20
57.5288757
11
86.6114773
21
57.5288757
0
LINE
8
DEFAULT_255_2_778
10
87.7129773
20
59.5389757
11
79.8114773
21
59.5389757
0
LINE
8
DEFAULT_255_2_778
10
16.0116773
20
38.8686757
11
16.0116773
21
92.7687757
0
LINE
8
DEFAULT_255_2_778
10
8.7115179
20
92.7687607
11
19.0115179
21
92.7687607
0
LINE
8
DEFAULT_255_2_778
10
19.0115179
20
92.7687607
11
19.0115179
21
38.8686607
0
LINE
8
DEFAULT_255_2_778
10
19.0115179
20
38.8686607
11
8.7115179
21
38.8686607
0
LINE
8
DEFAULT_255_2_778
10
8.7115179
20
38.8686607
11
8.7115179
21
92.7687607
0
LINE
8
DEFAULT_255_2_778
10
11.7117084
20
92.7687607
11
11.7117084
21
38.8686607
0
LINE
8
DEFAULT_255_2_778
10
6.0115084
20
54.8187607
11
7.6114084
21
54.8187607
0
LINE
8
DEFAULT_255_2_778
10
6.0114323
20
56.3187
11
7.6113323
21
56.3187
0
LINE
8
DEFAULT_255_2_778
10
6.0114269
20
38.6189211
11
7.6113269
21
38.6189211
0
LINE
8
DEFAULT_255_2_778
10
7.6113269
20
38.6189211
11
7.6113269
21
64.0189211
0
LINE
8
DEFAULT_255_2_778
10
7.6113269
20
64.0189211
11
6.0114269
21
64.0189211
0
LINE
8
DEFAULT_255_2_778
10
69.5114269
20
81.0189211
11
71.2113269
21
81.0189211
0
LINE
8
DEFAULT_255_2_778
10
71.2113269
20
81.0189211
11
71.2113269
21
96.1189211
0
LINE
8
DEFAULT_255_2_778
10
71.2113269
20
96.1189211
11
69.5114269
21
96.1189211
0
LINE
8
DEFAULT_255_2_778
10
69.6115
20
96.1189175
11
69.6115
21
81.0189175
0
ENDSEC
0
EOF