0
SECTION
2
HEADER
9
$MEASUREMENT
70
1
0
ENDSEC
0
SECTION
2
TABLES
0
TABLE
2
LTYPE
0
LTYPE
72
65
70
64
2
CONTINUOUS
3
______
73
0
40
0
0
ENDTAB
0
TABLE
2
LAYER
0
LAYER
2
DEFAULT_255_2_778
70
0
62
255
6
CONTINUOUS
0
ENDTAB
0
ENDSEC
0
SECTION
2
ENTITIES
0
LINE
8
DEFAULT_255_2_778
10
9.8789889
20
92.9187143
11
8.6790889
21
92.9187143
0
LINE
8
DEFAULT_255_2_778
10
8.6790889
20
92.9187143
11
8.6790889
21
91.5188143
0
LINE
8
DEFAULT_255_2_778
10
8.6790889
20
91.5188143
11
9.8789889
21
91.5188143
0
LINE
8
DEFAULT_255_2_778
10
9.8789889
20
91.5188143
11
9.8789889
21
92.9187143
0
LINE
8
DEFAULT_255_2_778
10
2.3790889
20
81.8189143
11
2.3790889
21
83.2189143
0
LINE
8
DEFAULT_255_2_778
10
2.3790889
20
83.2189143
11
1.1791889
21
83.2189143
0
LINE
8
DEFAULT_255_2_778
10
1.1791889
20
83.2189143
11
1.1791889
21
81.8189143
0
LINE
8
DEFAULT_255_2_778
10
1.1791889
20
81.8189143
11
2.3790889
21
81.8189143
0
LINE
8
DEFAULT_255_2_778
10
22.0791889
20
72.5276143
11
22.0791889
21
73.6274143
0
LINE
8
DEFAULT_255_2_778
10
2.2790889
20
72.5276143
11
2.2790889
21
73.6274143
0
LINE
8
DEFAULT_255_2_778
10
1.9790889
20
75.5187143
11
1.6789889
21
75.5187143
0
LINE
8
DEFAULT_255_2_778
10
0.1790889
20
96.8187143
11
24.1791889
21
96.8187143
0
LINE
8
DEFAULT_255_2_778
10
22.6789889
20
1.3189143
11
22.6789889
21
4.1479143
0
LINE
8
DEFAULT_255_2_778
10
20.4789889
20
1.3187143
11
26.2788889
21
1.3187143
0
LINE
8
DEFAULT_255_2_778
10
26.2788889
20
1.3187143
11
26.2788889
21
3.7687143
0
LINE
8
DEFAULT_255_2_778
10
26.2788889
20
3.7687143
11
25.2787889
21
3.7687143
0
LINE
8
DEFAULT_255_2_778
10
25.2787889
20
3.7687143
11
25.2787889
21
2.2688143
0
LINE
8
DEFAULT_255_2_778
10
25.2787889
20
2.2688143
11
24.1788889
21
2.2688143
0
LINE
8
DEFAULT_255_2_778
10
8.4790889
20
1.3187143
11
16.2789889
21
1.3187143
0
LINE
8
DEFAULT_255_2_778
10
1.1291889
20
4.1479143
11
1.1291889
21
2.4688143
0
LINE
8
DEFAULT_255_2_778
10
1.1291889
20
2.4688143
11
0.9791889
21
2.4688143
0
LINE
8
DEFAULT_255_2_778
10
10.6791566
20
4.1477986
11
10.6791566
21
1.3188986
0
LINE
8
DEFAULT_255_2_778
10
4.2791566
20
1.3188986
11
2.4791566
21
1.3188986
0
LINE
8
DEFAULT_255_2_778
10
2.4791566
20
1.3188986
11
2.4791566
21
4.1477986
0
LINE
8
DEFAULT_255_2_778
10
0.1791566
20
5.7477986
11
24.1792566
21
5.7477986
0
LINE
8
DEFAULT_255_2_778
10
26.2792566
20
1.7689986
11
24.1792566
21
1.7689986
0
LINE
8
DEFAULT_255_2_778
10
24.1792566
20
1.7689986
11
24.1792566
21
99.3686986
0
LINE
8
DEFAULT_255_2_778
10
24.1792566
20
99.3686986
11
25.2791566
21
99.3686986
0
LINE
8
DEFAULT_255_2_778
10
25.2791566
20
99.3686986
11
25.2791566
21
97.8687986
0
LINE
8
DEFAULT_255_2_778
10
25.2791566
20
97.8687986
11
26.2792566
21
97.8687986
0
LINE
8
DEFAULT_255_2_778
10
26.2792566
20
97.8687986
11
26.2792566
21
101.3186986
0
LINE
8
DEFAULT_255_2_778
10
26.2792566
20
101.3186986
11
2.4791566
21
101.3186986
0
LINE
8
DEFAULT_255_2_778
10
2.4791566
20
101.3186986
11
2.4791566
21
97.6187986
0
LINE
8
DEFAULT_255_2_778
10
2.4791566
20
97.6187986
11
1.1292566
21
97.6187986
0
LINE
8
DEFAULT_255_2_778
10
1.1292566
20
97.6187986
11
1.1292566
21
99.1686986
0
LINE
8
DEFAULT_255_2_778
10
1.1292566
20
99.1686986
11
0.1791566
21
99.1686986
0
LINE
8
DEFAULT_255_2_778
10
0.1791566
20
99.1686986
11
0.1791566
21
2.2777986
0
LINE
8
DEFAULT_255_2_778
10
0.1791566
20
2.2777986
11
0.9792566
21
2.2777986
0
LINE
8
DEFAULT_255_2_778
10
0.9792566
20
2.2777986
11
0.9792566
21
5.7477986
0
LINE
8
DEFAULT_255_2_778
10
4.8789566
20
86.4186986
11
4.8789566
21
87.8185986
0
LINE
8
DEFAULT_255_2_778
10
4.8789566
20
87.8185986
11
3.6790566
21
87.8185986
0
LINE
8
DEFAULT_255_2_778
10
3.6790566
20
87.8185986
11
3.6790566
21
86.4186986
0
LINE
8
DEFAULT_255_2_778
10
3.6790566
20
86.4186986
11
4.8789566
21
86.4186986
0
LINE
8
DEFAULT_255_2_778
10
3.6790566
20
83.2187986
11
3.6790566
21
81.8188986
0
LINE
8
DEFAULT_255_2_778
10
3.6790566
20
81.8188986
11
4.8789566
21
81.8188986
0
LINE
8
DEFAULT_255_2_778
10
4.8789566
20
81.8188986
11
4.8789566
21
83.2187986
0
LINE
8
DEFAULT_255_2_778
10
4.8789566
20
83.2187986
11
3.6790566
21
83.2187986
0
LINE
8
DEFAULT_255_2_778
10
1.1792691
20
86.418679
11
2.3791691
21
86.418679
0
LINE
8
DEFAULT_255_2_778
10
2.3791691
20
86.418679
11
2.3791691
21
87.818579
0
LINE
8
DEFAULT_255_2_778
10
2.3791691
20
87.818579
11
1.1792691
21
87.818579
0
LINE
8
DEFAULT_255_2_778
10
1.1792691
20
87.818579
11
1.1792691
21
86.418679
0
LINE
8
DEFAULT_255_2_778
10
1.1792691
20
89.918579
11
1.1792691
21
88.518679
0
LINE
8
DEFAULT_255_2_778
10
1.1792691
20
88.518679
11
2.3791691
21
88.518679
0
LINE
8
DEFAULT_255_2_778
10
2.3791691
20
88.518679
11
2.3791691
21
89.918579
0
LINE
8
DEFAULT_255_2_778
10
2.3791691
20
89.918579
11
1.1792691
21
89.918579
0
LINE
8
DEFAULT_255_2_778
10
7.4289691
20
86.418679
11
7.4289691
21
87.818579
0
LINE
8
DEFAULT_255_2_778
10
7.4289691
20
87.818579
11
6.2290691
21
87.818579
0
LINE
8
DEFAULT_255_2_778
10
6.2290691
20
87.818579
11
6.2290691
21
86.418679
0
LINE
8
DEFAULT_255_2_778
10
6.2290691
20
86.418679
11
7.4289691
21
86.418679
0
LINE
8
DEFAULT_255_2_778
10
6.2290691
20
83.218779
11
6.2290691
21
81.818879
0
LINE
8
DEFAULT_255_2_778
10
6.2290691
20
81.818879
11
7.4289691
21
81.818879
0
LINE
8
DEFAULT_255_2_778
10
7.4289691
20
81.818879
11
7.4289691
21
83.218779
0
LINE
8
DEFAULT_255_2_778
10
7.4289691
20
83.218779
11
6.2290691
21
83.218779
0
LINE
8
DEFAULT_255_2_778
10
22.6790691
20
76.112579
11
22.6790691
21
80.442779
0
LINE
8
DEFAULT_255_2_778
10
22.6790691
20
79.192679
11
22.8790691
21
79.192679
0
LINE
8
DEFAULT_255_2_778
10
22.8790691
20
79.576779
11
23.8789691
21
79.576779
0
LINE
8
DEFAULT_255_2_778
10
13.9792691
20
79.192679
11
15.1791691
21
79.192679
0
LINE
8
DEFAULT_255_2_778
10
13.9792428
20
81.4276582
11
23.8791428
21
81.4276582
0
LINE
8
DEFAULT_255_2_778
10
23.8791428
20
81.4276582
11
23.8791428
21
73.6277582
0
LINE
8
DEFAULT_255_2_778
10
23.8791428
20
73.6277582
11
13.9792428
21
73.6277582
0
LINE
8
DEFAULT_255_2_778
10
13.9792428
20
73.6277582
11
13.9792428
21
81.4276582
0
LINE
8
DEFAULT_255_2_778
10
15.1790751
20
80.4428854
11
15.1790751
21
76.1126854
0
LINE
8
DEFAULT_255_2_778
10
23.8790751
20
76.1126854
11
14.9793751
21
76.1126854
0
LINE
8
DEFAULT_255_2_778
10
14.9793751
20
76.1126854
11
14.9793751
21
76.9786854
0
LINE
8
DEFAULT_255_2_778
10
14.9793751
20
76.9786854
11
13.9794751
21
76.9786854
0
LINE
8
DEFAULT_255_2_778
10
13.9792428
20
80.4428051
11
22.8793428
21
80.4428051
0
LINE
8
DEFAULT_255_2_778
10
22.8793428
20
80.4428051
11
22.8793428
21
78.3267051
0
LINE
8
DEFAULT_255_2_778
10
22.8793428
20
78.3267051
11
23.8791428
21
78.3267051
0
LINE
8
DEFAULT_255_2_778
10
23.8791428
20
75.1276051
11
13.9792428
21
75.1276051
0
LINE
8
DEFAULT_255_2_778
10
14.0792428
20
73.6277051
11
14.0792428
21
72.5278051
0
LINE
8
DEFAULT_255_2_778
10
14.0792428
20
72.5278051
11
22.2792428
21
72.5278051
0
LINE
8
DEFAULT_255_2_778
10
22.2792428
20
72.5278051
11
22.2792428
21
73.6277051
0
LINE
8
DEFAULT_255_2_778
10
22.0789439
20
72.9511364
11
14.2790439
21
72.9511364
0
LINE
8
DEFAULT_255_2_778
10
10.0790439
20
72.5275364
11
10.0790439
21
73.6274364
0
LINE
8
DEFAULT_255_2_778
10
14.2790252
20
72.5275374
11
14.2790252
21
73.6274374
0
LINE
8
DEFAULT_255_2_778
10
10.6791252
20
76.1126374
11
10.6791252
21
80.4428374
0
LINE
8
DEFAULT_255_2_778
10
10.6791252
20
79.1926374
11
10.8792252
21
79.1926374
0
LINE
8
DEFAULT_255_2_778
10
10.8792252
20
79.5768374
11
11.8790252
21
79.5768374
0
LINE
8
DEFAULT_255_2_778
10
1.9791252
20
79.1926374
11
3.1790252
21
79.1926374
0
LINE
8
DEFAULT_255_2_778
10
1.9790428
20
81.4276582
11
11.8789428
21
81.4276582
0
LINE
8
DEFAULT_255_2_778
10
11.8789428
20
81.4276582
11
11.8789428
21
73.6277582
0
LINE
8
DEFAULT_255_2_778
10
11.8789428
20
73.6277582
11
1.9790428
21
73.6277582
0
LINE
8
DEFAULT_255_2_778
10
1.9790428
20
73.6277582
11
1.9790428
21
81.4276582
0
LINE
8
DEFAULT_255_2_778
10
3.1791428
20
80.4428854
11
3.1791428
21
76.1126854
0
LINE
8
DEFAULT_255_2_778
10
11.8789428
20
76.1126854
11
2.9791428
21
76.1126854
0
LINE
8
DEFAULT_255_2_778
10
2.9791428
20
76.1126854
11
2.9791428
21
76.9786854
0
LINE
8
DEFAULT_255_2_778
10
2.9791428
20
76.9786854
11
1.9790428
21
76.9786854
0
LINE
8
DEFAULT_255_2_778
10
1.9790428
20
80.4428051
11
10.8791428
21
80.4428051
0
LINE
8
DEFAULT_255_2_778
10
10.8791428
20
80.4428051
11
10.8791428
21
78.3267051
0
LINE
8
DEFAULT_255_2_778
10
10.8791428
20
78.3267051
11
11.8789428
21
78.3267051
0
LINE
8
DEFAULT_255_2_778
10
11.8789428
20
75.1276051
11
1.9790428
21
75.1276051
0
LINE
8
DEFAULT_255_2_778
10
2.0790428
20
73.6277051
11
2.0790428
21
72.5278051
0
LINE
8
DEFAULT_255_2_778
10
2.0790428
20
72.5278051
11
10.2790428
21
72.5278051
0
LINE
8
DEFAULT_255_2_778
10
10.2790428
20
72.5278051
11
10.2790428
21
73.6277051
0
LINE
8
DEFAULT_255_2_778
10
10.0790399
20
72.9511444
11
2.2791399
21
72.9511444
0
LINE
8
DEFAULT_255_2_778
10
11.8792399
20
77.5186444
11
13.9792399
21
77.5186444
0
LINE
8
DEFAULT_255_2_778
10
13.9792399
20
75.5186444
11
11.8792399
21
75.5186444
0
LINE
8
DEFAULT_255_2_778
10
18.7290399
20
101.3187444
11
18.7290399
21
102.8186444
0
LINE
8
DEFAULT_255_2_778
10
18.7290399
20
102.8186444
11
19.8289399
21
102.8186444
0
LINE
8
DEFAULT_255_2_778
10
19.8289399
20
102.8186444
11
19.8289399
21
101.3187444
0
LINE
8
DEFAULT_255_2_778
10
23.8291399
20
101.3187444
11
23.8291399
21
102.8186444
0
LINE
8
DEFAULT_255_2_778
10
23.8291399
20
102.8186444
11
24.9290399
21
102.8186444
0
LINE
8
DEFAULT_255_2_778
10
24.9290399
20
102.8186444
11
24.9290399
21
101.3187444
0
LINE
8
DEFAULT_255_2_778
10
11.8292399
20
101.3187444
11
11.8292399
21
102.8186444
0
LINE
8
DEFAULT_255_2_778
10
11.8292399
20
102.8186444
11
12.9291399
21
102.8186444
0
LINE
8
DEFAULT_255_2_778
10
12.9291399
20
102.8186444
11
12.9291399
21
101.3187444
0
LINE
8
DEFAULT_255_2_778
10
6.729168
20
101.3187434
11
6.729168
21
102.8186434
0
LINE
8
DEFAULT_255_2_778
10
6.729168
20
102.8186434
11
7.829068
21
102.8186434
0
LINE
8
DEFAULT_255_2_778
10
7.829068
20
102.8186434
11
7.829068
21
101.3187434
0
LINE
8
DEFAULT_255_2_778
10
24.179268
20
74.1277434
11
23.879168
21
74.1277434
0
LINE
8
DEFAULT_255_2_778
10
23.8791616
20
74.318825
11
24.1792616
21
74.318825
0
LINE
8
DEFAULT_255_2_778
10
16.2792616
20
3.227625
11
20.4792616
21
3.227625
0
LINE
8
DEFAULT_255_2_778
10
16.2792616
20
1.897825
11
20.4792616
21
1.897825
0
LINE
8
DEFAULT_255_2_778
10
12.9791616
20
4.147925
11
16.2790616
21
4.147925
0
LINE
8
DEFAULT_255_2_778
10
19.8292616
20
1.142725
11
19.8292616
21
-0.181275
0
LINE
8
DEFAULT_255_2_778
10
19.8292616
20
-0.181275
11
18.7290616
21
-0.181275
0
LINE
8
DEFAULT_255_2_778
10
18.7290616
20
-0.181275
11
18.7290616
21
1.142725
0
LINE
8
DEFAULT_255_2_778
10
22.6790616
20
3.318725
11
20.4790616
21
3.318725
0
LINE
8
DEFAULT_255_2_778
10
16.2791106
20
5.7478104
11
16.2791106
21
1.1428104
0
LINE
8
DEFAULT_255_2_778
10
16.2791106
20
1.1428104
11
20.4791106
21
1.1428104
0
LINE
8
DEFAULT_255_2_778
10
20.4791106
20
1.1428104
11
20.4791106
21
5.7478104
0
LINE
8
DEFAULT_255_2_778
10
22.4793106
20
3.3190104
11
22.4793106
21
4.1479104
0
LINE
8
DEFAULT_255_2_778
10
20.4791106
20
4.1479104
11
24.1790106
21
4.1479104
0
LINE
8
DEFAULT_255_2_778
10
23.8292106
20
1.3187104
11
23.8292106
21
-0.1811896
0
LINE
8
DEFAULT_255_2_778
10
23.8292106
20
-0.1811896
11
24.9291106
21
-0.1811896
0
LINE
8
DEFAULT_255_2_778
10
24.9291106
20
-0.1811896
11
24.9291106
21
1.3187104
0
LINE
8
DEFAULT_255_2_778
10
20.4791106
20
2.3188104
11
22.6791106
21
2.3188104
0
LINE
8
DEFAULT_255_2_778
10
12.1793106
20
2.2778104
11
12.1793106
21
74.1278104
0
LINE
8
DEFAULT_255_2_778
10
12.1793106
20
74.1278104
11
11.8793106
21
74.1278104
0
LINE
8
DEFAULT_255_2_778
10
13.9790637
20
74.1278281
11
12.1790637
21
74.1278281
0
LINE
8
DEFAULT_255_2_778
10
12.1790637
20
74.1278281
11
12.1790637
21
2.2778281
0
LINE
8
DEFAULT_255_2_778
10
12.1790637
20
2.2778281
11
12.9791637
21
2.2778281
0
LINE
8
DEFAULT_255_2_778
10
12.9791637
20
2.2778281
11
12.9791637
21
5.7478281
0
LINE
8
DEFAULT_255_2_778
10
1.9791637
20
74.1278281
11
0.1791637
21
74.1278281
0
LINE
8
DEFAULT_255_2_778
10
0.1791637
20
74.3185281
11
1.6790637
21
74.3185281
0
LINE
8
DEFAULT_255_2_778
10
1.6790637
20
74.3185281
11
1.6790637
21
77.5184281
0
LINE
8
DEFAULT_255_2_778
10
1.6790637
20
77.5184281
11
1.9791637
21
77.5184281
0
LINE
8
DEFAULT_255_2_778
10
4.2791637
20
3.2276281
11
8.4791637
21
3.2276281
0
LINE
8
DEFAULT_255_2_778
10
4.2791637
20
1.8978281
11
8.4791637
21
1.8978281
0
LINE
8
DEFAULT_255_2_778
10
0.9792637
20
4.1479281
11
4.2791637
21
4.1479281
0
LINE
8
DEFAULT_255_2_778
10
7.8293637
20
1.1427281
11
7.8293637
21
-0.1812719
0
LINE
8
DEFAULT_255_2_778
10
7.8293637
20
-0.1812719
11
6.7294637
21
-0.1812719
0
LINE
8
DEFAULT_255_2_778
10
6.7294637
20
-0.1812719
11
6.7294637
21
1.1427281
0
LINE
8
DEFAULT_255_2_778
10
10.6791637
20
3.3187281
11
8.4791637
21
3.3187281
0
LINE
8
DEFAULT_255_2_778
10
4.279119
20
5.7478089
11
4.279119
21
1.1428089
0
LINE
8
DEFAULT_255_2_778
10
4.279119
20
1.1428089
11
8.479119
21
1.1428089
0
LINE
8
DEFAULT_255_2_778
10
8.479119
20
1.1428089
11
8.479119
21
5.7478089
0
LINE
8
DEFAULT_255_2_778
10
10.479119
20
3.3190089
11
10.479119
21
4.1479089
0
LINE
8
DEFAULT_255_2_778
10
8.479119
20
4.1479089
11
12.179119
21
4.1479089
0
LINE
8
DEFAULT_255_2_778
10
11.829319
20
1.3187089
11
11.829319
21
-0.1811911
0
LINE
8
DEFAULT_255_2_778
10
11.829319
20
-0.1811911
11
12.929219
21
-0.1811911
0
LINE
8
DEFAULT_255_2_778
10
12.929219
20
-0.1811911
11
12.929219
21
1.3187089
0
LINE
8
DEFAULT_255_2_778
10
8.479119
20
2.3188089
11
10.679119
21
2.3188089
0
LINE
8
DEFAULT_255_2_778
10
3.529019
20
100.8364089
11
3.529019
21
97.3008089
0
LINE
8
DEFAULT_255_2_778
10
3.529019
20
97.3008089
11
11.029219
21
97.3008089
0
LINE
8
DEFAULT_255_2_778
10
11.029219
20
97.3008089
11
3.529319
21
97.3008089
0
LINE
8
DEFAULT_255_2_778
10
3.529319
20
97.3008089
11
3.529319
21
100.8364089
0
LINE
8
DEFAULT_255_2_778
10
3.529319
20
100.8364089
11
11.029219
21
100.8364089
0
LINE
8
DEFAULT_255_2_778
10
11.029219
20
100.8364089
11
11.029219
21
97.3008089
0
LINE
8
DEFAULT_255_2_778
10
11.029219
20
97.3008089
11
11.029219
21
100.8364089
0
LINE
8
DEFAULT_255_2_778
10
11.029219
20
100.8364089
11
3.529019
21
100.8364089
0
LINE
8
DEFAULT_255_2_778
10
10.679119
20
101.3188089
11
10.679119
21
104.3189089
0
LINE
8
DEFAULT_255_2_778
10
10.679119
20
104.3189089
11
9.179219
21
105.8188089
0
LINE
8
DEFAULT_255_2_778
10
9.179219
20
105.8188089
11
4.179119
21
105.8188089
0
LINE
8
DEFAULT_255_2_778
10
4.179119
20
105.8188089
11
2.679219
21
104.3189089
0
LINE
8
DEFAULT_255_2_778
10
2.679219
20
104.3189089
11
2.679219
21
101.3188089
0
LINE
8
DEFAULT_255_2_778
10
15.529219
20
100.8364089
11
15.529219
21
97.3008089
0
LINE
8
DEFAULT_255_2_778
10
15.529219
20
97.3008089
11
23.029419
21
97.3008089
0
LINE
8
DEFAULT_255_2_778
10
23.029419
20
97.3008089
11
15.529519
21
97.3008089
0
LINE
8
DEFAULT_255_2_778
10
15.529519
20
97.3008089
11
15.529519
21
100.8364089
0
LINE
8
DEFAULT_255_2_778
10
15.529519
20
100.8364089
11
23.029419
21
100.8364089
0
LINE
8
DEFAULT_255_2_778
10
23.029419
20
100.8364089
11
23.029419
21
97.3008089
0
LINE
8
DEFAULT_255_2_778
10
23.029419
20
97.3008089
11
23.029419
21
100.8364089
0
LINE
8
DEFAULT_255_2_778
10
23.029419
20
100.8364089
11
15.529219
21
100.8364089
0
LINE
8
DEFAULT_255_2_778
10
22.679119
20
101.3188089
11
22.679119
21
104.3189089
0
LINE
8
DEFAULT_255_2_778
10
22.679119
20
104.3189089
11
21.179119
21
105.8188089
0
LINE
8
DEFAULT_255_2_778
10
21.179119
20
105.8188089
11
16.179019
21
105.8188089
0
LINE
8
DEFAULT_255_2_778
10
16.179019
20
105.8188089
11
14.679119
21
104.3189089
0
LINE
8
DEFAULT_255_2_778
10
14.679119
20
104.3189089
11
14.679119
21
101.3188089
0
ARC
8
DEFAULT_255_2_778
10
3.6792098
20
29.6178326
40
1.4098555
50
37.0755236
51
90.0064508
0
ARC
8
DEFAULT_255_2_778
10
3.6789638
20
29.6176891
40
1.4099991
50
89.9964539
51
142.9215758
0
LINE
8
DEFAULT_255_2_778
10
2.2291511
20
30.4677882
11
2.2291511
21
28.8876882
0
LINE
8
DEFAULT_255_2_778
10
2.2291511
20
28.8876882
11
5.1292511
21
28.8876882
0
LINE
8
DEFAULT_255_2_778
10
5.1292511
20
28.8876882
11
5.1292511
21
30.4677882
0
LINE
8
DEFAULT_255_2_778
10
5.1292511
20
30.4677882
11
4.8040511
21
30.4677882
0
LINE
8
DEFAULT_255_2_778
10
2.5540511
20
30.4677882
11
2.2291511
21
30.4677882
0
ARC
8
DEFAULT_255_2_778
10
3.6772107
20
26.4905488
40
1.6230195
50
179.9962003
51
180.1026273
0
ARC
8
DEFAULT_255_2_778
10
3.6761901
20
26.4907848
40
1.6219991
50
135.0034838
51
180.0045353
0
ARC
8
DEFAULT_255_2_778
10
3.6761849
20
26.4906626
40
1.6220819
50
89.9966758
51
135.0003015
0
ARC
8
DEFAULT_255_2_778
10
3.6763867
20
26.4897247
40
1.6230197
50
89.8973727
51
90.0037997
0
ARC
8
DEFAULT_255_2_778
10
3.6817596
20
26.4950211
40
1.6177224
50
61.8422222
51
90.0873324
0
ARC
8
DEFAULT_255_2_778
10
3.6781158
20
26.4871392
40
1.6263911
50
8.5995563
51
61.8600801
0
ARC
8
DEFAULT_255_2_778
10
3.6663386
20
26.4883647
40
1.6378552
50
359.9817031
51
8.4955638
0
ARC
8
DEFAULT_255_2_778
10
3.6861728
20
26.4853814
40
1.6180229
50
332.1931218
51
0.087118
0
ARC
8
DEFAULT_255_2_778
10
3.6785506
20
26.488951
40
1.6264303
50
278.6485674
51
332.2071531
0
ARC
8
DEFAULT_255_2_778
10
3.6798183
20
26.5006254
40
1.6377839
50
269.981651
51
278.5433085
0
ARC
8
DEFAULT_255_2_778
10
3.6763867
20
26.4858585
40
1.6230195
50
269.9962003
51
270.1026273
0
ARC
8
DEFAULT_255_2_778
10
3.6761849
20
26.4849207
40
1.6220819
50
224.9996985
51
270.0033242
0
ARC
8
DEFAULT_255_2_778
10
3.6761901
20
26.4847985
40
1.6219991
50
179.9954647
51
224.9965162
0
ARC
8
DEFAULT_255_2_778
10
3.6772107
20
26.4850345
40
1.6230197
50
179.8973727
51
180.0037997
0
LINE
8
DEFAULT_255_2_778
10
2.0541938
20
26.4879416
11
2.0541938
21
26.4876416
0
ARC
8
DEFAULT_255_2_778
10
8.6794676
20
29.617834
40
1.410141
50
37.0812903
51
90.0006706
0
ARC
8
DEFAULT_255_2_778
10
8.6793638
20
29.6179759
40
1.4099991
50
89.9964539
51
142.9215758
0
LINE
8
DEFAULT_255_2_778
10
7.2292511
20
28.888075
11
10.1293511
21
28.888075
0
LINE
8
DEFAULT_255_2_778
10
10.1293511
20
28.888075
11
10.1293511
21
30.468075
0
LINE
8
DEFAULT_255_2_778
10
10.1293511
20
30.468075
11
9.8044511
21
30.468075
0
LINE
8
DEFAULT_255_2_778
10
7.5544511
20
30.468075
11
7.2295511
21
30.468075
0
LINE
8
DEFAULT_255_2_778
10
7.2295511
20
30.468075
11
7.2295511
21
28.888075
0
ARC
8
DEFAULT_255_2_778
10
8.672082
20
26.4902043
40
1.6177224
50
151.8422222
51
180.0873324
0
ARC
8
DEFAULT_255_2_778
10
8.679964
20
26.4865605
40
1.6263911
50
98.5995563
51
151.8600801
0
ARC
8
DEFAULT_255_2_778
10
8.6787385
20
26.4747833
40
1.6378552
50
89.9817031
51
98.4955638
0
ARC
8
DEFAULT_255_2_778
10
8.6817217
20
26.4946175
40
1.6180229
50
62.1931218
51
90.087118
0
ARC
8
DEFAULT_255_2_778
10
8.6781521
20
26.4869953
40
1.6264303
50
8.6485674
51
62.2071531
0
ARC
8
DEFAULT_255_2_778
10
8.6664778
20
26.488263
40
1.6377839
50
359.981651
51
8.5433085
0
ARC
8
DEFAULT_255_2_778
10
8.6862735
20
26.485275
40
1.6179899
50
332.1926321
51
0.0872357
0
ARC
8
DEFAULT_255_2_778
10
8.6785932
20
26.4888999
40
1.6264743
50
278.6465625
51
332.205897
0
ARC
8
DEFAULT_255_2_778
10
8.6797871
20
26.5008451
40
1.6381067
50
269.981616
51
278.5424654
0
ARC
8
DEFAULT_255_2_778
10
8.6767933
20
26.4804269
40
1.6176903
50
241.8417123
51
270.0874202
0
ARC
8
DEFAULT_255_2_778
10
8.6804929
20
26.4883669
40
1.6264365
50
188.5975683
51
241.8588041
0
ARC
8
DEFAULT_255_2_778
10
8.6925404
20
26.4872144
40
1.6381789
50
179.9816683
51
188.4947209
0
LINE
8
DEFAULT_255_2_778
10
7.0543615
20
26.4877385
11
7.0543615
21
26.4877385
0
ARC
8
DEFAULT_255_2_778
10
3.6792098
20
37.1177326
40
1.4098555
50
37.0755236
51
90.0064508
0
ARC
8
DEFAULT_255_2_778
10
3.6789638
20
37.1175891
40
1.4099991
50
89.9964539
51
142.9215758
0
LINE
8
DEFAULT_255_2_778
10
2.2291511
20
37.9676882
11
2.2291511
21
36.3875882
0
LINE
8
DEFAULT_255_2_778
10
2.2291511
20
36.3875882
11
5.1292511
21
36.3875882
0
LINE
8
DEFAULT_255_2_778
10
5.1292511
20
36.3875882
11
5.1292511
21
37.9676882
0
LINE
8
DEFAULT_255_2_778
10
5.1292511
20
37.9676882
11
4.8040511
21
37.9676882
0
LINE
8
DEFAULT_255_2_778
10
2.5540511
20
37.9676882
11
2.2291511
21
37.9676882
0
ARC
8
DEFAULT_255_2_778
10
3.6772107
20
33.9907488
40
1.6230195
50
179.9962003
51
180.1026273
0
ARC
8
DEFAULT_255_2_778
10
3.6761901
20
33.9909848
40
1.6219991
50
135.0034838
51
180.0045353
0
ARC
8
DEFAULT_255_2_778
10
3.6761849
20
33.9908626
40
1.6220819
50
89.9966758
51
135.0003015
0
ARC
8
DEFAULT_255_2_778
10
3.6763867
20
33.9899247
40
1.6230197
50
89.8973727
51
90.0037997
0
ARC
8
DEFAULT_255_2_778
10
3.681762
20
33.9952532
40
1.6176903
50
61.8417123
51
90.0874202
0
ARC
8
DEFAULT_255_2_778
10
3.6780624
20
33.9873133
40
1.6264365
50
8.5975683
51
61.8588041
0
ARC
8
DEFAULT_255_2_778
10
3.6660149
20
33.9884658
40
1.6381789
50
359.9816683
51
8.4947209
0
ARC
8
DEFAULT_255_2_778
10
3.6864733
20
33.9854758
40
1.6177224
50
331.8422222
51
0.0873324
0
ARC
8
DEFAULT_255_2_778
10
3.6785913
20
33.9891197
40
1.6263911
50
278.5995563
51
331.8600801
0
ARC
8
DEFAULT_255_2_778
10
3.6798168
20
34.0008968
40
1.6378552
50
269.9817031
51
278.4955638
0
ARC
8
DEFAULT_255_2_778
10
3.6763867
20
33.9860585
40
1.6230195
50
269.9962003
51
270.1026273
0
ARC
8
DEFAULT_255_2_778
10
3.6761849
20
33.9851207
40
1.6220819
50
224.9996985
51
270.0033242
0
ARC
8
DEFAULT_255_2_778
10
3.6761901
20
33.9849985
40
1.6219991
50
179.9954647
51
224.9965162
0
ARC
8
DEFAULT_255_2_778
10
3.6772107
20
33.9852345
40
1.6230197
50
179.8973727
51
180.0037997
0
LINE
8
DEFAULT_255_2_778
10
2.0541938
20
33.9881416
11
2.0541938
21
33.9878416
0
ARC
8
DEFAULT_255_2_778
10
8.6794676
20
37.1174472
40
1.410141
50
37.0812903
51
90.0006706
0
ARC
8
DEFAULT_255_2_778
10
8.6793638
20
37.1175891
40
1.4099991
50
89.9964539
51
142.9215758
0
LINE
8
DEFAULT_255_2_778
10
7.2292511
20
37.9676882
11
7.2292511
21
36.3875882
0
LINE
8
DEFAULT_255_2_778
10
7.2292511
20
36.3875882
11
10.1293511
21
36.3875882
0
LINE
8
DEFAULT_255_2_778
10
10.1293511
20
36.3875882
11
10.1293511
21
37.9676882
0
LINE
8
DEFAULT_255_2_778
10
10.1293511
20
37.9676882
11
9.8044511
21
37.9676882
0
LINE
8
DEFAULT_255_2_778
10
7.5544511
20
37.9676882
11
7.2295511
21
37.9676882
0
ARC
8
DEFAULT_255_2_778
10
8.672082
20
33.9903043
40
1.6177224
50
151.8422222
51
180.0873324
0
ARC
8
DEFAULT_255_2_778
10
8.679964
20
33.9866605
40
1.6263911
50
98.5995563
51
151.8600801
0
ARC
8
DEFAULT_255_2_778
10
8.6787385
20
33.9748833
40
1.6378552
50
89.9817031
51
98.4955638
0
ARC
8
DEFAULT_255_2_778
10
8.6817217
20
33.9947175
40
1.6180229
50
62.1931218
51
90.087118
0
ARC
8
DEFAULT_255_2_778
10
8.6781521
20
33.9870953
40
1.6264303
50
8.6485674
51
62.2071531
0
ARC
8
DEFAULT_255_2_778
10
8.6664778
20
33.988363
40
1.6377839
50
359.981651
51
8.5433085
0
ARC
8
DEFAULT_255_2_778
10
8.6862735
20
33.985375
40
1.6179899
50
332.1926321
51
0.0872357
0
ARC
8
DEFAULT_255_2_778
10
8.6785932
20
33.9889999
40
1.6264743
50
278.6465625
51
332.205897
0
ARC
8
DEFAULT_255_2_778
10
8.6797871
20
34.0009451
40
1.6381067
50
269.981616
51
278.5424654
0
ARC
8
DEFAULT_255_2_778
10
8.6767933
20
33.9805269
40
1.6176903
50
241.8417123
51
270.0874202
0
ARC
8
DEFAULT_255_2_778
10
8.6804929
20
33.9884669
40
1.6264365
50
188.5975683
51
241.8588041
0
ARC
8
DEFAULT_255_2_778
10
8.6925404
20
33.9873144
40
1.6381789
50
179.9816683
51
188.4947209
0
LINE
8
DEFAULT_255_2_778
10
7.0543615
20
33.9878385
11
7.0543615
21
33.9878385
0
ARC
8
DEFAULT_255_2_778
10
3.6792098
20
52.1177326
40
1.4098555
50
37.0755236
51
90.0064508
0
ARC
8
DEFAULT_255_2_778
10
3.6789638
20
52.1175891
40
1.4099991
50
89.9964539
51
142.9215758
0
LINE
8
DEFAULT_255_2_778
10
2.2291511
20
52.9676882
11
2.2291511
21
51.3875882
0
LINE
8
DEFAULT_255_2_778
10
2.2291511
20
51.3875882
11
5.1292511
21
51.3875882
0
LINE
8
DEFAULT_255_2_778
10
5.1292511
20
51.3875882
11
5.1292511
21
52.9676882
0
LINE
8
DEFAULT_255_2_778
10
5.1292511
20
52.9676882
11
4.8040511
21
52.9676882
0
LINE
8
DEFAULT_255_2_778
10
2.5540511
20
52.9676882
11
2.2291511
21
52.9676882
0
ARC
8
DEFAULT_255_2_778
10
3.6772107
20
48.9907488
40
1.6230195
50
179.9962003
51
180.1026273
0
ARC
8
DEFAULT_255_2_778
10
3.6761901
20
48.9909848
40
1.6219991
50
135.0034838
51
180.0045353
0
ARC
8
DEFAULT_255_2_778
10
3.6761849
20
48.9908626
40
1.6220819
50
89.9966758
51
135.0003015
0
ARC
8
DEFAULT_255_2_778
10
3.6763867
20
48.9899247
40
1.6230197
50
89.8973727
51
90.0037997
0
ARC
8
DEFAULT_255_2_778
10
3.6817596
20
48.9952211
40
1.6177224
50
61.8422222
51
90.0873324
0
ARC
8
DEFAULT_255_2_778
10
3.6781158
20
48.9873392
40
1.6263911
50
8.5995563
51
61.8600801
0
ARC
8
DEFAULT_255_2_778
10
3.6663386
20
48.9885647
40
1.6378552
50
359.9817031
51
8.4955638
0
ARC
8
DEFAULT_255_2_778
10
3.6861728
20
48.9855814
40
1.6180229
50
332.1931218
51
0.087118
0
ARC
8
DEFAULT_255_2_778
10
3.6785506
20
48.989151
40
1.6264303
50
278.6485674
51
332.2071531
0
ARC
8
DEFAULT_255_2_778
10
3.6798183
20
49.0008254
40
1.6377839
50
269.981651
51
278.5433085
0
ARC
8
DEFAULT_255_2_778
10
3.6763867
20
48.9860585
40
1.6230195
50
269.9962003
51
270.1026273
0
ARC
8
DEFAULT_255_2_778
10
3.6761849
20
48.9851207
40
1.6220819
50
224.9996985
51
270.0033242
0
ARC
8
DEFAULT_255_2_778
10
3.6761901
20
48.9849985
40
1.6219991
50
179.9954647
51
224.9965162
0
ARC
8
DEFAULT_255_2_778
10
3.6772107
20
48.9852345
40
1.6230197
50
179.8973727
51
180.0037997
0
LINE
8
DEFAULT_255_2_778
10
2.0541938
20
48.9881416
11
2.0541938
21
48.9878416
0
ARC
8
DEFAULT_255_2_778
10
8.6794385
20
52.1178899
40
1.4099984
50
37.0784003
51
90.0035516
0
ARC
8
DEFAULT_255_2_778
10
8.6792638
20
52.1178891
40
1.4099991
50
89.9964539
51
142.9215758
0
LINE
8
DEFAULT_255_2_778
10
10.1292511
20
51.3878882
11
10.1292511
21
52.9679882
0
LINE
8
DEFAULT_255_2_778
10
10.1292511
20
52.9679882
11
9.8043511
21
52.9679882
0
LINE
8
DEFAULT_255_2_778
10
7.5543511
20
52.9679882
11
7.2294511
21
52.9679882
0
LINE
8
DEFAULT_255_2_778
10
7.2294511
20
52.9679882
11
7.2294511
21
51.3878882
0
LINE
8
DEFAULT_255_2_778
10
7.2294511
20
51.3878882
11
10.1295511
21
51.3878882
0
ARC
8
DEFAULT_255_2_778
10
8.672082
20
48.9903043
40
1.6177224
50
151.8422222
51
180.0873324
0
ARC
8
DEFAULT_255_2_778
10
8.679964
20
48.9866605
40
1.6263911
50
98.5995563
51
151.8600801
0
ARC
8
DEFAULT_255_2_778
10
8.6787385
20
48.9748833
40
1.6378552
50
89.9817031
51
98.4955638
0
ARC
8
DEFAULT_255_2_778
10
8.6817217
20
48.9947175
40
1.6180229
50
62.1931218
51
90.087118
0
ARC
8
DEFAULT_255_2_778
10
8.6781521
20
48.9870953
40
1.6264303
50
8.6485674
51
62.2071531
0
ARC
8
DEFAULT_255_2_778
10
8.6664778
20
48.988363
40
1.6377839
50
359.981651
51
8.5433085
0
ARC
8
DEFAULT_255_2_778
10
8.6862735
20
48.985375
40
1.6179899
50
332.1926321
51
0.0872357
0
ARC
8
DEFAULT_255_2_778
10
8.6785932
20
48.9889999
40
1.6264743
50
278.6465625
51
332.205897
0
ARC
8
DEFAULT_255_2_778
10
8.6797871
20
49.0009451
40
1.6381067
50
269.981616
51
278.5424654
0
ARC
8
DEFAULT_255_2_778
10
8.6767933
20
48.9805269
40
1.6176903
50
241.8417123
51
270.0874202
0
ARC
8
DEFAULT_255_2_778
10
8.6804929
20
48.9884669
40
1.6264365
50
188.5975683
51
241.8588041
0
ARC
8
DEFAULT_255_2_778
10
8.6925404
20
48.9873144
40
1.6381789
50
179.9816683
51
188.4947209
0
LINE
8
DEFAULT_255_2_778
10
7.0543615
20
48.9878385
11
7.0543615
21
48.9878385
0
ARC
8
DEFAULT_255_2_778
10
3.6792098
20
59.6176326
40
1.4098555
50
37.0755236
51
90.0064508
0
ARC
8
DEFAULT_255_2_778
10
3.6789638
20
59.6174891
40
1.4099991
50
89.9964539
51
142.9215758
0
LINE
8
DEFAULT_255_2_778
10
2.2291511
20
60.4675882
11
2.2291511
21
58.8874882
0
LINE
8
DEFAULT_255_2_778
10
2.2291511
20
58.8874882
11
5.1292511
21
58.8874882
0
LINE
8
DEFAULT_255_2_778
10
5.1292511
20
58.8874882
11
5.1292511
21
60.4675882
0
LINE
8
DEFAULT_255_2_778
10
5.1292511
20
60.4675882
11
4.8040511
21
60.4675882
0
LINE
8
DEFAULT_255_2_778
10
2.5540511
20
60.4675882
11
2.2291511
21
60.4675882
0
ARC
8
DEFAULT_255_2_778
10
3.6772107
20
56.4906488
40
1.6230195
50
179.9962003
51
180.1026273
0
ARC
8
DEFAULT_255_2_778
10
3.6761901
20
56.4908848
40
1.6219991
50
135.0034838
51
180.0045353
0
ARC
8
DEFAULT_255_2_778
10
3.6761849
20
56.4907626
40
1.6220819
50
89.9966758
51
135.0003015
0
ARC
8
DEFAULT_255_2_778
10
3.6763867
20
56.4898247
40
1.6230197
50
89.8973727
51
90.0037997
0
ARC
8
DEFAULT_255_2_778
10
3.681762
20
56.4951532
40
1.6176903
50
61.8417123
51
90.0874202
0
ARC
8
DEFAULT_255_2_778
10
3.6780624
20
56.4872133
40
1.6264365
50
8.5975683
51
61.8588041
0
ARC
8
DEFAULT_255_2_778
10
3.6660149
20
56.4883658
40
1.6381789
50
359.9816683
51
8.4947209
0
ARC
8
DEFAULT_255_2_778
10
3.6864733
20
56.4853758
40
1.6177224
50
331.8422222
51
0.0873324
0
ARC
8
DEFAULT_255_2_778
10
3.6785913
20
56.4890197
40
1.6263911
50
278.5995563
51
331.8600801
0
ARC
8
DEFAULT_255_2_778
10
3.6798168
20
56.5007968
40
1.6378552
50
269.9817031
51
278.4955638
0
ARC
8
DEFAULT_255_2_778
10
3.6763867
20
56.4859585
40
1.6230195
50
269.9962003
51
270.1026273
0
ARC
8
DEFAULT_255_2_778
10
3.6761849
20
56.4850207
40
1.6220819
50
224.9996985
51
270.0033242
0
ARC
8
DEFAULT_255_2_778
10
3.6761901
20
56.4848985
40
1.6219991
50
179.9954647
51
224.9965162
0
ARC
8
DEFAULT_255_2_778
10
3.6772107
20
56.4851345
40
1.6230197
50
179.8973727
51
180.0037997
0
LINE
8
DEFAULT_255_2_778
10
2.0541938
20
56.4880416
11
2.0541938
21
56.4877416
0
ARC
8
DEFAULT_255_2_778
10
8.6794676
20
59.6173472
40
1.410141
50
37.0812903
51
90.0006706
0
ARC
8
DEFAULT_255_2_778
10
8.6793638
20
59.6174891
40
1.4099991
50
89.9964539
51
142.9215758
0
LINE
8
DEFAULT_255_2_778
10
7.2292511
20
60.4675882
11
7.2292511
21
58.8874882
0
LINE
8
DEFAULT_255_2_778
10
7.2292511
20
58.8874882
11
10.1293511
21
58.8874882
0
LINE
8
DEFAULT_255_2_778
10
10.1293511
20
58.8874882
11
10.1293511
21
60.4675882
0
LINE
8
DEFAULT_255_2_778
10
10.1293511
20
60.4675882
11
9.8044511
21
60.4675882
0
LINE
8
DEFAULT_255_2_778
10
7.5544511
20
60.4675882
11
7.2295511
21
60.4675882
0
ARC
8
DEFAULT_255_2_778
10
8.672082
20
56.4902043
40
1.6177224
50
151.8422222
51
180.0873324
0
ARC
8
DEFAULT_255_2_778
10
8.679964
20
56.4865605
40
1.6263911
50
98.5995563
51
151.8600801
0
ARC
8
DEFAULT_255_2_778
10
8.6787385
20
56.4747833
40
1.6378552
50
89.9817031
51
98.4955638
0
ARC
8
DEFAULT_255_2_778
10
8.6817217
20
56.4946175
40
1.6180229
50
62.1931218
51
90.087118
0
ARC
8
DEFAULT_255_2_778
10
8.6781521
20
56.4869953
40
1.6264303
50
8.6485674
51
62.2071531
0
ARC
8
DEFAULT_255_2_778
10
8.6664778
20
56.488263
40
1.6377839
50
359.981651
51
8.5433085
0
ARC
8
DEFAULT_255_2_778
10
8.6862735
20
56.485275
40
1.6179899
50
332.1926321
51
0.0872357
0
ARC
8
DEFAULT_255_2_778
10
8.6785932
20
56.4888999
40
1.6264743
50
278.6465625
51
332.205897
0
ARC
8
DEFAULT_255_2_778
10
8.6797871
20
56.5008451
40
1.6381067
50
269.981616
51
278.5424654
0
ARC
8
DEFAULT_255_2_778
10
8.6767933
20
56.4804269
40
1.6176903
50
241.8417123
51
270.0874202
0
ARC
8
DEFAULT_255_2_778
10
8.6804929
20
56.4883669
40
1.6264365
50
188.5975683
51
241.8588041
0
ARC
8
DEFAULT_255_2_778
10
8.6925404
20
56.4872144
40
1.6381789
50
179.9816683
51
188.4947209
0
LINE
8
DEFAULT_255_2_778
10
7.0543615
20
56.4877385
11
7.0543615
21
56.4877385
0
ARC
8
DEFAULT_255_2_778
10
3.6791617
20
67.117751
40
1.4098557
50
37.0755171
51
90.0064401
0
ARC
8
DEFAULT_255_2_778
10
3.6789158
20
67.117608
40
1.4099987
50
89.9964456
51
142.9215851
0
ARC
8
DEFAULT_255_2_778
10
8.6791907
20
67.1176082
40
1.4099985
50
37.0784064
51
90.0035525
0
ARC
8
DEFAULT_255_2_778
10
8.6790159
20
67.1176079
40
1.4099988
50
89.9964491
51
142.9215839
0
ARC
8
DEFAULT_255_2_778
10
3.679019
20
44.6178641
40
1.4101425
50
37.0813204
51
90.0006401
0
ARC
8
DEFAULT_255_2_778
10
3.6790586
20
44.6177213
40
1.4102854
50
90.0022476
51
142.9157902
0
LINE
8
DEFAULT_255_2_778
10
2.5540032
20
67.9677066
11
2.2291032
21
67.9677066
0
LINE
8
DEFAULT_255_2_778
10
2.2291032
20
67.9677066
11
2.2291032
21
66.3876066
0
LINE
8
DEFAULT_255_2_778
10
2.2291032
20
66.3876066
11
5.1292032
21
66.3876066
0
LINE
8
DEFAULT_255_2_778
10
5.1292032
20
66.3876066
11
5.1292032
21
67.9677066
0
LINE
8
DEFAULT_255_2_778
10
5.1292032
20
67.9677066
11
4.8040032
21
67.9677066
0
LINE
8
DEFAULT_255_2_778
10
7.5541032
20
67.9677066
11
7.2292032
21
67.9677066
0
LINE
8
DEFAULT_255_2_778
10
7.2292032
20
67.9677066
11
7.2292032
21
66.3876066
0
LINE
8
DEFAULT_255_2_778
10
7.2292032
20
66.3876066
11
10.1293032
21
66.3876066
0
LINE
8
DEFAULT_255_2_778
10
10.1293032
20
66.3876066
11
10.1293032
21
67.9677066
0
LINE
8
DEFAULT_255_2_778
10
10.1293032
20
67.9677066
11
9.8044032
21
67.9677066
0
LINE
8
DEFAULT_255_2_778
10
2.2291032
20
43.8880066
11
5.1292032
21
43.8880066
0
LINE
8
DEFAULT_255_2_778
10
5.1292032
20
43.8880066
11
5.1292032
21
45.4681066
0
LINE
8
DEFAULT_255_2_778
10
5.1292032
20
45.4681066
11
4.8040032
21
45.4681066
0
LINE
8
DEFAULT_255_2_778
10
2.5540032
20
45.4681066
11
2.2291032
21
45.4681066
0
LINE
8
DEFAULT_255_2_778
10
2.2291032
20
45.4681066
11
2.2291032
21
43.8880066
0
ARC
8
DEFAULT_255_2_778
10
3.6772107
20
41.4905488
40
1.6230195
50
179.9962003
51
180.1026273
0
ARC
8
DEFAULT_255_2_778
10
3.6761901
20
41.4907848
40
1.6219991
50
135.0034838
51
180.0045353
0
ARC
8
DEFAULT_255_2_778
10
3.6761849
20
41.4906626
40
1.6220819
50
89.9966758
51
135.0003015
0
ARC
8
DEFAULT_255_2_778
10
3.6763867
20
41.4897247
40
1.6230197
50
89.8973727
51
90.0037997
0
ARC
8
DEFAULT_255_2_778
10
3.6817596
20
41.4950211
40
1.6177224
50
61.8422222
51
90.0873324
0
ARC
8
DEFAULT_255_2_778
10
3.6781158
20
41.4871392
40
1.6263911
50
8.5995563
51
61.8600801
0
ARC
8
DEFAULT_255_2_778
10
3.6663386
20
41.4883647
40
1.6378552
50
359.9817031
51
8.4955638
0
ARC
8
DEFAULT_255_2_778
10
3.6861728
20
41.4853814
40
1.6180229
50
332.1931218
51
0.087118
0
ARC
8
DEFAULT_255_2_778
10
3.6785506
20
41.488951
40
1.6264303
50
278.6485674
51
332.2071531
0
ARC
8
DEFAULT_255_2_778
10
3.6798183
20
41.5006254
40
1.6377839
50
269.981651
51
278.5433085
0
ARC
8
DEFAULT_255_2_778
10
3.6763867
20
41.4858585
40
1.6230195
50
269.9962003
51
270.1026273
0
ARC
8
DEFAULT_255_2_778
10
3.6761849
20
41.4849207
40
1.6220819
50
224.9996985
51
270.0033242
0
ARC
8
DEFAULT_255_2_778
10
3.6761901
20
41.4847985
40
1.6219991
50
179.9954647
51
224.9965162
0
ARC
8
DEFAULT_255_2_778
10
3.6772107
20
41.4850345
40
1.6230197
50
179.8973727
51
180.0037997
0
LINE
8
DEFAULT_255_2_778
10
2.0541938
20
41.4879416
11
2.0541938
21
41.4876416
0
ARC
8
DEFAULT_255_2_778
10
8.6794676
20
44.617834
40
1.410141
50
37.0812903
51
90.0006706
0
ARC
8
DEFAULT_255_2_778
10
8.6793638
20
44.6179759
40
1.4099991
50
89.9964539
51
142.9215758
0
LINE
8
DEFAULT_255_2_778
10
7.2292511
20
43.888075
11
10.1293511
21
43.888075
0
LINE
8
DEFAULT_255_2_778
10
10.1293511
20
43.888075
11
10.1293511
21
45.468075
0
LINE
8
DEFAULT_255_2_778
10
10.1293511
20
45.468075
11
9.8044511
21
45.468075
0
LINE
8
DEFAULT_255_2_778
10
7.5544511
20
45.468075
11
7.2295511
21
45.468075
0
LINE
8
DEFAULT_255_2_778
10
7.2295511
20
45.468075
11
7.2295511
21
43.888075
0
ARC
8
DEFAULT_255_2_778
10
8.672082
20
41.4902043
40
1.6177224
50
151.8422222
51
180.0873324
0
ARC
8
DEFAULT_255_2_778
10
8.679964
20
41.4865605
40
1.6263911
50
98.5995563
51
151.8600801
0
ARC
8
DEFAULT_255_2_778
10
8.6787385
20
41.4747833
40
1.6378552
50
89.9817031
51
98.4955638
0
ARC
8
DEFAULT_255_2_778
10
8.6817217
20
41.4946175
40
1.6180229
50
62.1931218
51
90.087118
0
ARC
8
DEFAULT_255_2_778
10
8.6781521
20
41.4869953
40
1.6264303
50
8.6485674
51
62.2071531
0
ARC
8
DEFAULT_255_2_778
10
8.6664778
20
41.488263
40
1.6377839
50
359.981651
51
8.5433085
0
ARC
8
DEFAULT_255_2_778
10
8.6862735
20
41.485275
40
1.6179899
50
332.1926321
51
0.0872357
0
ARC
8
DEFAULT_255_2_778
10
8.6785932
20
41.4888999
40
1.6264743
50
278.6465625
51
332.205897
0
ARC
8
DEFAULT_255_2_778
10
8.6797871
20
41.5008451
40
1.6381067
50
269.981616
51
278.5424654
0
ARC
8
DEFAULT_255_2_778
10
8.6767933
20
41.4804269
40
1.6176903
50
241.8417123
51
270.0874202
0
ARC
8
DEFAULT_255_2_778
10
8.6804929
20
41.4883669
40
1.6264365
50
188.5975683
51
241.8588041
0
ARC
8
DEFAULT_255_2_778
10
8.6925404
20
41.4872144
40
1.6381789
50
179.9816683
51
188.4947209
0
LINE
8
DEFAULT_255_2_778
10
7.0543615
20
41.4877385
11
7.0543615
21
41.4877385
0
ARC
8
DEFAULT_255_2_778
10
3.6772107
20
63.9907488
40
1.6230195
50
179.9962003
51
180.1026273
0
ARC
8
DEFAULT_255_2_778
10
3.6761901
20
63.9909848
40
1.6219991
50
135.0034838
51
180.0045353
0
ARC
8
DEFAULT_255_2_778
10
3.6761849
20
63.9908626
40
1.6220819
50
89.9966758
51
135.0003015
0
ARC
8
DEFAULT_255_2_778
10
3.6763867
20
63.9899247
40
1.6230197
50
89.8973727
51
90.0037997
0
ARC
8
DEFAULT_255_2_778
10
3.6817596
20
63.9952211
40
1.6177224
50
61.8422222
51
90.0873324
0
ARC
8
DEFAULT_255_2_778
10
3.6781158
20
63.9873392
40
1.6263911
50
8.5995563
51
61.8600801
0
ARC
8
DEFAULT_255_2_778
10
3.6663386
20
63.9885647
40
1.6378552
50
359.9817031
51
8.4955638
0
ARC
8
DEFAULT_255_2_778
10
3.6861728
20
63.9855814
40
1.6180229
50
332.1931218
51
0.087118
0
ARC
8
DEFAULT_255_2_778
10
3.6785506
20
63.989151
40
1.6264303
50
278.6485674
51
332.2071531
0
ARC
8
DEFAULT_255_2_778
10
3.6798183
20
64.0008254
40
1.6377839
50
269.981651
51
278.5433085
0
ARC
8
DEFAULT_255_2_778
10
3.6763867
20
63.9860585
40
1.6230195
50
269.9962003
51
270.1026273
0
ARC
8
DEFAULT_255_2_778
10
3.6761849
20
63.9851207
40
1.6220819
50
224.9996985
51
270.0033242
0
ARC
8
DEFAULT_255_2_778
10
3.6761901
20
63.9849985
40
1.6219991
50
179.9954647
51
224.9965162
0
ARC
8
DEFAULT_255_2_778
10
3.6772107
20
63.9852345
40
1.6230197
50
179.8973727
51
180.0037997
0
LINE
8
DEFAULT_255_2_778
10
2.0541938
20
63.9881416
11
2.0541938
21
63.9878416
0
ARC
8
DEFAULT_255_2_778
10
8.672082
20
63.9904043
40
1.6177224
50
151.8422222
51
180.0873324
0
ARC
8
DEFAULT_255_2_778
10
8.679964
20
63.9867605
40
1.6263911
50
98.5995563
51
151.8600801
0
ARC
8
DEFAULT_255_2_778
10
8.6787385
20
63.9749833
40
1.6378552
50
89.9817031
51
98.4955638
0
ARC
8
DEFAULT_255_2_778
10
8.6817217
20
63.9948175
40
1.6180229
50
62.1931218
51
90.087118
0
ARC
8
DEFAULT_255_2_778
10
8.6781521
20
63.9871953
40
1.6264303
50
8.6485674
51
62.2071531
0
ARC
8
DEFAULT_255_2_778
10
8.6664778
20
63.988463
40
1.6377839
50
359.981651
51
8.5433085
0
ARC
8
DEFAULT_255_2_778
10
8.6862735
20
63.985475
40
1.6179899
50
332.1926321
51
0.0872357
0
ARC
8
DEFAULT_255_2_778
10
8.6785932
20
63.9890999
40
1.6264743
50
278.6465625
51
332.205897
0
ARC
8
DEFAULT_255_2_778
10
8.6797871
20
64.0010451
40
1.6381067
50
269.981616
51
278.5424654
0
ARC
8
DEFAULT_255_2_778
10
8.6767933
20
63.9806269
40
1.6176903
50
241.8417123
51
270.0874202
0
ARC
8
DEFAULT_255_2_778
10
8.6804929
20
63.9885669
40
1.6264365
50
188.5975683
51
241.8588041
0
ARC
8
DEFAULT_255_2_778
10
8.6925404
20
63.9874144
40
1.6381789
50
179.9816683
51
188.4947209
0
LINE
8
DEFAULT_255_2_778
10
7.0543615
20
63.9879385
11
7.0543615
21
63.9879385
0
ARC
8
DEFAULT_255_2_778
10
15.6792676
20
29.6175472
40
1.410141
50
37.0812903
51
90.0006706
0
ARC
8
DEFAULT_255_2_778
10
15.6791638
20
29.6176891
40
1.4099991
50
89.9964539
51
142.9215758
0
LINE
8
DEFAULT_255_2_778
10
14.2290511
20
30.4677882
11
14.2290511
21
28.8876882
0
LINE
8
DEFAULT_255_2_778
10
14.2290511
20
28.8876882
11
17.1291511
21
28.8876882
0
LINE
8
DEFAULT_255_2_778
10
17.1291511
20
28.8876882
11
17.1291511
21
30.4677882
0
LINE
8
DEFAULT_255_2_778
10
17.1291511
20
30.4677882
11
16.8042511
21
30.4677882
0
LINE
8
DEFAULT_255_2_778
10
14.5542511
20
30.4677882
11
14.2293511
21
30.4677882
0
ARC
8
DEFAULT_255_2_778
10
15.671882
20
26.4902043
40
1.6177224
50
151.8422222
51
180.0873324
0
ARC
8
DEFAULT_255_2_778
10
15.679764
20
26.4865605
40
1.6263911
50
98.5995563
51
151.8600801
0
ARC
8
DEFAULT_255_2_778
10
15.6785385
20
26.4747833
40
1.6378552
50
89.9817031
51
98.4955638
0
ARC
8
DEFAULT_255_2_778
10
15.6815217
20
26.4946175
40
1.6180229
50
62.1931218
51
90.087118
0
ARC
8
DEFAULT_255_2_778
10
15.6779521
20
26.4869953
40
1.6264303
50
8.6485674
51
62.2071531
0
ARC
8
DEFAULT_255_2_778
10
15.6662778
20
26.488263
40
1.6377839
50
359.981651
51
8.5433085
0
ARC
8
DEFAULT_255_2_778
10
15.6860735
20
26.485275
40
1.6179899
50
332.1926321
51
0.0872357
0
ARC
8
DEFAULT_255_2_778
10
15.6783932
20
26.4888999
40
1.6264743
50
278.6465625
51
332.205897
0
ARC
8
DEFAULT_255_2_778
10
15.6795871
20
26.5008451
40
1.6381067
50
269.981616
51
278.5424654
0
ARC
8
DEFAULT_255_2_778
10
15.6765933
20
26.4804269
40
1.6176903
50
241.8417123
51
270.0874202
0
ARC
8
DEFAULT_255_2_778
10
15.6802929
20
26.4883669
40
1.6264365
50
188.5975683
51
241.8588041
0
ARC
8
DEFAULT_255_2_778
10
15.6923404
20
26.4872144
40
1.6381789
50
179.9816683
51
188.4947209
0
LINE
8
DEFAULT_255_2_778
10
14.0541615
20
26.4877385
11
14.0541615
21
26.4877385
0
ARC
8
DEFAULT_255_2_778
10
20.6793676
20
29.617834
40
1.410141
50
37.0812903
51
90.0006706
0
ARC
8
DEFAULT_255_2_778
10
20.6792638
20
29.6179759
40
1.4099991
50
89.9964539
51
142.9215758
0
LINE
8
DEFAULT_255_2_778
10
19.2291511
20
28.888075
11
22.1292511
21
28.888075
0
LINE
8
DEFAULT_255_2_778
10
22.1292511
20
28.888075
11
22.1292511
21
30.468075
0
LINE
8
DEFAULT_255_2_778
10
22.1292511
20
30.468075
11
21.8043511
21
30.468075
0
LINE
8
DEFAULT_255_2_778
10
19.5543511
20
30.468075
11
19.2291511
21
30.468075
0
LINE
8
DEFAULT_255_2_778
10
19.2291511
20
30.468075
11
19.2291511
21
28.888075
0
ARC
8
DEFAULT_255_2_778
10
20.671982
20
26.4902043
40
1.6177224
50
151.8422222
51
180.0873324
0
ARC
8
DEFAULT_255_2_778
10
20.679864
20
26.4865605
40
1.6263911
50
98.5995563
51
151.8600801
0
ARC
8
DEFAULT_255_2_778
10
20.6786385
20
26.4747833
40
1.6378552
50
89.9817031
51
98.4955638
0
ARC
8
DEFAULT_255_2_778
10
20.6816217
20
26.4946175
40
1.6180229
50
62.1931218
51
90.087118
0
ARC
8
DEFAULT_255_2_778
10
20.6780521
20
26.4869953
40
1.6264303
50
8.6485674
51
62.2071531
0
ARC
8
DEFAULT_255_2_778
10
20.6663778
20
26.488263
40
1.6377839
50
359.981651
51
8.5433085
0
ARC
8
DEFAULT_255_2_778
10
20.6861735
20
26.485275
40
1.6179899
50
332.1926321
51
0.0872357
0
ARC
8
DEFAULT_255_2_778
10
20.6784932
20
26.4888999
40
1.6264743
50
278.6465625
51
332.205897
0
ARC
8
DEFAULT_255_2_778
10
20.6796871
20
26.5008451
40
1.6381067
50
269.981616
51
278.5424654
0
ARC
8
DEFAULT_255_2_778
10
20.6766933
20
26.4804269
40
1.6176903
50
241.8417123
51
270.0874202
0
ARC
8
DEFAULT_255_2_778
10
20.6803929
20
26.4883669
40
1.6264365
50
188.5975683
51
241.8588041
0
ARC
8
DEFAULT_255_2_778
10
20.6924404
20
26.4872144
40
1.6381789
50
179.9816683
51
188.4947209
0
LINE
8
DEFAULT_255_2_778
10
19.0542615
20
26.4877385
11
19.0542615
21
26.4877385
0
ARC
8
DEFAULT_255_2_778
10
15.6792676
20
37.1174472
40
1.410141
50
37.0812903
51
90.0006706
0
ARC
8
DEFAULT_255_2_778
10
15.6791638
20
37.1175891
40
1.4099991
50
89.9964539
51
142.9215758
0
LINE
8
DEFAULT_255_2_778
10
14.2290511
20
37.9676882
11
14.2290511
21
36.3875882
0
LINE
8
DEFAULT_255_2_778
10
14.2290511
20
36.3875882
11
17.1291511
21
36.3875882
0
LINE
8
DEFAULT_255_2_778
10
17.1291511
20
36.3875882
11
17.1291511
21
37.9676882
0
LINE
8
DEFAULT_255_2_778
10
17.1291511
20
37.9676882
11
16.8042511
21
37.9676882
0
LINE
8
DEFAULT_255_2_778
10
14.5542511
20
37.9676882
11
14.2293511
21
37.9676882
0
ARC
8
DEFAULT_255_2_778
10
15.671882
20
33.9903043
40
1.6177224
50
151.8422222
51
180.0873324
0
ARC
8
DEFAULT_255_2_778
10
15.679764
20
33.9866605
40
1.6263911
50
98.5995563
51
151.8600801
0
ARC
8
DEFAULT_255_2_778
10
15.6785385
20
33.9748833
40
1.6378552
50
89.9817031
51
98.4955638
0
ARC
8
DEFAULT_255_2_778
10
15.6815217
20
33.9947175
40
1.6180229
50
62.1931218
51
90.087118
0
ARC
8
DEFAULT_255_2_778
10
15.6779521
20
33.9870953
40
1.6264303
50
8.6485674
51
62.2071531
0
ARC
8
DEFAULT_255_2_778
10
15.6662778
20
33.988363
40
1.6377839
50
359.981651
51
8.5433085
0
ARC
8
DEFAULT_255_2_778
10
15.6860735
20
33.985375
40
1.6179899
50
332.1926321
51
0.0872357
0
ARC
8
DEFAULT_255_2_778
10
15.6783932
20
33.9889999
40
1.6264743
50
278.6465625
51
332.205897
0
ARC
8
DEFAULT_255_2_778
10
15.6795871
20
34.0009451
40
1.6381067
50
269.981616
51
278.5424654
0
ARC
8
DEFAULT_255_2_778
10
15.6765933
20
33.9805269
40
1.6176903
50
241.8417123
51
270.0874202
0
ARC
8
DEFAULT_255_2_778
10
15.6802929
20
33.9884669
40
1.6264365
50
188.5975683
51
241.8588041
0
ARC
8
DEFAULT_255_2_778
10
15.6923404
20
33.9873144
40
1.6381789
50
179.9816683
51
188.4947209
0
LINE
8
DEFAULT_255_2_778
10
14.0541615
20
33.9878385
11
14.0541615
21
33.9878385
0
ARC
8
DEFAULT_255_2_778
10
20.6793676
20
37.1174472
40
1.410141
50
37.0812903
51
90.0006706
0
ARC
8
DEFAULT_255_2_778
10
20.6792638
20
37.1175891
40
1.4099991
50
89.9964539
51
142.9215758
0
LINE
8
DEFAULT_255_2_778
10
19.2291511
20
37.9676882
11
19.2291511
21
36.3875882
0
LINE
8
DEFAULT_255_2_778
10
19.2291511
20
36.3875882
11
22.1292511
21
36.3875882
0
LINE
8
DEFAULT_255_2_778
10
22.1292511
20
36.3875882
11
22.1292511
21
37.9676882
0
LINE
8
DEFAULT_255_2_778
10
22.1292511
20
37.9676882
11
21.8043511
21
37.9676882
0
LINE
8
DEFAULT_255_2_778
10
19.5543511
20
37.9676882
11
19.2291511
21
37.9676882
0
ARC
8
DEFAULT_255_2_778
10
20.671982
20
33.9903043
40
1.6177224
50
151.8422222
51
180.0873324
0
ARC
8
DEFAULT_255_2_778
10
20.679864
20
33.9866605
40
1.6263911
50
98.5995563
51
151.8600801
0
ARC
8
DEFAULT_255_2_778
10
20.6786385
20
33.9748833
40
1.6378552
50
89.9817031
51
98.4955638
0
ARC
8
DEFAULT_255_2_778
10
20.6816217
20
33.9947175
40
1.6180229
50
62.1931218
51
90.087118
0
ARC
8
DEFAULT_255_2_778
10
20.6780521
20
33.9870953
40
1.6264303
50
8.6485674
51
62.2071531
0
ARC
8
DEFAULT_255_2_778
10
20.6663778
20
33.988363
40
1.6377839
50
359.981651
51
8.5433085
0
ARC
8
DEFAULT_255_2_778
10
20.6861735
20
33.985375
40
1.6179899
50
332.1926321
51
0.0872357
0
ARC
8
DEFAULT_255_2_778
10
20.6784932
20
33.9889999
40
1.6264743
50
278.6465625
51
332.205897
0
ARC
8
DEFAULT_255_2_778
10
20.6796871
20
34.0009451
40
1.6381067
50
269.981616
51
278.5424654
0
ARC
8
DEFAULT_255_2_778
10
20.6766933
20
33.9805269
40
1.6176903
50
241.8417123
51
270.0874202
0
ARC
8
DEFAULT_255_2_778
10
20.6803929
20
33.9884669
40
1.6264365
50
188.5975683
51
241.8588041
0
ARC
8
DEFAULT_255_2_778
10
20.6924404
20
33.9873144
40
1.6381789
50
179.9816683
51
188.4947209
0
LINE
8
DEFAULT_255_2_778
10
19.0542615
20
33.9878385
11
19.0542615
21
33.9878385
0
ARC
8
DEFAULT_255_2_778
10
15.6792676
20
52.1174472
40
1.410141
50
37.0812903
51
90.0006706
0
ARC
8
DEFAULT_255_2_778
10
15.6791638
20
52.1175891
40
1.4099991
50
89.9964539
51
142.9215758
0
LINE
8
DEFAULT_255_2_778
10
14.2290511
20
52.9676882
11
14.2290511
21
51.3875882
0
LINE
8
DEFAULT_255_2_778
10
14.2290511
20
51.3875882
11
17.1291511
21
51.3875882
0
LINE
8
DEFAULT_255_2_778
10
17.1291511
20
51.3875882
11
17.1291511
21
52.9676882
0
LINE
8
DEFAULT_255_2_778
10
17.1291511
20
52.9676882
11
16.8042511
21
52.9676882
0
LINE
8
DEFAULT_255_2_778
10
14.5542511
20
52.9676882
11
14.2293511
21
52.9676882
0
ARC
8
DEFAULT_255_2_778
10
15.671882
20
48.9903043
40
1.6177224
50
151.8422222
51
180.0873324
0
ARC
8
DEFAULT_255_2_778
10
15.679764
20
48.9866605
40
1.6263911
50
98.5995563
51
151.8600801
0
ARC
8
DEFAULT_255_2_778
10
15.6785385
20
48.9748833
40
1.6378552
50
89.9817031
51
98.4955638
0
ARC
8
DEFAULT_255_2_778
10
15.6815217
20
48.9947175
40
1.6180229
50
62.1931218
51
90.087118
0
ARC
8
DEFAULT_255_2_778
10
15.6779521
20
48.9870953
40
1.6264303
50
8.6485674
51
62.2071531
0
ARC
8
DEFAULT_255_2_778
10
15.6662778
20
48.988363
40
1.6377839
50
359.981651
51
8.5433085
0
ARC
8
DEFAULT_255_2_778
10
15.6860735
20
48.985375
40
1.6179899
50
332.1926321
51
0.0872357
0
ARC
8
DEFAULT_255_2_778
10
15.6783932
20
48.9889999
40
1.6264743
50
278.6465625
51
332.205897
0
ARC
8
DEFAULT_255_2_778
10
15.6795871
20
49.0009451
40
1.6381067
50
269.981616
51
278.5424654
0
ARC
8
DEFAULT_255_2_778
10
15.6765933
20
48.9805269
40
1.6176903
50
241.8417123
51
270.0874202
0
ARC
8
DEFAULT_255_2_778
10
15.6802929
20
48.9884669
40
1.6264365
50
188.5975683
51
241.8588041
0
ARC
8
DEFAULT_255_2_778
10
15.6923404
20
48.9873144
40
1.6381789
50
179.9816683
51
188.4947209
0
LINE
8
DEFAULT_255_2_778
10
14.0541615
20
48.9878385
11
14.0541615
21
48.9878385
0
ARC
8
DEFAULT_255_2_778
10
20.6793676
20
52.1177472
40
1.410141
50
37.0812903
51
90.0006706
0
ARC
8
DEFAULT_255_2_778
10
20.6792638
20
52.1178891
40
1.4099991
50
89.9964539
51
142.9215758
0
LINE
8
DEFAULT_255_2_778
10
22.1292511
20
51.3878882
11
22.1292511
21
52.9679882
0
LINE
8
DEFAULT_255_2_778
10
22.1292511
20
52.9679882
11
21.8043511
21
52.9679882
0
LINE
8
DEFAULT_255_2_778
10
19.5543511
20
52.9679882
11
19.2291511
21
52.9679882
0
LINE
8
DEFAULT_255_2_778
10
19.2291511
20
52.9679882
11
19.2291511
21
51.3878882
0
LINE
8
DEFAULT_255_2_778
10
19.2291511
20
51.3878882
11
22.1292511
21
51.3878882
0
ARC
8
DEFAULT_255_2_778
10
20.671982
20
48.9903043
40
1.6177224
50
151.8422222
51
180.0873324
0
ARC
8
DEFAULT_255_2_778
10
20.679864
20
48.9866605
40
1.6263911
50
98.5995563
51
151.8600801
0
ARC
8
DEFAULT_255_2_778
10
20.6786385
20
48.9748833
40
1.6378552
50
89.9817031
51
98.4955638
0
ARC
8
DEFAULT_255_2_778
10
20.6816217
20
48.9947175
40
1.6180229
50
62.1931218
51
90.087118
0
ARC
8
DEFAULT_255_2_778
10
20.6780521
20
48.9870953
40
1.6264303
50
8.6485674
51
62.2071531
0
ARC
8
DEFAULT_255_2_778
10
20.6663778
20
48.988363
40
1.6377839
50
359.981651
51
8.5433085
0
ARC
8
DEFAULT_255_2_778
10
20.6861735
20
48.985375
40
1.6179899
50
332.1926321
51
0.0872357
0
ARC
8
DEFAULT_255_2_778
10
20.6784932
20
48.9889999
40
1.6264743
50
278.6465625
51
332.205897
0
ARC
8
DEFAULT_255_2_778
10
20.6796871
20
49.0009451
40
1.6381067
50
269.981616
51
278.5424654
0
ARC
8
DEFAULT_255_2_778
10
20.6766933
20
48.9805269
40
1.6176903
50
241.8417123
51
270.0874202
0
ARC
8
DEFAULT_255_2_778
10
20.6803929
20
48.9884669
40
1.6264365
50
188.5975683
51
241.8588041
0
ARC
8
DEFAULT_255_2_778
10
20.6924404
20
48.9873144
40
1.6381789
50
179.9816683
51
188.4947209
0
LINE
8
DEFAULT_255_2_778
10
19.0542615
20
48.9878385
11
19.0542615
21
48.9878385
0
ARC
8
DEFAULT_255_2_778
10
15.6792676
20
59.6173472
40
1.410141
50
37.0812903
51
90.0006706
0
ARC
8
DEFAULT_255_2_778
10
15.6791638
20
59.6174891
40
1.4099991
50
89.9964539
51
142.9215758
0
LINE
8
DEFAULT_255_2_778
10
14.2290511
20
60.4675882
11
14.2290511
21
58.8874882
0
LINE
8
DEFAULT_255_2_778
10
14.2290511
20
58.8874882
11
17.1291511
21
58.8874882
0
LINE
8
DEFAULT_255_2_778
10
17.1291511
20
58.8874882
11
17.1291511
21
60.4675882
0
LINE
8
DEFAULT_255_2_778
10
17.1291511
20
60.4675882
11
16.8042511
21
60.4675882
0
LINE
8
DEFAULT_255_2_778
10
14.5542511
20
60.4675882
11
14.2293511
21
60.4675882
0
ARC
8
DEFAULT_255_2_778
10
15.671882
20
56.4902043
40
1.6177224
50
151.8422222
51
180.0873324
0
ARC
8
DEFAULT_255_2_778
10
15.679764
20
56.4865605
40
1.6263911
50
98.5995563
51
151.8600801
0
ARC
8
DEFAULT_255_2_778
10
15.6785385
20
56.4747833
40
1.6378552
50
89.9817031
51
98.4955638
0
ARC
8
DEFAULT_255_2_778
10
15.6815217
20
56.4946175
40
1.6180229
50
62.1931218
51
90.087118
0
ARC
8
DEFAULT_255_2_778
10
15.6779521
20
56.4869953
40
1.6264303
50
8.6485674
51
62.2071531
0
ARC
8
DEFAULT_255_2_778
10
15.6662778
20
56.488263
40
1.6377839
50
359.981651
51
8.5433085
0
ARC
8
DEFAULT_255_2_778
10
15.6860735
20
56.485275
40
1.6179899
50
332.1926321
51
0.0872357
0
ARC
8
DEFAULT_255_2_778
10
15.6783932
20
56.4888999
40
1.6264743
50
278.6465625
51
332.205897
0
ARC
8
DEFAULT_255_2_778
10
15.6795871
20
56.5008451
40
1.6381067
50
269.981616
51
278.5424654
0
ARC
8
DEFAULT_255_2_778
10
15.6765933
20
56.4804269
40
1.6176903
50
241.8417123
51
270.0874202
0
ARC
8
DEFAULT_255_2_778
10
15.6802929
20
56.4883669
40
1.6264365
50
188.5975683
51
241.8588041
0
ARC
8
DEFAULT_255_2_778
10
15.6923404
20
56.4872144
40
1.6381789
50
179.9816683
51
188.4947209
0
LINE
8
DEFAULT_255_2_778
10
14.0541615
20
56.4877385
11
14.0541615
21
56.4877385
0
ARC
8
DEFAULT_255_2_778
10
20.6793676
20
59.6173472
40
1.410141
50
37.0812903
51
90.0006706
0
ARC
8
DEFAULT_255_2_778
10
20.6792638
20
59.6174891
40
1.4099991
50
89.9964539
51
142.9215758
0
LINE
8
DEFAULT_255_2_778
10
19.2291511
20
60.4675882
11
19.2291511
21
58.8874882
0
LINE
8
DEFAULT_255_2_778
10
19.2291511
20
58.8874882
11
22.1292511
21
58.8874882
0
LINE
8
DEFAULT_255_2_778
10
22.1292511
20
58.8874882
11
22.1292511
21
60.4675882
0
LINE
8
DEFAULT_255_2_778
10
22.1292511
20
60.4675882
11
21.8043511
21
60.4675882
0
LINE
8
DEFAULT_255_2_778
10
19.5543511
20
60.4675882
11
19.2291511
21
60.4675882
0
ARC
8
DEFAULT_255_2_778
10
20.671982
20
56.4902043
40
1.6177224
50
151.8422222
51
180.0873324
0
ARC
8
DEFAULT_255_2_778
10
20.679864
20
56.4865605
40
1.6263911
50
98.5995563
51
151.8600801
0
ARC
8
DEFAULT_255_2_778
10
20.6786385
20
56.4747833
40
1.6378552
50
89.9817031
51
98.4955638
0
ARC
8
DEFAULT_255_2_778
10
20.6816217
20
56.4946175
40
1.6180229
50
62.1931218
51
90.087118
0
ARC
8
DEFAULT_255_2_778
10
20.6780521
20
56.4869953
40
1.6264303
50
8.6485674
51
62.2071531
0
ARC
8
DEFAULT_255_2_778
10
20.6663778
20
56.488263
40
1.6377839
50
359.981651
51
8.5433085
0
ARC
8
DEFAULT_255_2_778
10
20.6861735
20
56.485275
40
1.6179899
50
332.1926321
51
0.0872357
0
ARC
8
DEFAULT_255_2_778
10
20.6784932
20
56.4888999
40
1.6264743
50
278.6465625
51
332.205897
0
ARC
8
DEFAULT_255_2_778
10
20.6796871
20
56.5008451
40
1.6381067
50
269.981616
51
278.5424654
0
ARC
8
DEFAULT_255_2_778
10
20.6766933
20
56.4804269
40
1.6176903
50
241.8417123
51
270.0874202
0
ARC
8
DEFAULT_255_2_778
10
20.6803929
20
56.4883669
40
1.6264365
50
188.5975683
51
241.8588041
0
ARC
8
DEFAULT_255_2_778
10
20.6924404
20
56.4872144
40
1.6381789
50
179.9816683
51
188.4947209
0
LINE
8
DEFAULT_255_2_778
10
19.0542615
20
56.4877385
11
19.0542615
21
56.4877385
0
ARC
8
DEFAULT_255_2_778
10
15.6792197
20
67.1174472
40
1.410141
50
37.0812903
51
90.0006706
0
ARC
8
DEFAULT_255_2_778
10
15.679116
20
67.1175891
40
1.4099991
50
89.9964539
51
142.9215758
0
ARC
8
DEFAULT_255_2_778
10
20.6790907
20
67.11759
40
1.4099982
50
37.0783991
51
90.0035551
0
ARC
8
DEFAULT_255_2_778
10
20.6789157
20
67.1175894
40
1.4099988
50
89.9964425
51
142.9215799
0
LINE
8
DEFAULT_255_2_778
10
14.5539032
20
67.9676882
11
14.2290032
21
67.9676882
0
LINE
8
DEFAULT_255_2_778
10
14.2290032
20
67.9676882
11
14.2290032
21
66.3875882
0
LINE
8
DEFAULT_255_2_778
10
14.2290032
20
66.3875882
11
17.1291032
21
66.3875882
0
LINE
8
DEFAULT_255_2_778
10
17.1291032
20
66.3875882
11
17.1291032
21
67.9676882
0
LINE
8
DEFAULT_255_2_778
10
17.1291032
20
67.9676882
11
16.8042032
21
67.9676882
0
LINE
8
DEFAULT_255_2_778
10
19.5540032
20
67.9676882
11
19.2291032
21
67.9676882
0
LINE
8
DEFAULT_255_2_778
10
19.2291032
20
67.9676882
11
19.2291032
21
66.3875882
0
LINE
8
DEFAULT_255_2_778
10
19.2291032
20
66.3875882
11
22.1292032
21
66.3875882
0
LINE
8
DEFAULT_255_2_778
10
22.1292032
20
66.3875882
11
22.1292032
21
67.9676882
0
LINE
8
DEFAULT_255_2_778
10
22.1292032
20
67.9676882
11
21.8043032
21
67.9676882
0
ARC
8
DEFAULT_255_2_778
10
15.6792676
20
44.617834
40
1.410141
50
37.0812903
51
90.0006706
0
ARC
8
DEFAULT_255_2_778
10
15.6791638
20
44.6179759
40
1.4099991
50
89.9964539
51
142.9215758
0
LINE
8
DEFAULT_255_2_778
10
14.2290511
20
43.888075
11
17.1291511
21
43.888075
0
LINE
8
DEFAULT_255_2_778
10
17.1291511
20
43.888075
11
17.1291511
21
45.468075
0
LINE
8
DEFAULT_255_2_778
10
17.1291511
20
45.468075
11
16.8042511
21
45.468075
0
LINE
8
DEFAULT_255_2_778
10
14.5542511
20
45.468075
11
14.2293511
21
45.468075
0
LINE
8
DEFAULT_255_2_778
10
14.2293511
20
45.468075
11
14.2293511
21
43.888075
0
ARC
8
DEFAULT_255_2_778
10
15.671882
20
41.4902043
40
1.6177224
50
151.8422222
51
180.0873324
0
ARC
8
DEFAULT_255_2_778
10
15.679764
20
41.4865605
40
1.6263911
50
98.5995563
51
151.8600801
0
ARC
8
DEFAULT_255_2_778
10
15.6785385
20
41.4747833
40
1.6378552
50
89.9817031
51
98.4955638
0
ARC
8
DEFAULT_255_2_778
10
15.6815217
20
41.4946175
40
1.6180229
50
62.1931218
51
90.087118
0
ARC
8
DEFAULT_255_2_778
10
15.6779521
20
41.4869953
40
1.6264303
50
8.6485674
51
62.2071531
0
ARC
8
DEFAULT_255_2_778
10
15.6662778
20
41.488263
40
1.6377839
50
359.981651
51
8.5433085
0
ARC
8
DEFAULT_255_2_778
10
15.6860735
20
41.485275
40
1.6179899
50
332.1926321
51
0.0872357
0
ARC
8
DEFAULT_255_2_778
10
15.6783932
20
41.4888999
40
1.6264743
50
278.6465625
51
332.205897
0
ARC
8
DEFAULT_255_2_778
10
15.6795871
20
41.5008451
40
1.6381067
50
269.981616
51
278.5424654
0
ARC
8
DEFAULT_255_2_778
10
15.6765933
20
41.4804269
40
1.6176903
50
241.8417123
51
270.0874202
0
ARC
8
DEFAULT_255_2_778
10
15.6802929
20
41.4883669
40
1.6264365
50
188.5975683
51
241.8588041
0
ARC
8
DEFAULT_255_2_778
10
15.6923404
20
41.4872144
40
1.6381789
50
179.9816683
51
188.4947209
0
LINE
8
DEFAULT_255_2_778
10
14.0541615
20
41.4877385
11
14.0541615
21
41.4877385
0
ARC
8
DEFAULT_255_2_778
10
20.6793676
20
44.617834
40
1.410141
50
37.0812903
51
90.0006706
0
ARC
8
DEFAULT_255_2_778
10
20.6792638
20
44.6179759
40
1.4099991
50
89.9964539
51
142.9215758
0
LINE
8
DEFAULT_255_2_778
10
19.2291511
20
43.888075
11
22.1292511
21
43.888075
0
LINE
8
DEFAULT_255_2_778
10
22.1292511
20
43.888075
11
22.1292511
21
45.468075
0
LINE
8
DEFAULT_255_2_778
10
22.1292511
20
45.468075
11
21.8043511
21
45.468075
0
LINE
8
DEFAULT_255_2_778
10
19.5543511
20
45.468075
11
19.2291511
21
45.468075
0
LINE
8
DEFAULT_255_2_778
10
19.2291511
20
45.468075
11
19.2291511
21
43.888075
0
ARC
8
DEFAULT_255_2_778
10
20.671982
20
41.4902043
40
1.6177224
50
151.8422222
51
180.0873324
0
ARC
8
DEFAULT_255_2_778
10
20.679864
20
41.4865605
40
1.6263911
50
98.5995563
51
151.8600801
0
ARC
8
DEFAULT_255_2_778
10
20.6786385
20
41.4747833
40
1.6378552
50
89.9817031
51
98.4955638
0
ARC
8
DEFAULT_255_2_778
10
20.6816217
20
41.4946175
40
1.6180229
50
62.1931218
51
90.087118
0
ARC
8
DEFAULT_255_2_778
10
20.6780521
20
41.4869953
40
1.6264303
50
8.6485674
51
62.2071531
0
ARC
8
DEFAULT_255_2_778
10
20.6663778
20
41.488263
40
1.6377839
50
359.981651
51
8.5433085
0
ARC
8
DEFAULT_255_2_778
10
20.6861735
20
41.485275
40
1.6179899
50
332.1926321
51
0.0872357
0
ARC
8
DEFAULT_255_2_778
10
20.6784932
20
41.4888999
40
1.6264743
50
278.6465625
51
332.205897
0
ARC
8
DEFAULT_255_2_778
10
20.6796871
20
41.5008451
40
1.6381067
50
269.981616
51
278.5424654
0
ARC
8
DEFAULT_255_2_778
10
20.6766933
20
41.4804269
40
1.6176903
50
241.8417123
51
270.0874202
0
ARC
8
DEFAULT_255_2_778
10
20.6803929
20
41.4883669
40
1.6264365
50
188.5975683
51
241.8588041
0
ARC
8
DEFAULT_255_2_778
10
20.6924404
20
41.4872144
40
1.6381789
50
179.9816683
51
188.4947209
0
LINE
8
DEFAULT_255_2_778
10
19.0542615
20
41.4877385
11
19.0542615
21
41.4877385
0
ARC
8
DEFAULT_255_2_778
10
15.671882
20
63.9904043
40
1.6177224
50
151.8422222
51
180.0873324
0
ARC
8
DEFAULT_255_2_778
10
15.679764
20
63.9867605
40
1.6263911
50
98.5995563
51
151.8600801
0
ARC
8
DEFAULT_255_2_778
10
15.6785385
20
63.9749833
40
1.6378552
50
89.9817031
51
98.4955638
0
ARC
8
DEFAULT_255_2_778
10
15.6815217
20
63.9948175
40
1.6180229
50
62.1931218
51
90.087118
0
ARC
8
DEFAULT_255_2_778
10
15.6779521
20
63.9871953
40
1.6264303
50
8.6485674
51
62.2071531
0
ARC
8
DEFAULT_255_2_778
10
15.6662778
20
63.988463
40
1.6377839
50
359.981651
51
8.5433085
0
ARC
8
DEFAULT_255_2_778
10
15.6860735
20
63.985475
40
1.6179899
50
332.1926321
51
0.0872357
0
ARC
8
DEFAULT_255_2_778
10
15.6783932
20
63.9890999
40
1.6264743
50
278.6465625
51
332.205897
0
ARC
8
DEFAULT_255_2_778
10
15.6795871
20
64.0010451
40
1.6381067
50
269.981616
51
278.5424654
0
ARC
8
DEFAULT_255_2_778
10
15.6765933
20
63.9806269
40
1.6176903
50
241.8417123
51
270.0874202
0
ARC
8
DEFAULT_255_2_778
10
15.6802929
20
63.9885669
40
1.6264365
50
188.5975683
51
241.8588041
0
ARC
8
DEFAULT_255_2_778
10
15.6923404
20
63.9874144
40
1.6381789
50
179.9816683
51
188.4947209
0
LINE
8
DEFAULT_255_2_778
10
14.0541615
20
63.9879385
11
14.0541615
21
63.9879385
0
ARC
8
DEFAULT_255_2_778
10
20.671982
20
63.9904043
40
1.6177224
50
151.8422222
51
180.0873324
0
ARC
8
DEFAULT_255_2_778
10
20.679864
20
63.9867605
40
1.6263911
50
98.5995563
51
151.8600801
0
ARC
8
DEFAULT_255_2_778
10
20.6786385
20
63.9749833
40
1.6378552
50
89.9817031
51
98.4955638
0
ARC
8
DEFAULT_255_2_778
10
20.6816217
20
63.9948175
40
1.6180229
50
62.1931218
51
90.087118
0
ARC
8
DEFAULT_255_2_778
10
20.6780521
20
63.9871953
40
1.6264303
50
8.6485674
51
62.2071531
0
ARC
8
DEFAULT_255_2_778
10
20.6663778
20
63.988463
40
1.6377839
50
359.981651
51
8.5433085
0
ARC
8
DEFAULT_255_2_778
10
20.6861735
20
63.985475
40
1.6179899
50
332.1926321
51
0.0872357
0
ARC
8
DEFAULT_255_2_778
10
20.6784932
20
63.9890999
40
1.6264743
50
278.6465625
51
332.205897
0
ARC
8
DEFAULT_255_2_778
10
20.6796871
20
64.0010451
40
1.6381067
50
269.981616
51
278.5424654
0
ARC
8
DEFAULT_255_2_778
10
20.6766933
20
63.9806269
40
1.6176903
50
241.8417123
51
270.0874202
0
ARC
8
DEFAULT_255_2_778
10
20.6803929
20
63.9885669
40
1.6264365
50
188.5975683
51
241.8588041
0
ARC
8
DEFAULT_255_2_778
10
20.6924404
20
63.9874144
40
1.6381789
50
179.9816683
51
188.4947209
0
LINE
8
DEFAULT_255_2_778
10
19.0542615
20
63.9879385
11
19.0542615
21
63.9879385
0
ENDSEC
0
EOF