0
SECTION
2
HEADER
9
$MEASUREMENT
70
1
0
ENDSEC
0
SECTION
2
TABLES
0
TABLE
2
LTYPE
0
LTYPE
72
65
70
64
2
CONTINUOUS
3
______
73
0
40
0
0
ENDTAB
0
TABLE
2
LAYER
0
LAYER
2
DEFAULT_255_2_778
70
0
62
255
6
CONTINUOUS
0
ENDTAB
0
ENDSEC
0
SECTION
2
ENTITIES
0
LINE
8
DEFAULT_255_2_778
10
9.8789889
20
92.9187143
11
8.6790889
21
92.9187143
0
LINE
8
DEFAULT_255_2_778
10
8.6790889
20
92.9187143
11
8.6790889
21
91.5188143
0
LINE
8
DEFAULT_255_2_778
10
8.6790889
20
91.5188143
11
9.8789889
21
91.5188143
0
LINE
8
DEFAULT_255_2_778
10
9.8789889
20
91.5188143
11
9.8789889
21
92.9187143
0
LINE
8
DEFAULT_255_2_778
10
2.3790889
20
81.8189143
11
2.3790889
21
83.2189143
0
LINE
8
DEFAULT_255_2_778
10
2.3790889
20
83.2189143
11
1.1791889
21
83.2189143
0
LINE
8
DEFAULT_255_2_778
10
1.1791889
20
83.2189143
11
1.1791889
21
81.8189143
0
LINE
8
DEFAULT_255_2_778
10
1.1791889
20
81.8189143
11
2.3790889
21
81.8189143
0
LINE
8
DEFAULT_255_2_778
10
22.0791889
20
72.5278143
11
22.0791889
21
73.6277143
0
LINE
8
DEFAULT_255_2_778
10
2.2790889
20
72.5278143
11
2.2790889
21
73.6277143
0
LINE
8
DEFAULT_255_2_778
10
1.9790889
20
75.5187143
11
1.6789889
21
75.5187143
0
LINE
8
DEFAULT_255_2_778
10
0.1790889
20
96.8187143
11
24.1791889
21
96.8187143
0
LINE
8
DEFAULT_255_2_778
10
22.6789889
20
1.3189143
11
22.6789889
21
4.1479143
0
LINE
8
DEFAULT_255_2_778
10
20.4789889
20
1.3187143
11
26.2788889
21
1.3187143
0
LINE
8
DEFAULT_255_2_778
10
26.2788889
20
1.3187143
11
26.2788889
21
3.7687143
0
LINE
8
DEFAULT_255_2_778
10
26.2788889
20
3.7687143
11
25.2787889
21
3.7687143
0
LINE
8
DEFAULT_255_2_778
10
25.2787889
20
3.7687143
11
25.2787889
21
2.2688143
0
LINE
8
DEFAULT_255_2_778
10
25.2787889
20
2.2688143
11
24.1788889
21
2.2688143
0
LINE
8
DEFAULT_255_2_778
10
8.4790889
20
1.3187143
11
16.2789889
21
1.3187143
0
LINE
8
DEFAULT_255_2_778
10
1.1291889
20
4.1479143
11
1.1291889
21
2.4688143
0
LINE
8
DEFAULT_255_2_778
10
1.1291889
20
2.4688143
11
0.9791889
21
2.4688143
0
LINE
8
DEFAULT_255_2_778
10
10.6791566
20
4.1477986
11
10.6791566
21
1.3188986
0
LINE
8
DEFAULT_255_2_778
10
4.2791566
20
1.3188986
11
2.4791566
21
1.3188986
0
LINE
8
DEFAULT_255_2_778
10
2.4791566
20
1.3188986
11
2.4791566
21
4.1477986
0
LINE
8
DEFAULT_255_2_778
10
0.1791566
20
5.7477986
11
24.1792566
21
5.7477986
0
LINE
8
DEFAULT_255_2_778
10
26.2792566
20
1.7689986
11
24.1792566
21
1.7689986
0
LINE
8
DEFAULT_255_2_778
10
24.1792566
20
1.7689986
11
24.1792566
21
99.3686986
0
LINE
8
DEFAULT_255_2_778
10
24.1792566
20
99.3686986
11
25.2791566
21
99.3686986
0
LINE
8
DEFAULT_255_2_778
10
25.2791566
20
99.3686986
11
25.2791566
21
97.8687986
0
LINE
8
DEFAULT_255_2_778
10
25.2791566
20
97.8687986
11
26.2792566
21
97.8687986
0
LINE
8
DEFAULT_255_2_778
10
26.2792566
20
97.8687986
11
26.2792566
21
101.3186986
0
LINE
8
DEFAULT_255_2_778
10
26.2792566
20
101.3186986
11
2.4791566
21
101.3186986
0
LINE
8
DEFAULT_255_2_778
10
2.4791566
20
101.3186986
11
2.4791566
21
97.6187986
0
LINE
8
DEFAULT_255_2_778
10
2.4791566
20
97.6187986
11
1.1292566
21
97.6187986
0
LINE
8
DEFAULT_255_2_778
10
1.1292566
20
97.6187986
11
1.1292566
21
99.1686986
0
LINE
8
DEFAULT_255_2_778
10
1.1292566
20
99.1686986
11
0.1791566
21
99.1686986
0
LINE
8
DEFAULT_255_2_778
10
0.1791566
20
99.1686986
11
0.1791566
21
2.2777986
0
LINE
8
DEFAULT_255_2_778
10
0.1791566
20
2.2777986
11
0.9792566
21
2.2777986
0
LINE
8
DEFAULT_255_2_778
10
0.9792566
20
2.2777986
11
0.9792566
21
5.7477986
0
LINE
8
DEFAULT_255_2_778
10
4.8789566
20
86.4189986
11
4.8789566
21
87.8188986
0
LINE
8
DEFAULT_255_2_778
10
4.8789566
20
87.8188986
11
3.6790566
21
87.8188986
0
LINE
8
DEFAULT_255_2_778
10
3.6790566
20
87.8188986
11
3.6790566
21
86.4189986
0
LINE
8
DEFAULT_255_2_778
10
3.6790566
20
86.4189986
11
4.8789566
21
86.4189986
0
LINE
8
DEFAULT_255_2_778
10
3.6790566
20
83.2187986
11
3.6790566
21
81.8188986
0
LINE
8
DEFAULT_255_2_778
10
3.6790566
20
81.8188986
11
4.8789566
21
81.8188986
0
LINE
8
DEFAULT_255_2_778
10
4.8789566
20
81.8188986
11
4.8789566
21
83.2187986
0
LINE
8
DEFAULT_255_2_778
10
4.8789566
20
83.2187986
11
3.6790566
21
83.2187986
0
LINE
8
DEFAULT_255_2_778
10
1.1792368
20
86.4190113
11
2.3791368
21
86.4190113
0
LINE
8
DEFAULT_255_2_778
10
2.3791368
20
86.4190113
11
2.3791368
21
87.8189113
0
LINE
8
DEFAULT_255_2_778
10
2.3791368
20
87.8189113
11
1.1792368
21
87.8189113
0
LINE
8
DEFAULT_255_2_778
10
1.1792368
20
87.8189113
11
1.1792368
21
86.4190113
0
LINE
8
DEFAULT_255_2_778
10
1.1792368
20
89.9189113
11
1.1792368
21
88.5190113
0
LINE
8
DEFAULT_255_2_778
10
1.1792368
20
88.5190113
11
2.3791368
21
88.5190113
0
LINE
8
DEFAULT_255_2_778
10
2.3791368
20
88.5190113
11
2.3791368
21
89.9189113
0
LINE
8
DEFAULT_255_2_778
10
2.3791368
20
89.9189113
11
1.1792368
21
89.9189113
0
LINE
8
DEFAULT_255_2_778
10
7.4289368
20
86.4190113
11
7.4289368
21
87.8189113
0
LINE
8
DEFAULT_255_2_778
10
7.4289368
20
87.8189113
11
6.2290368
21
87.8189113
0
LINE
8
DEFAULT_255_2_778
10
6.2290368
20
87.8189113
11
6.2290368
21
86.4190113
0
LINE
8
DEFAULT_255_2_778
10
6.2290368
20
86.4190113
11
7.4289368
21
86.4190113
0
LINE
8
DEFAULT_255_2_778
10
6.2290368
20
83.2189113
11
6.2290368
21
81.8189113
0
LINE
8
DEFAULT_255_2_778
10
6.2290368
20
81.8189113
11
7.4289368
21
81.8189113
0
LINE
8
DEFAULT_255_2_778
10
7.4289368
20
81.8189113
11
7.4289368
21
83.2189113
0
LINE
8
DEFAULT_255_2_778
10
7.4289368
20
83.2189113
11
6.2290368
21
83.2189113
0
LINE
8
DEFAULT_255_2_778
10
22.6790368
20
76.1127113
11
22.6790368
21
80.4428113
0
LINE
8
DEFAULT_255_2_778
10
22.6790368
20
79.1930113
11
22.8790368
21
79.1930113
0
LINE
8
DEFAULT_255_2_778
10
22.8790368
20
79.5769113
11
23.8791368
21
79.5769113
0
LINE
8
DEFAULT_255_2_778
10
13.9792368
20
79.1930113
11
15.1791368
21
79.1930113
0
LINE
8
DEFAULT_255_2_778
10
13.9792428
20
81.4278582
11
23.8791428
21
81.4278582
0
LINE
8
DEFAULT_255_2_778
10
23.8791428
20
81.4278582
11
23.8791428
21
73.6279582
0
LINE
8
DEFAULT_255_2_778
10
23.8791428
20
73.6279582
11
13.9792428
21
73.6279582
0
LINE
8
DEFAULT_255_2_778
10
13.9792428
20
73.6279582
11
13.9792428
21
81.4278582
0
LINE
8
DEFAULT_255_2_778
10
15.1791428
20
80.4428854
11
15.1791428
21
76.1126854
0
LINE
8
DEFAULT_255_2_778
10
23.8791428
20
76.1126854
11
14.9793428
21
76.1126854
0
LINE
8
DEFAULT_255_2_778
10
14.9793428
20
76.1126854
11
14.9793428
21
76.9786854
0
LINE
8
DEFAULT_255_2_778
10
14.9793428
20
76.9786854
11
13.9792428
21
76.9786854
0
LINE
8
DEFAULT_255_2_778
10
13.9792106
20
80.4428051
11
22.8793106
21
80.4428051
0
LINE
8
DEFAULT_255_2_778
10
22.8793106
20
80.4428051
11
22.8793106
21
78.3267051
0
LINE
8
DEFAULT_255_2_778
10
22.8793106
20
78.3267051
11
23.8794106
21
78.3267051
0
LINE
8
DEFAULT_255_2_778
10
23.8791106
20
75.1279051
11
13.9792106
21
75.1279051
0
LINE
8
DEFAULT_255_2_778
10
14.0789106
20
73.6277051
11
14.0789106
21
72.5278051
0
LINE
8
DEFAULT_255_2_778
10
14.0789106
20
72.5278051
11
22.2789106
21
72.5278051
0
LINE
8
DEFAULT_255_2_778
10
22.2789106
20
72.5278051
11
22.2789106
21
73.6277051
0
LINE
8
DEFAULT_255_2_778
10
22.0789439
20
72.9512364
11
14.2790439
21
72.9512364
0
LINE
8
DEFAULT_255_2_778
10
10.0790439
20
72.5278364
11
10.0790439
21
73.6277364
0
LINE
8
DEFAULT_255_2_778
10
14.2790252
20
72.5278051
11
14.2790252
21
73.6277051
0
LINE
8
DEFAULT_255_2_778
10
10.6791252
20
76.1126051
11
10.6791252
21
80.4428051
0
LINE
8
DEFAULT_255_2_778
10
10.6791252
20
79.1929051
11
10.8792252
21
79.1929051
0
LINE
8
DEFAULT_255_2_778
10
10.8792252
20
79.5768051
11
11.8793252
21
79.5768051
0
LINE
8
DEFAULT_255_2_778
10
1.9791252
20
79.1929051
11
3.1790252
21
79.1929051
0
LINE
8
DEFAULT_255_2_778
10
1.9790428
20
81.4278582
11
11.8789428
21
81.4278582
0
LINE
8
DEFAULT_255_2_778
10
11.8789428
20
81.4278582
11
11.8789428
21
73.6279582
0
LINE
8
DEFAULT_255_2_778
10
11.8789428
20
73.6279582
11
1.9790428
21
73.6279582
0
LINE
8
DEFAULT_255_2_778
10
1.9790428
20
73.6279582
11
1.9790428
21
81.4278582
0
LINE
8
DEFAULT_255_2_778
10
3.1791428
20
80.4428854
11
3.1791428
21
76.1126854
0
LINE
8
DEFAULT_255_2_778
10
11.8789428
20
76.1126854
11
2.9791428
21
76.1126854
0
LINE
8
DEFAULT_255_2_778
10
2.9791428
20
76.1126854
11
2.9791428
21
76.9786854
0
LINE
8
DEFAULT_255_2_778
10
2.9791428
20
76.9786854
11
1.9790428
21
76.9786854
0
LINE
8
DEFAULT_255_2_778
10
1.9791106
20
80.4428051
11
10.8792106
21
80.4428051
0
LINE
8
DEFAULT_255_2_778
10
10.8792106
20
80.4428051
11
10.8792106
21
78.3267051
0
LINE
8
DEFAULT_255_2_778
10
10.8792106
20
78.3267051
11
11.8793106
21
78.3267051
0
LINE
8
DEFAULT_255_2_778
10
11.8790106
20
75.1279051
11
1.9791106
21
75.1279051
0
LINE
8
DEFAULT_255_2_778
10
2.0791106
20
73.6277051
11
2.0791106
21
72.5278051
0
LINE
8
DEFAULT_255_2_778
10
2.0791106
20
72.5278051
11
10.2791106
21
72.5278051
0
LINE
8
DEFAULT_255_2_778
10
10.2791106
20
72.5278051
11
10.2791106
21
73.6277051
0
LINE
8
DEFAULT_255_2_778
10
10.0790399
20
72.9511444
11
2.2791399
21
72.9511444
0
LINE
8
DEFAULT_255_2_778
10
11.8790399
20
77.5186444
11
13.9790399
21
77.5186444
0
LINE
8
DEFAULT_255_2_778
10
13.9790399
20
75.5186444
11
11.8790399
21
75.5186444
0
LINE
8
DEFAULT_255_2_778
10
18.7290399
20
101.3187444
11
18.7290399
21
102.8186444
0
LINE
8
DEFAULT_255_2_778
10
18.7290399
20
102.8186444
11
19.8289399
21
102.8186444
0
LINE
8
DEFAULT_255_2_778
10
19.8289399
20
102.8186444
11
19.8289399
21
101.3187444
0
LINE
8
DEFAULT_255_2_778
10
23.8291399
20
101.3187444
11
23.8291399
21
102.8186444
0
LINE
8
DEFAULT_255_2_778
10
23.8291399
20
102.8186444
11
24.9290399
21
102.8186444
0
LINE
8
DEFAULT_255_2_778
10
24.9290399
20
102.8186444
11
24.9290399
21
101.3187444
0
LINE
8
DEFAULT_255_2_778
10
11.8292399
20
101.3187444
11
11.8292399
21
102.8186444
0
LINE
8
DEFAULT_255_2_778
10
11.8292399
20
102.8186444
11
12.9291399
21
102.8186444
0
LINE
8
DEFAULT_255_2_778
10
12.9291399
20
102.8186444
11
12.9291399
21
101.3187444
0
LINE
8
DEFAULT_255_2_778
10
6.7291636
20
101.3187614
11
6.7291636
21
102.8186614
0
LINE
8
DEFAULT_255_2_778
10
6.7291636
20
102.8186614
11
7.8290636
21
102.8186614
0
LINE
8
DEFAULT_255_2_778
10
7.8290636
20
102.8186614
11
7.8290636
21
101.3187614
0
ARC
8
DEFAULT_255_2_778
10
15.6792676
20
29.6172472
40
1.410141
50
37.0812903
51
90.0006706
0
ARC
8
DEFAULT_255_2_778
10
15.6791638
20
29.6173891
40
1.4099991
50
89.9964539
51
142.9215758
0
LINE
8
DEFAULT_255_2_778
10
14.2290511
20
30.4674882
11
14.2290511
21
28.8873882
0
LINE
8
DEFAULT_255_2_778
10
14.2290511
20
28.8873882
11
17.1291511
21
28.8873882
0
LINE
8
DEFAULT_255_2_778
10
17.1291511
20
28.8873882
11
17.1291511
21
30.4674882
0
LINE
8
DEFAULT_255_2_778
10
17.1291511
20
30.4674882
11
16.8042511
21
30.4674882
0
LINE
8
DEFAULT_255_2_778
10
14.5542511
20
30.4674882
11
14.2293511
21
30.4674882
0
ARC
8
DEFAULT_255_2_778
10
15.671882
20
26.4902043
40
1.6177224
50
151.8422222
51
180.0873324
0
ARC
8
DEFAULT_255_2_778
10
15.679764
20
26.4865605
40
1.6263911
50
98.5995563
51
151.8600801
0
ARC
8
DEFAULT_255_2_778
10
15.6785385
20
26.4747833
40
1.6378552
50
89.9817031
51
98.4955638
0
ARC
8
DEFAULT_255_2_778
10
15.6815217
20
26.4946175
40
1.6180229
50
62.1931218
51
90.087118
0
ARC
8
DEFAULT_255_2_778
10
15.6779521
20
26.4869953
40
1.6264303
50
8.6485674
51
62.2071531
0
ARC
8
DEFAULT_255_2_778
10
15.6662778
20
26.488263
40
1.6377839
50
359.981651
51
8.5433085
0
ARC
8
DEFAULT_255_2_778
10
15.6860735
20
26.485275
40
1.6179899
50
332.1926321
51
0.0872357
0
ARC
8
DEFAULT_255_2_778
10
15.6783932
20
26.4888999
40
1.6264743
50
278.6465625
51
332.205897
0
ARC
8
DEFAULT_255_2_778
10
15.6795871
20
26.5008451
40
1.6381067
50
269.981616
51
278.5424654
0
ARC
8
DEFAULT_255_2_778
10
15.6765933
20
26.4804269
40
1.6176903
50
241.8417123
51
270.0874202
0
ARC
8
DEFAULT_255_2_778
10
15.6802929
20
26.4883669
40
1.6264365
50
188.5975683
51
241.8588041
0
ARC
8
DEFAULT_255_2_778
10
15.6923404
20
26.4872144
40
1.6381789
50
179.9816683
51
188.4947209
0
LINE
8
DEFAULT_255_2_778
10
14.0541615
20
26.4877385
11
14.0541615
21
26.4877385
0
ARC
8
DEFAULT_255_2_778
10
20.6793676
20
29.6175472
40
1.410141
50
37.0812903
51
90.0006706
0
ARC
8
DEFAULT_255_2_778
10
20.6792638
20
29.6176891
40
1.4099991
50
89.9964539
51
142.9215758
0
LINE
8
DEFAULT_255_2_778
10
19.2291511
20
28.8876882
11
22.1292511
21
28.8876882
0
LINE
8
DEFAULT_255_2_778
10
22.1292511
20
28.8876882
11
22.1292511
21
30.4677882
0
LINE
8
DEFAULT_255_2_778
10
22.1292511
20
30.4677882
11
21.8043511
21
30.4677882
0
LINE
8
DEFAULT_255_2_778
10
19.5543511
20
30.4677882
11
19.2291511
21
30.4677882
0
LINE
8
DEFAULT_255_2_778
10
19.2291511
20
30.4677882
11
19.2291511
21
28.8876882
0
ARC
8
DEFAULT_255_2_778
10
20.671982
20
26.4902043
40
1.6177224
50
151.8422222
51
180.0873324
0
ARC
8
DEFAULT_255_2_778
10
20.679864
20
26.4865605
40
1.6263911
50
98.5995563
51
151.8600801
0
ARC
8
DEFAULT_255_2_778
10
20.6786385
20
26.4747833
40
1.6378552
50
89.9817031
51
98.4955638
0
ARC
8
DEFAULT_255_2_778
10
20.6816217
20
26.4946175
40
1.6180229
50
62.1931218
51
90.087118
0
ARC
8
DEFAULT_255_2_778
10
20.6780521
20
26.4869953
40
1.6264303
50
8.6485674
51
62.2071531
0
ARC
8
DEFAULT_255_2_778
10
20.6663778
20
26.488263
40
1.6377839
50
359.981651
51
8.5433085
0
ARC
8
DEFAULT_255_2_778
10
20.6861735
20
26.485275
40
1.6179899
50
332.1926321
51
0.0872357
0
ARC
8
DEFAULT_255_2_778
10
20.6784932
20
26.4888999
40
1.6264743
50
278.6465625
51
332.205897
0
ARC
8
DEFAULT_255_2_778
10
20.6796871
20
26.5008451
40
1.6381067
50
269.981616
51
278.5424654
0
ARC
8
DEFAULT_255_2_778
10
20.6766933
20
26.4804269
40
1.6176903
50
241.8417123
51
270.0874202
0
ARC
8
DEFAULT_255_2_778
10
20.6803929
20
26.4883669
40
1.6264365
50
188.5975683
51
241.8588041
0
ARC
8
DEFAULT_255_2_778
10
20.6924404
20
26.4872144
40
1.6381789
50
179.9816683
51
188.4947209
0
LINE
8
DEFAULT_255_2_778
10
19.0542615
20
26.4877385
11
19.0542615
21
26.4877385
0
ARC
8
DEFAULT_255_2_778
10
15.6792676
20
37.1174472
40
1.410141
50
37.0812903
51
90.0006706
0
ARC
8
DEFAULT_255_2_778
10
15.6791638
20
37.1175891
40
1.4099991
50
89.9964539
51
142.9215758
0
LINE
8
DEFAULT_255_2_778
10
14.2290511
20
37.9676882
11
14.2290511
21
36.3875882
0
LINE
8
DEFAULT_255_2_778
10
14.2290511
20
36.3875882
11
17.1291511
21
36.3875882
0
LINE
8
DEFAULT_255_2_778
10
17.1291511
20
36.3875882
11
17.1291511
21
37.9676882
0
LINE
8
DEFAULT_255_2_778
10
17.1291511
20
37.9676882
11
16.8042511
21
37.9676882
0
LINE
8
DEFAULT_255_2_778
10
14.5542511
20
37.9676882
11
14.2293511
21
37.9676882
0
ARC
8
DEFAULT_255_2_778
10
15.671882
20
33.9903043
40
1.6177224
50
151.8422222
51
180.0873324
0
ARC
8
DEFAULT_255_2_778
10
15.679764
20
33.9866605
40
1.6263911
50
98.5995563
51
151.8600801
0
ARC
8
DEFAULT_255_2_778
10
15.6785385
20
33.9748833
40
1.6378552
50
89.9817031
51
98.4955638
0
ARC
8
DEFAULT_255_2_778
10
15.6815217
20
33.9947175
40
1.6180229
50
62.1931218
51
90.087118
0
ARC
8
DEFAULT_255_2_778
10
15.6779521
20
33.9870953
40
1.6264303
50
8.6485674
51
62.2071531
0
ARC
8
DEFAULT_255_2_778
10
15.6662778
20
33.988363
40
1.6377839
50
359.981651
51
8.5433085
0
ARC
8
DEFAULT_255_2_778
10
15.6860735
20
33.985375
40
1.6179899
50
332.1926321
51
0.0872357
0
ARC
8
DEFAULT_255_2_778
10
15.6783932
20
33.9889999
40
1.6264743
50
278.6465625
51
332.205897
0
ARC
8
DEFAULT_255_2_778
10
15.6795871
20
34.0009451
40
1.6381067
50
269.981616
51
278.5424654
0
ARC
8
DEFAULT_255_2_778
10
15.6765933
20
33.9805269
40
1.6176903
50
241.8417123
51
270.0874202
0
ARC
8
DEFAULT_255_2_778
10
15.6802929
20
33.9884669
40
1.6264365
50
188.5975683
51
241.8588041
0
ARC
8
DEFAULT_255_2_778
10
15.6923404
20
33.9873144
40
1.6381789
50
179.9816683
51
188.4947209
0
LINE
8
DEFAULT_255_2_778
10
14.0541615
20
33.9878385
11
14.0541615
21
33.9878385
0
ARC
8
DEFAULT_255_2_778
10
20.6793676
20
37.1174472
40
1.410141
50
37.0812903
51
90.0006706
0
ARC
8
DEFAULT_255_2_778
10
20.6792638
20
37.1175891
40
1.4099991
50
89.9964539
51
142.9215758
0
LINE
8
DEFAULT_255_2_778
10
19.2291511
20
37.9676882
11
19.2291511
21
36.3875882
0
LINE
8
DEFAULT_255_2_778
10
19.2291511
20
36.3875882
11
22.1292511
21
36.3875882
0
LINE
8
DEFAULT_255_2_778
10
22.1292511
20
36.3875882
11
22.1292511
21
37.9676882
0
LINE
8
DEFAULT_255_2_778
10
22.1292511
20
37.9676882
11
21.8043511
21
37.9676882
0
LINE
8
DEFAULT_255_2_778
10
19.5543511
20
37.9676882
11
19.2291511
21
37.9676882
0
ARC
8
DEFAULT_255_2_778
10
20.671982
20
33.9903043
40
1.6177224
50
151.8422222
51
180.0873324
0
ARC
8
DEFAULT_255_2_778
10
20.679864
20
33.9866605
40
1.6263911
50
98.5995563
51
151.8600801
0
ARC
8
DEFAULT_255_2_778
10
20.6786385
20
33.9748833
40
1.6378552
50
89.9817031
51
98.4955638
0
ARC
8
DEFAULT_255_2_778
10
20.6816217
20
33.9947175
40
1.6180229
50
62.1931218
51
90.087118
0
ARC
8
DEFAULT_255_2_778
10
20.6780521
20
33.9870953
40
1.6264303
50
8.6485674
51
62.2071531
0
ARC
8
DEFAULT_255_2_778
10
20.6663778
20
33.988363
40
1.6377839
50
359.981651
51
8.5433085
0
ARC
8
DEFAULT_255_2_778
10
20.6861735
20
33.985375
40
1.6179899
50
332.1926321
51
0.0872357
0
ARC
8
DEFAULT_255_2_778
10
20.6784932
20
33.9889999
40
1.6264743
50
278.6465625
51
332.205897
0
ARC
8
DEFAULT_255_2_778
10
20.6796871
20
34.0009451
40
1.6381067
50
269.981616
51
278.5424654
0
ARC
8
DEFAULT_255_2_778
10
20.6766933
20
33.9805269
40
1.6176903
50
241.8417123
51
270.0874202
0
ARC
8
DEFAULT_255_2_778
10
20.6803929
20
33.9884669
40
1.6264365
50
188.5975683
51
241.8588041
0
ARC
8
DEFAULT_255_2_778
10
20.6924404
20
33.9873144
40
1.6381789
50
179.9816683
51
188.4947209
0
LINE
8
DEFAULT_255_2_778
10
19.0542615
20
33.9878385
11
19.0542615
21
33.9878385
0
ARC
8
DEFAULT_255_2_778
10
15.6792676
20
52.1174472
40
1.410141
50
37.0812903
51
90.0006706
0
ARC
8
DEFAULT_255_2_778
10
15.6791638
20
52.1175891
40
1.4099991
50
89.9964539
51
142.9215758
0
LINE
8
DEFAULT_255_2_778
10
14.2290511
20
52.9676882
11
14.2290511
21
51.3875882
0
LINE
8
DEFAULT_255_2_778
10
14.2290511
20
51.3875882
11
17.1291511
21
51.3875882
0
LINE
8
DEFAULT_255_2_778
10
17.1291511
20
51.3875882
11
17.1291511
21
52.9676882
0
LINE
8
DEFAULT_255_2_778
10
17.1291511
20
52.9676882
11
16.8042511
21
52.9676882
0
LINE
8
DEFAULT_255_2_778
10
14.5542511
20
52.9676882
11
14.2293511
21
52.9676882
0
ARC
8
DEFAULT_255_2_778
10
15.671882
20
48.9901043
40
1.6177224
50
151.8422222
51
180.0873324
0
ARC
8
DEFAULT_255_2_778
10
15.679764
20
48.9864605
40
1.6263911
50
98.5995563
51
151.8600801
0
ARC
8
DEFAULT_255_2_778
10
15.6785385
20
48.9746833
40
1.6378552
50
89.9817031
51
98.4955638
0
ARC
8
DEFAULT_255_2_778
10
15.6815217
20
48.9945175
40
1.6180229
50
62.1931218
51
90.087118
0
ARC
8
DEFAULT_255_2_778
10
15.6779521
20
48.9868953
40
1.6264303
50
8.6485674
51
62.2071531
0
ARC
8
DEFAULT_255_2_778
10
15.6662778
20
48.988163
40
1.6377839
50
359.981651
51
8.5433085
0
ARC
8
DEFAULT_255_2_778
10
15.6860735
20
48.985175
40
1.6179899
50
332.1926321
51
0.0872357
0
ARC
8
DEFAULT_255_2_778
10
15.6783932
20
48.9887999
40
1.6264743
50
278.6465625
51
332.205897
0
ARC
8
DEFAULT_255_2_778
10
15.6795871
20
49.0007451
40
1.6381067
50
269.981616
51
278.5424654
0
ARC
8
DEFAULT_255_2_778
10
15.6765933
20
48.9803269
40
1.6176903
50
241.8417123
51
270.0874202
0
ARC
8
DEFAULT_255_2_778
10
15.6802929
20
48.9882669
40
1.6264365
50
188.5975683
51
241.8588041
0
ARC
8
DEFAULT_255_2_778
10
15.6923404
20
48.9871144
40
1.6381789
50
179.9816683
51
188.4947209
0
LINE
8
DEFAULT_255_2_778
10
14.0541615
20
48.9876385
11
14.0541615
21
48.9876385
0
ARC
8
DEFAULT_255_2_778
10
20.6793676
20
52.1177472
40
1.410141
50
37.0812903
51
90.0006706
0
ARC
8
DEFAULT_255_2_778
10
20.6792638
20
52.1178891
40
1.4099991
50
89.9964539
51
142.9215758
0
LINE
8
DEFAULT_255_2_778
10
22.1292511
20
51.3878882
11
22.1292511
21
52.9679882
0
LINE
8
DEFAULT_255_2_778
10
22.1292511
20
52.9679882
11
21.8043511
21
52.9679882
0
LINE
8
DEFAULT_255_2_778
10
19.5543511
20
52.9679882
11
19.2291511
21
52.9679882
0
LINE
8
DEFAULT_255_2_778
10
19.2291511
20
52.9679882
11
19.2291511
21
51.3878882
0
LINE
8
DEFAULT_255_2_778
10
19.2291511
20
51.3878882
11
22.1292511
21
51.3878882
0
ARC
8
DEFAULT_255_2_778
10
20.671982
20
48.9901043
40
1.6177224
50
151.8422222
51
180.0873324
0
ARC
8
DEFAULT_255_2_778
10
20.679864
20
48.9864605
40
1.6263911
50
98.5995563
51
151.8600801
0
ARC
8
DEFAULT_255_2_778
10
20.6786385
20
48.9746833
40
1.6378552
50
89.9817031
51
98.4955638
0
ARC
8
DEFAULT_255_2_778
10
20.6816217
20
48.9945175
40
1.6180229
50
62.1931218
51
90.087118
0
ARC
8
DEFAULT_255_2_778
10
20.6780521
20
48.9868953
40
1.6264303
50
8.6485674
51
62.2071531
0
ARC
8
DEFAULT_255_2_778
10
20.6663778
20
48.988163
40
1.6377839
50
359.981651
51
8.5433085
0
ARC
8
DEFAULT_255_2_778
10
20.6861735
20
48.985175
40
1.6179899
50
332.1926321
51
0.0872357
0
ARC
8
DEFAULT_255_2_778
10
20.6784932
20
48.9887999
40
1.6264743
50
278.6465625
51
332.205897
0
ARC
8
DEFAULT_255_2_778
10
20.6796871
20
49.0007451
40
1.6381067
50
269.981616
51
278.5424654
0
ARC
8
DEFAULT_255_2_778
10
20.6766933
20
48.9803269
40
1.6176903
50
241.8417123
51
270.0874202
0
ARC
8
DEFAULT_255_2_778
10
20.6803929
20
48.9882669
40
1.6264365
50
188.5975683
51
241.8588041
0
ARC
8
DEFAULT_255_2_778
10
20.6924404
20
48.9871144
40
1.6381789
50
179.9816683
51
188.4947209
0
LINE
8
DEFAULT_255_2_778
10
19.0542615
20
48.9876385
11
19.0542615
21
48.9876385
0
ARC
8
DEFAULT_255_2_778
10
15.6792676
20
59.6173472
40
1.410141
50
37.0812903
51
90.0006706
0
ARC
8
DEFAULT_255_2_778
10
15.6791638
20
59.6174891
40
1.4099991
50
89.9964539
51
142.9215758
0
LINE
8
DEFAULT_255_2_778
10
14.2290511
20
60.4675882
11
14.2290511
21
58.8874882
0
LINE
8
DEFAULT_255_2_778
10
14.2290511
20
58.8874882
11
17.1291511
21
58.8874882
0
LINE
8
DEFAULT_255_2_778
10
17.1291511
20
58.8874882
11
17.1291511
21
60.4675882
0
LINE
8
DEFAULT_255_2_778
10
17.1291511
20
60.4675882
11
16.8042511
21
60.4675882
0
LINE
8
DEFAULT_255_2_778
10
14.5542511
20
60.4675882
11
14.2293511
21
60.4675882
0
ARC
8
DEFAULT_255_2_778
10
15.671882
20
56.4902043
40
1.6177224
50
151.8422222
51
180.0873324
0
ARC
8
DEFAULT_255_2_778
10
15.679764
20
56.4865605
40
1.6263911
50
98.5995563
51
151.8600801
0
ARC
8
DEFAULT_255_2_778
10
15.6785385
20
56.4747833
40
1.6378552
50
89.9817031
51
98.4955638
0
ARC
8
DEFAULT_255_2_778
10
15.6815217
20
56.4946175
40
1.6180229
50
62.1931218
51
90.087118
0
ARC
8
DEFAULT_255_2_778
10
15.6779521
20
56.4869953
40
1.6264303
50
8.6485674
51
62.2071531
0
ARC
8
DEFAULT_255_2_778
10
15.6662778
20
56.488263
40
1.6377839
50
359.981651
51
8.5433085
0
ARC
8
DEFAULT_255_2_778
10
15.6860735
20
56.485275
40
1.6179899
50
332.1926321
51
0.0872357
0
ARC
8
DEFAULT_255_2_778
10
15.6783932
20
56.4888999
40
1.6264743
50
278.6465625
51
332.205897
0
ARC
8
DEFAULT_255_2_778
10
15.6795871
20
56.5008451
40
1.6381067
50
269.981616
51
278.5424654
0
ARC
8
DEFAULT_255_2_778
10
15.6765933
20
56.4804269
40
1.6176903
50
241.8417123
51
270.0874202
0
ARC
8
DEFAULT_255_2_778
10
15.6802929
20
56.4883669
40
1.6264365
50
188.5975683
51
241.8588041
0
ARC
8
DEFAULT_255_2_778
10
15.6923404
20
56.4872144
40
1.6381789
50
179.9816683
51
188.4947209
0
LINE
8
DEFAULT_255_2_778
10
14.0541615
20
56.4877385
11
14.0541615
21
56.4877385
0
ARC
8
DEFAULT_255_2_778
10
20.6793676
20
59.6173472
40
1.410141
50
37.0812903
51
90.0006706
0
ARC
8
DEFAULT_255_2_778
10
20.6792638
20
59.6174891
40
1.4099991
50
89.9964539
51
142.9215758
0
LINE
8
DEFAULT_255_2_778
10
19.2291511
20
60.4675882
11
19.2291511
21
58.8874882
0
LINE
8
DEFAULT_255_2_778
10
19.2291511
20
58.8874882
11
22.1292511
21
58.8874882
0
LINE
8
DEFAULT_255_2_778
10
22.1292511
20
58.8874882
11
22.1292511
21
60.4675882
0
LINE
8
DEFAULT_255_2_778
10
22.1292511
20
60.4675882
11
21.8043511
21
60.4675882
0
LINE
8
DEFAULT_255_2_778
10
19.5543511
20
60.4675882
11
19.2291511
21
60.4675882
0
ARC
8
DEFAULT_255_2_778
10
20.671982
20
56.4902043
40
1.6177224
50
151.8422222
51
180.0873324
0
ARC
8
DEFAULT_255_2_778
10
20.679864
20
56.4865605
40
1.6263911
50
98.5995563
51
151.8600801
0
ARC
8
DEFAULT_255_2_778
10
20.6786385
20
56.4747833
40
1.6378552
50
89.9817031
51
98.4955638
0
ARC
8
DEFAULT_255_2_778
10
20.6816217
20
56.4946175
40
1.6180229
50
62.1931218
51
90.087118
0
ARC
8
DEFAULT_255_2_778
10
20.6780521
20
56.4869953
40
1.6264303
50
8.6485674
51
62.2071531
0
ARC
8
DEFAULT_255_2_778
10
20.6663778
20
56.488263
40
1.6377839
50
359.981651
51
8.5433085
0
ARC
8
DEFAULT_255_2_778
10
20.6861735
20
56.485275
40
1.6179899
50
332.1926321
51
0.0872357
0
ARC
8
DEFAULT_255_2_778
10
20.6784932
20
56.4888999
40
1.6264743
50
278.6465625
51
332.205897
0
ARC
8
DEFAULT_255_2_778
10
20.6796871
20
56.5008451
40
1.6381067
50
269.981616
51
278.5424654
0
ARC
8
DEFAULT_255_2_778
10
20.6766933
20
56.4804269
40
1.6176903
50
241.8417123
51
270.0874202
0
ARC
8
DEFAULT_255_2_778
10
20.6803929
20
56.4883669
40
1.6264365
50
188.5975683
51
241.8588041
0
ARC
8
DEFAULT_255_2_778
10
20.6924404
20
56.4872144
40
1.6381789
50
179.9816683
51
188.4947209
0
LINE
8
DEFAULT_255_2_778
10
19.0542615
20
56.4877385
11
19.0542615
21
56.4877385
0
ARC
8
DEFAULT_255_2_778
10
15.6792239
20
67.1174339
40
1.410141
50
37.0812903
51
90.0006706
0
ARC
8
DEFAULT_255_2_778
10
15.6791202
20
67.1175758
40
1.4099991
50
89.9964539
51
142.9215758
0
ARC
8
DEFAULT_255_2_778
10
20.6790949
20
67.1175767
40
1.4099982
50
37.0783991
51
90.0035551
0
ARC
8
DEFAULT_255_2_778
10
20.6789199
20
67.1175761
40
1.4099988
50
89.9964425
51
142.9215799
0
LINE
8
DEFAULT_255_2_778
10
14.5539074
20
67.9676749
11
14.2290074
21
67.9676749
0
LINE
8
DEFAULT_255_2_778
10
14.2290074
20
67.9676749
11
14.2290074
21
66.3876749
0
LINE
8
DEFAULT_255_2_778
10
14.2290074
20
66.3876749
11
17.1291074
21
66.3876749
0
LINE
8
DEFAULT_255_2_778
10
17.1291074
20
66.3876749
11
17.1291074
21
67.9676749
0
LINE
8
DEFAULT_255_2_778
10
17.1291074
20
67.9676749
11
16.8042074
21
67.9676749
0
LINE
8
DEFAULT_255_2_778
10
19.5540074
20
67.9676749
11
19.2291074
21
67.9676749
0
LINE
8
DEFAULT_255_2_778
10
19.2291074
20
67.9676749
11
19.2291074
21
66.3876749
0
LINE
8
DEFAULT_255_2_778
10
19.2291074
20
66.3876749
11
22.1292074
21
66.3876749
0
LINE
8
DEFAULT_255_2_778
10
22.1292074
20
66.3876749
11
22.1292074
21
67.9676749
0
LINE
8
DEFAULT_255_2_778
10
22.1292074
20
67.9676749
11
21.8043074
21
67.9676749
0
LINE
8
DEFAULT_255_2_778
10
24.1792074
20
74.1277749
11
23.8791074
21
74.1277749
0
LINE
8
DEFAULT_255_2_778
10
23.8791074
20
74.3187749
11
24.1792074
21
74.3187749
0
ARC
8
DEFAULT_255_2_778
10
15.6792676
20
44.6175472
40
1.410141
50
37.0812903
51
90.0006706
0
ARC
8
DEFAULT_255_2_778
10
15.6791638
20
44.6176891
40
1.4099991
50
89.9964539
51
142.9215758
0
LINE
8
DEFAULT_255_2_778
10
14.2290511
20
43.8876882
11
17.1291511
21
43.8876882
0
LINE
8
DEFAULT_255_2_778
10
17.1291511
20
43.8876882
11
17.1291511
21
45.4677882
0
LINE
8
DEFAULT_255_2_778
10
17.1291511
20
45.4677882
11
16.8042511
21
45.4677882
0
LINE
8
DEFAULT_255_2_778
10
14.5542511
20
45.4677882
11
14.2293511
21
45.4677882
0
LINE
8
DEFAULT_255_2_778
10
14.2293511
20
45.4677882
11
14.2293511
21
43.8876882
0
ARC
8
DEFAULT_255_2_778
10
15.671882
20
41.4902043
40
1.6177224
50
151.8422222
51
180.0873324
0
ARC
8
DEFAULT_255_2_778
10
15.679764
20
41.4865605
40
1.6263911
50
98.5995563
51
151.8600801
0
ARC
8
DEFAULT_255_2_778
10
15.6785385
20
41.4747833
40
1.6378552
50
89.9817031
51
98.4955638
0
ARC
8
DEFAULT_255_2_778
10
15.6815217
20
41.4946175
40
1.6180229
50
62.1931218
51
90.087118
0
ARC
8
DEFAULT_255_2_778
10
15.6779521
20
41.4869953
40
1.6264303
50
8.6485674
51
62.2071531
0
ARC
8
DEFAULT_255_2_778
10
15.6662778
20
41.488263
40
1.6377839
50
359.981651
51
8.5433085
0
ARC
8
DEFAULT_255_2_778
10
15.6860735
20
41.485275
40
1.6179899
50
332.1926321
51
0.0872357
0
ARC
8
DEFAULT_255_2_778
10
15.6783932
20
41.4888999
40
1.6264743
50
278.6465625
51
332.205897
0
ARC
8
DEFAULT_255_2_778
10
15.6795871
20
41.5008451
40
1.6381067
50
269.981616
51
278.5424654
0
ARC
8
DEFAULT_255_2_778
10
15.6765933
20
41.4804269
40
1.6176903
50
241.8417123
51
270.0874202
0
ARC
8
DEFAULT_255_2_778
10
15.6802929
20
41.4883669
40
1.6264365
50
188.5975683
51
241.8588041
0
ARC
8
DEFAULT_255_2_778
10
15.6923404
20
41.4872144
40
1.6381789
50
179.9816683
51
188.4947209
0
LINE
8
DEFAULT_255_2_778
10
14.0541615
20
41.4877385
11
14.0541615
21
41.4877385
0
ARC
8
DEFAULT_255_2_778
10
20.6793676
20
44.6175472
40
1.410141
50
37.0812903
51
90.0006706
0
ARC
8
DEFAULT_255_2_778
10
20.6792638
20
44.6176891
40
1.4099991
50
89.9964539
51
142.9215758
0
LINE
8
DEFAULT_255_2_778
10
19.2291511
20
43.8876882
11
22.1292511
21
43.8876882
0
LINE
8
DEFAULT_255_2_778
10
22.1292511
20
43.8876882
11
22.1292511
21
45.4677882
0
LINE
8
DEFAULT_255_2_778
10
22.1292511
20
45.4677882
11
21.8043511
21
45.4677882
0
LINE
8
DEFAULT_255_2_778
10
19.5543511
20
45.4677882
11
19.2291511
21
45.4677882
0
LINE
8
DEFAULT_255_2_778
10
19.2291511
20
45.4677882
11
19.2291511
21
43.8876882
0
ARC
8
DEFAULT_255_2_778
10
20.671982
20
41.4902043
40
1.6177224
50
151.8422222
51
180.0873324
0
ARC
8
DEFAULT_255_2_778
10
20.679864
20
41.4865605
40
1.6263911
50
98.5995563
51
151.8600801
0
ARC
8
DEFAULT_255_2_778
10
20.6786385
20
41.4747833
40
1.6378552
50
89.9817031
51
98.4955638
0
ARC
8
DEFAULT_255_2_778
10
20.6816217
20
41.4946175
40
1.6180229
50
62.1931218
51
90.087118
0
ARC
8
DEFAULT_255_2_778
10
20.6780521
20
41.4869953
40
1.6264303
50
8.6485674
51
62.2071531
0
ARC
8
DEFAULT_255_2_778
10
20.6663778
20
41.488263
40
1.6377839
50
359.981651
51
8.5433085
0
ARC
8
DEFAULT_255_2_778
10
20.6861735
20
41.485275
40
1.6179899
50
332.1926321
51
0.0872357
0
ARC
8
DEFAULT_255_2_778
10
20.6784932
20
41.4888999
40
1.6264743
50
278.6465625
51
332.205897
0
ARC
8
DEFAULT_255_2_778
10
20.6796871
20
41.5008451
40
1.6381067
50
269.981616
51
278.5424654
0
ARC
8
DEFAULT_255_2_778
10
20.6766933
20
41.4804269
40
1.6176903
50
241.8417123
51
270.0874202
0
ARC
8
DEFAULT_255_2_778
10
20.6803929
20
41.4883669
40
1.6264365
50
188.5975683
51
241.8588041
0
ARC
8
DEFAULT_255_2_778
10
20.6924404
20
41.4872144
40
1.6381789
50
179.9816683
51
188.4947209
0
LINE
8
DEFAULT_255_2_778
10
19.0542615
20
41.4877385
11
19.0542615
21
41.4877385
0
ARC
8
DEFAULT_255_2_778
10
15.671882
20
63.9901043
40
1.6177224
50
151.8422222
51
180.0873324
0
ARC
8
DEFAULT_255_2_778
10
15.679764
20
63.9864605
40
1.6263911
50
98.5995563
51
151.8600801
0
ARC
8
DEFAULT_255_2_778
10
15.6785385
20
63.9746833
40
1.6378552
50
89.9817031
51
98.4955638
0
ARC
8
DEFAULT_255_2_778
10
15.6815217
20
63.9945175
40
1.6180229
50
62.1931218
51
90.087118
0
ARC
8
DEFAULT_255_2_778
10
15.6779521
20
63.9868953
40
1.6264303
50
8.6485674
51
62.2071531
0
ARC
8
DEFAULT_255_2_778
10
15.6662778
20
63.988163
40
1.6377839
50
359.981651
51
8.5433085
0
ARC
8
DEFAULT_255_2_778
10
15.6860735
20
63.985175
40
1.6179899
50
332.1926321
51
0.0872357
0
ARC
8
DEFAULT_255_2_778
10
15.6783932
20
63.9887999
40
1.6264743
50
278.6465625
51
332.205897
0
ARC
8
DEFAULT_255_2_778
10
15.6795871
20
64.0007451
40
1.6381067
50
269.981616
51
278.5424654
0
ARC
8
DEFAULT_255_2_778
10
15.6765933
20
63.9803269
40
1.6176903
50
241.8417123
51
270.0874202
0
ARC
8
DEFAULT_255_2_778
10
15.6802929
20
63.9882669
40
1.6264365
50
188.5975683
51
241.8588041
0
ARC
8
DEFAULT_255_2_778
10
15.6923404
20
63.9871144
40
1.6381789
50
179.9816683
51
188.4947209
0
LINE
8
DEFAULT_255_2_778
10
14.0541615
20
63.9876385
11
14.0541615
21
63.9876385
0
ARC
8
DEFAULT_255_2_778
10
20.671982
20
63.9901043
40
1.6177224
50
151.8422222
51
180.0873324
0
ARC
8
DEFAULT_255_2_778
10
20.679864
20
63.9864605
40
1.6263911
50
98.5995563
51
151.8600801
0
ARC
8
DEFAULT_255_2_778
10
20.6786385
20
63.9746833
40
1.6378552
50
89.9817031
51
98.4955638
0
ARC
8
DEFAULT_255_2_778
10
20.6816217
20
63.9945175
40
1.6180229
50
62.1931218
51
90.087118
0
ARC
8
DEFAULT_255_2_778
10
20.6780521
20
63.9868953
40
1.6264303
50
8.6485674
51
62.2071531
0
ARC
8
DEFAULT_255_2_778
10
20.6663778
20
63.988163
40
1.6377839
50
359.981651
51
8.5433085
0
ARC
8
DEFAULT_255_2_778
10
20.6861735
20
63.985175
40
1.6179899
50
332.1926321
51
0.0872357
0
ARC
8
DEFAULT_255_2_778
10
20.6784932
20
63.9887999
40
1.6264743
50
278.6465625
51
332.205897
0
ARC
8
DEFAULT_255_2_778
10
20.6796871
20
64.0007451
40
1.6381067
50
269.981616
51
278.5424654
0
ARC
8
DEFAULT_255_2_778
10
20.6766933
20
63.9803269
40
1.6176903
50
241.8417123
51
270.0874202
0
ARC
8
DEFAULT_255_2_778
10
20.6803929
20
63.9882669
40
1.6264365
50
188.5975683
51
241.8588041
0
ARC
8
DEFAULT_255_2_778
10
20.6924404
20
63.9871144
40
1.6381789
50
179.9816683
51
188.4947209
0
LINE
8
DEFAULT_255_2_778
10
19.0542615
20
63.9876385
11
19.0542615
21
63.9876385
0
LINE
8
DEFAULT_255_2_778
10
16.2790553
20
3.2278562
11
20.4790553
21
3.2278562
0
LINE
8
DEFAULT_255_2_778
10
16.2790553
20
1.8978562
11
20.4790553
21
1.8978562
0
LINE
8
DEFAULT_255_2_778
10
12.9791553
20
4.1478562
11
16.2790553
21
4.1478562
0
LINE
8
DEFAULT_255_2_778
10
19.8289553
20
1.1427562
11
19.8289553
21
-0.1812438
0
LINE
8
DEFAULT_255_2_778
10
19.8289553
20
-0.1812438
11
18.7290553
21
-0.1812438
0
LINE
8
DEFAULT_255_2_778
10
18.7290553
20
-0.1812438
11
18.7290553
21
1.1427562
0
LINE
8
DEFAULT_255_2_778
10
22.6790553
20
3.3186562
11
20.4790553
21
3.3186562
0
LINE
8
DEFAULT_255_2_778
10
16.2789887
20
5.7478239
11
16.2789887
21
1.1427239
0
LINE
8
DEFAULT_255_2_778
10
16.2789887
20
1.1427239
11
20.4789887
21
1.1427239
0
LINE
8
DEFAULT_255_2_778
10
20.4789887
20
1.1427239
11
20.4789887
21
5.7478239
0
LINE
8
DEFAULT_255_2_778
10
22.4789887
20
3.3189239
11
22.4789887
21
4.1479239
0
LINE
8
DEFAULT_255_2_778
10
20.4789887
20
4.1479239
11
24.1788887
21
4.1479239
0
LINE
8
DEFAULT_255_2_778
10
23.8290887
20
1.3187239
11
23.8290887
21
-0.1811761
0
LINE
8
DEFAULT_255_2_778
10
23.8290887
20
-0.1811761
11
24.9289887
21
-0.1811761
0
LINE
8
DEFAULT_255_2_778
10
24.9289887
20
-0.1811761
11
24.9289887
21
1.3187239
0
LINE
8
DEFAULT_255_2_778
10
20.4789887
20
2.3188239
11
22.6789887
21
2.3188239
0
ARC
8
DEFAULT_255_2_778
10
3.6792098
20
29.6175326
40
1.4098555
50
37.0755236
51
90.0064508
0
ARC
8
DEFAULT_255_2_778
10
3.6789638
20
29.6173891
40
1.4099991
50
89.9964539
51
142.9215758
0
LINE
8
DEFAULT_255_2_778
10
2.2291511
20
30.4674882
11
2.2291511
21
28.8873882
0
LINE
8
DEFAULT_255_2_778
10
2.2291511
20
28.8873882
11
5.1292511
21
28.8873882
0
LINE
8
DEFAULT_255_2_778
10
5.1292511
20
28.8873882
11
5.1292511
21
30.4674882
0
LINE
8
DEFAULT_255_2_778
10
5.1292511
20
30.4674882
11
4.8040511
21
30.4674882
0
LINE
8
DEFAULT_255_2_778
10
2.5540511
20
30.4674882
11
2.2291511
21
30.4674882
0
ARC
8
DEFAULT_255_2_778
10
3.6772107
20
26.4905488
40
1.6230195
50
179.9962003
51
180.1026273
0
ARC
8
DEFAULT_255_2_778
10
3.6761901
20
26.4907848
40
1.6219991
50
135.0034838
51
180.0045353
0
ARC
8
DEFAULT_255_2_778
10
3.6761849
20
26.4906626
40
1.6220819
50
89.9966758
51
135.0003015
0
ARC
8
DEFAULT_255_2_778
10
3.6763867
20
26.4897247
40
1.6230197
50
89.8973727
51
90.0037997
0
ARC
8
DEFAULT_255_2_778
10
3.6817596
20
26.4950211
40
1.6177224
50
61.8422222
51
90.0873324
0
ARC
8
DEFAULT_255_2_778
10
3.6781158
20
26.4871392
40
1.6263911
50
8.5995563
51
61.8600801
0
ARC
8
DEFAULT_255_2_778
10
3.6663386
20
26.4883647
40
1.6378552
50
359.9817031
51
8.4955638
0
ARC
8
DEFAULT_255_2_778
10
3.6861728
20
26.4853814
40
1.6180229
50
332.1931218
51
0.087118
0
ARC
8
DEFAULT_255_2_778
10
3.6785506
20
26.488951
40
1.6264303
50
278.6485674
51
332.2071531
0
ARC
8
DEFAULT_255_2_778
10
3.6798183
20
26.5006254
40
1.6377839
50
269.981651
51
278.5433085
0
ARC
8
DEFAULT_255_2_778
10
3.6763867
20
26.4858585
40
1.6230195
50
269.9962003
51
270.1026273
0
ARC
8
DEFAULT_255_2_778
10
3.6761849
20
26.4849207
40
1.6220819
50
224.9996985
51
270.0033242
0
ARC
8
DEFAULT_255_2_778
10
3.6761901
20
26.4847985
40
1.6219991
50
179.9954647
51
224.9965162
0
ARC
8
DEFAULT_255_2_778
10
3.6772107
20
26.4850345
40
1.6230197
50
179.8973727
51
180.0037997
0
LINE
8
DEFAULT_255_2_778
10
2.0541938
20
26.4879416
11
2.0541938
21
26.4876416
0
ARC
8
DEFAULT_255_2_778
10
8.6794676
20
29.6175472
40
1.410141
50
37.0812903
51
90.0006706
0
ARC
8
DEFAULT_255_2_778
10
8.6793638
20
29.6176891
40
1.4099991
50
89.9964539
51
142.9215758
0
LINE
8
DEFAULT_255_2_778
10
7.2292511
20
28.8876882
11
10.1293511
21
28.8876882
0
LINE
8
DEFAULT_255_2_778
10
10.1293511
20
28.8876882
11
10.1293511
21
30.4677882
0
LINE
8
DEFAULT_255_2_778
10
10.1293511
20
30.4677882
11
9.8044511
21
30.4677882
0
LINE
8
DEFAULT_255_2_778
10
7.5544511
20
30.4677882
11
7.2295511
21
30.4677882
0
LINE
8
DEFAULT_255_2_778
10
7.2295511
20
30.4677882
11
7.2295511
21
28.8876882
0
ARC
8
DEFAULT_255_2_778
10
8.671782
20
26.4902043
40
1.6177224
50
151.8422222
51
180.0873324
0
ARC
8
DEFAULT_255_2_778
10
8.679664
20
26.4865605
40
1.6263911
50
98.5995563
51
151.8600801
0
ARC
8
DEFAULT_255_2_778
10
8.6784385
20
26.4747833
40
1.6378552
50
89.9817031
51
98.4955638
0
ARC
8
DEFAULT_255_2_778
10
8.6814217
20
26.4946175
40
1.6180229
50
62.1931218
51
90.087118
0
ARC
8
DEFAULT_255_2_778
10
8.6778521
20
26.4869953
40
1.6264303
50
8.6485674
51
62.2071531
0
ARC
8
DEFAULT_255_2_778
10
8.6661778
20
26.488263
40
1.6377839
50
359.981651
51
8.5433085
0
ARC
8
DEFAULT_255_2_778
10
8.6859735
20
26.485275
40
1.6179899
50
332.1926321
51
0.0872357
0
ARC
8
DEFAULT_255_2_778
10
8.6782932
20
26.4888999
40
1.6264743
50
278.6465625
51
332.205897
0
ARC
8
DEFAULT_255_2_778
10
8.6794871
20
26.5008451
40
1.6381067
50
269.981616
51
278.5424654
0
ARC
8
DEFAULT_255_2_778
10
8.6764933
20
26.4804269
40
1.6176903
50
241.8417123
51
270.0874202
0
ARC
8
DEFAULT_255_2_778
10
8.6801929
20
26.4883669
40
1.6264365
50
188.5975683
51
241.8588041
0
ARC
8
DEFAULT_255_2_778
10
8.6922404
20
26.4872144
40
1.6381789
50
179.9816683
51
188.4947209
0
LINE
8
DEFAULT_255_2_778
10
7.0540615
20
26.4877385
11
7.0540615
21
26.4877385
0
ARC
8
DEFAULT_255_2_778
10
3.6792098
20
37.1177326
40
1.4098555
50
37.0755236
51
90.0064508
0
ARC
8
DEFAULT_255_2_778
10
3.6789638
20
37.1175891
40
1.4099991
50
89.9964539
51
142.9215758
0
LINE
8
DEFAULT_255_2_778
10
2.2291511
20
37.9676882
11
2.2291511
21
36.3875882
0
LINE
8
DEFAULT_255_2_778
10
2.2291511
20
36.3875882
11
5.1292511
21
36.3875882
0
LINE
8
DEFAULT_255_2_778
10
5.1292511
20
36.3875882
11
5.1292511
21
37.9676882
0
LINE
8
DEFAULT_255_2_778
10
5.1292511
20
37.9676882
11
4.8040511
21
37.9676882
0
LINE
8
DEFAULT_255_2_778
10
2.5540511
20
37.9676882
11
2.2291511
21
37.9676882
0
ARC
8
DEFAULT_255_2_778
10
3.6772107
20
33.9907488
40
1.6230195
50
179.9962003
51
180.1026273
0
ARC
8
DEFAULT_255_2_778
10
3.6761901
20
33.9909848
40
1.6219991
50
135.0034838
51
180.0045353
0
ARC
8
DEFAULT_255_2_778
10
3.6761849
20
33.9908626
40
1.6220819
50
89.9966758
51
135.0003015
0
ARC
8
DEFAULT_255_2_778
10
3.6763867
20
33.9899247
40
1.6230197
50
89.8973727
51
90.0037997
0
ARC
8
DEFAULT_255_2_778
10
3.681762
20
33.9952532
40
1.6176903
50
61.8417123
51
90.0874202
0
ARC
8
DEFAULT_255_2_778
10
3.6780624
20
33.9873133
40
1.6264365
50
8.5975683
51
61.8588041
0
ARC
8
DEFAULT_255_2_778
10
3.6660149
20
33.9884658
40
1.6381789
50
359.9816683
51
8.4947209
0
ARC
8
DEFAULT_255_2_778
10
3.6864733
20
33.9854758
40
1.6177224
50
331.8422222
51
0.0873324
0
ARC
8
DEFAULT_255_2_778
10
3.6785913
20
33.9891197
40
1.6263911
50
278.5995563
51
331.8600801
0
ARC
8
DEFAULT_255_2_778
10
3.6798168
20
34.0008968
40
1.6378552
50
269.9817031
51
278.4955638
0
ARC
8
DEFAULT_255_2_778
10
3.6763867
20
33.9860585
40
1.6230195
50
269.9962003
51
270.1026273
0
ARC
8
DEFAULT_255_2_778
10
3.6761849
20
33.9851207
40
1.6220819
50
224.9996985
51
270.0033242
0
ARC
8
DEFAULT_255_2_778
10
3.6761901
20
33.9849985
40
1.6219991
50
179.9954647
51
224.9965162
0
ARC
8
DEFAULT_255_2_778
10
3.6772107
20
33.9852345
40
1.6230197
50
179.8973727
51
180.0037997
0
LINE
8
DEFAULT_255_2_778
10
2.0541938
20
33.9881416
11
2.0541938
21
33.9878416
0
ARC
8
DEFAULT_255_2_778
10
8.6794676
20
37.1174472
40
1.410141
50
37.0812903
51
90.0006706
0
ARC
8
DEFAULT_255_2_778
10
8.6793638
20
37.1175891
40
1.4099991
50
89.9964539
51
142.9215758
0
LINE
8
DEFAULT_255_2_778
10
7.2292511
20
37.9676882
11
7.2292511
21
36.3875882
0
LINE
8
DEFAULT_255_2_778
10
7.2292511
20
36.3875882
11
10.1293511
21
36.3875882
0
LINE
8
DEFAULT_255_2_778
10
10.1293511
20
36.3875882
11
10.1293511
21
37.9676882
0
LINE
8
DEFAULT_255_2_778
10
10.1293511
20
37.9676882
11
9.8044511
21
37.9676882
0
LINE
8
DEFAULT_255_2_778
10
7.5544511
20
37.9676882
11
7.2295511
21
37.9676882
0
ARC
8
DEFAULT_255_2_778
10
8.671782
20
33.9903043
40
1.6177224
50
151.8422222
51
180.0873324
0
ARC
8
DEFAULT_255_2_778
10
8.679664
20
33.9866605
40
1.6263911
50
98.5995563
51
151.8600801
0
ARC
8
DEFAULT_255_2_778
10
8.6784385
20
33.9748833
40
1.6378552
50
89.9817031
51
98.4955638
0
ARC
8
DEFAULT_255_2_778
10
8.6814217
20
33.9947175
40
1.6180229
50
62.1931218
51
90.087118
0
ARC
8
DEFAULT_255_2_778
10
8.6778521
20
33.9870953
40
1.6264303
50
8.6485674
51
62.2071531
0
ARC
8
DEFAULT_255_2_778
10
8.6661778
20
33.988363
40
1.6377839
50
359.981651
51
8.5433085
0
ARC
8
DEFAULT_255_2_778
10
8.6859735
20
33.985375
40
1.6179899
50
332.1926321
51
0.0872357
0
ARC
8
DEFAULT_255_2_778
10
8.6782932
20
33.9889999
40
1.6264743
50
278.6465625
51
332.205897
0
ARC
8
DEFAULT_255_2_778
10
8.6794871
20
34.0009451
40
1.6381067
50
269.981616
51
278.5424654
0
ARC
8
DEFAULT_255_2_778
10
8.6764933
20
33.9805269
40
1.6176903
50
241.8417123
51
270.0874202
0
ARC
8
DEFAULT_255_2_778
10
8.6801929
20
33.9884669
40
1.6264365
50
188.5975683
51
241.8588041
0
ARC
8
DEFAULT_255_2_778
10
8.6922404
20
33.9873144
40
1.6381789
50
179.9816683
51
188.4947209
0
LINE
8
DEFAULT_255_2_778
10
7.0540615
20
33.9878385
11
7.0540615
21
33.9878385
0
ARC
8
DEFAULT_255_2_778
10
3.6792098
20
52.1177326
40
1.4098555
50
37.0755236
51
90.0064508
0
ARC
8
DEFAULT_255_2_778
10
3.6789638
20
52.1175891
40
1.4099991
50
89.9964539
51
142.9215758
0
LINE
8
DEFAULT_255_2_778
10
2.2291511
20
52.9676882
11
2.2291511
21
51.3875882
0
LINE
8
DEFAULT_255_2_778
10
2.2291511
20
51.3875882
11
5.1292511
21
51.3875882
0
LINE
8
DEFAULT_255_2_778
10
5.1292511
20
51.3875882
11
5.1292511
21
52.9676882
0
LINE
8
DEFAULT_255_2_778
10
5.1292511
20
52.9676882
11
4.8040511
21
52.9676882
0
LINE
8
DEFAULT_255_2_778
10
2.5540511
20
52.9676882
11
2.2291511
21
52.9676882
0
ARC
8
DEFAULT_255_2_778
10
3.6772107
20
48.9904488
40
1.6230195
50
179.9962003
51
180.1026273
0
ARC
8
DEFAULT_255_2_778
10
3.6761901
20
48.9906848
40
1.6219991
50
135.0034838
51
180.0045353
0
ARC
8
DEFAULT_255_2_778
10
3.6761849
20
48.9905626
40
1.6220819
50
89.9966758
51
135.0003015
0
ARC
8
DEFAULT_255_2_778
10
3.6763867
20
48.9896247
40
1.6230197
50
89.8973727
51
90.0037997
0
ARC
8
DEFAULT_255_2_778
10
3.6817596
20
48.9949211
40
1.6177224
50
61.8422222
51
90.0873324
0
ARC
8
DEFAULT_255_2_778
10
3.6781158
20
48.9870392
40
1.6263911
50
8.5995563
51
61.8600801
0
ARC
8
DEFAULT_255_2_778
10
3.6663386
20
48.9882647
40
1.6378552
50
359.9817031
51
8.4955638
0
ARC
8
DEFAULT_255_2_778
10
3.6861728
20
48.9852814
40
1.6180229
50
332.1931218
51
0.087118
0
ARC
8
DEFAULT_255_2_778
10
3.6785506
20
48.988851
40
1.6264303
50
278.6485674
51
332.2071531
0
ARC
8
DEFAULT_255_2_778
10
3.6798183
20
49.0005254
40
1.6377839
50
269.981651
51
278.5433085
0
ARC
8
DEFAULT_255_2_778
10
3.6763867
20
48.9857585
40
1.6230195
50
269.9962003
51
270.1026273
0
ARC
8
DEFAULT_255_2_778
10
3.6761849
20
48.9848207
40
1.6220819
50
224.9996985
51
270.0033242
0
ARC
8
DEFAULT_255_2_778
10
3.6761901
20
48.9846985
40
1.6219991
50
179.9954647
51
224.9965162
0
ARC
8
DEFAULT_255_2_778
10
3.6772107
20
48.9849345
40
1.6230197
50
179.8973727
51
180.0037997
0
LINE
8
DEFAULT_255_2_778
10
2.0541938
20
48.9878416
11
2.0541938
21
48.9875416
0
ARC
8
DEFAULT_255_2_778
10
8.6794385
20
52.1178899
40
1.4099984
50
37.0784003
51
90.0035516
0
ARC
8
DEFAULT_255_2_778
10
8.6792638
20
52.1178891
40
1.4099991
50
89.9964539
51
142.9215758
0
LINE
8
DEFAULT_255_2_778
10
10.1292511
20
51.3878882
11
10.1292511
21
52.9679882
0
LINE
8
DEFAULT_255_2_778
10
10.1292511
20
52.9679882
11
9.8043511
21
52.9679882
0
LINE
8
DEFAULT_255_2_778
10
7.5543511
20
52.9679882
11
7.2294511
21
52.9679882
0
LINE
8
DEFAULT_255_2_778
10
7.2294511
20
52.9679882
11
7.2294511
21
51.3878882
0
LINE
8
DEFAULT_255_2_778
10
7.2294511
20
51.3878882
11
10.1295511
21
51.3878882
0
ARC
8
DEFAULT_255_2_778
10
8.671782
20
48.9901043
40
1.6177224
50
151.8422222
51
180.0873324
0
ARC
8
DEFAULT_255_2_778
10
8.679664
20
48.9864605
40
1.6263911
50
98.5995563
51
151.8600801
0
ARC
8
DEFAULT_255_2_778
10
8.6784385
20
48.9746833
40
1.6378552
50
89.9817031
51
98.4955638
0
ARC
8
DEFAULT_255_2_778
10
8.6814217
20
48.9945175
40
1.6180229
50
62.1931218
51
90.087118
0
ARC
8
DEFAULT_255_2_778
10
8.6778521
20
48.9868953
40
1.6264303
50
8.6485674
51
62.2071531
0
ARC
8
DEFAULT_255_2_778
10
8.6661778
20
48.988163
40
1.6377839
50
359.981651
51
8.5433085
0
ARC
8
DEFAULT_255_2_778
10
8.6859735
20
48.985175
40
1.6179899
50
332.1926321
51
0.0872357
0
ARC
8
DEFAULT_255_2_778
10
8.6782932
20
48.9887999
40
1.6264743
50
278.6465625
51
332.205897
0
ARC
8
DEFAULT_255_2_778
10
8.6794871
20
49.0007451
40
1.6381067
50
269.981616
51
278.5424654
0
ARC
8
DEFAULT_255_2_778
10
8.6764933
20
48.9803269
40
1.6176903
50
241.8417123
51
270.0874202
0
ARC
8
DEFAULT_255_2_778
10
8.6801929
20
48.9882669
40
1.6264365
50
188.5975683
51
241.8588041
0
ARC
8
DEFAULT_255_2_778
10
8.6922404
20
48.9871144
40
1.6381789
50
179.9816683
51
188.4947209
0
LINE
8
DEFAULT_255_2_778
10
7.0540615
20
48.9876385
11
7.0540615
21
48.9876385
0
ARC
8
DEFAULT_255_2_778
10
3.6792098
20
59.6176326
40
1.4098555
50
37.0755236
51
90.0064508
0
ARC
8
DEFAULT_255_2_778
10
3.6789638
20
59.6174891
40
1.4099991
50
89.9964539
51
142.9215758
0
LINE
8
DEFAULT_255_2_778
10
2.2291511
20
60.4675882
11
2.2291511
21
58.8874882
0
LINE
8
DEFAULT_255_2_778
10
2.2291511
20
58.8874882
11
5.1292511
21
58.8874882
0
LINE
8
DEFAULT_255_2_778
10
5.1292511
20
58.8874882
11
5.1292511
21
60.4675882
0
LINE
8
DEFAULT_255_2_778
10
5.1292511
20
60.4675882
11
4.8040511
21
60.4675882
0
LINE
8
DEFAULT_255_2_778
10
2.5540511
20
60.4675882
11
2.2291511
21
60.4675882
0
ARC
8
DEFAULT_255_2_778
10
3.6772107
20
56.4906488
40
1.6230195
50
179.9962003
51
180.1026273
0
ARC
8
DEFAULT_255_2_778
10
3.6761901
20
56.4908848
40
1.6219991
50
135.0034838
51
180.0045353
0
ARC
8
DEFAULT_255_2_778
10
3.6761849
20
56.4907626
40
1.6220819
50
89.9966758
51
135.0003015
0
ARC
8
DEFAULT_255_2_778
10
3.6763867
20
56.4898247
40
1.6230197
50
89.8973727
51
90.0037997
0
ARC
8
DEFAULT_255_2_778
10
3.681762
20
56.4951532
40
1.6176903
50
61.8417123
51
90.0874202
0
ARC
8
DEFAULT_255_2_778
10
3.6780624
20
56.4872133
40
1.6264365
50
8.5975683
51
61.8588041
0
ARC
8
DEFAULT_255_2_778
10
3.6660149
20
56.4883658
40
1.6381789
50
359.9816683
51
8.4947209
0
ARC
8
DEFAULT_255_2_778
10
3.6864733
20
56.4853758
40
1.6177224
50
331.8422222
51
0.0873324
0
ARC
8
DEFAULT_255_2_778
10
3.6785913
20
56.4890197
40
1.6263911
50
278.5995563
51
331.8600801
0
ARC
8
DEFAULT_255_2_778
10
3.6798168
20
56.5007968
40
1.6378552
50
269.9817031
51
278.4955638
0
ARC
8
DEFAULT_255_2_778
10
3.6763867
20
56.4859585
40
1.6230195
50
269.9962003
51
270.1026273
0
ARC
8
DEFAULT_255_2_778
10
3.6761849
20
56.4850207
40
1.6220819
50
224.9996985
51
270.0033242
0
ARC
8
DEFAULT_255_2_778
10
3.6761901
20
56.4848985
40
1.6219991
50
179.9954647
51
224.9965162
0
ARC
8
DEFAULT_255_2_778
10
3.6772107
20
56.4851345
40
1.6230197
50
179.8973727
51
180.0037997
0
LINE
8
DEFAULT_255_2_778
10
2.0541938
20
56.4880416
11
2.0541938
21
56.4877416
0
ARC
8
DEFAULT_255_2_778
10
8.6794676
20
59.6173472
40
1.410141
50
37.0812903
51
90.0006706
0
ARC
8
DEFAULT_255_2_778
10
8.6793638
20
59.6174891
40
1.4099991
50
89.9964539
51
142.9215758
0
LINE
8
DEFAULT_255_2_778
10
7.2292511
20
60.4675882
11
7.2292511
21
58.8874882
0
LINE
8
DEFAULT_255_2_778
10
7.2292511
20
58.8874882
11
10.1293511
21
58.8874882
0
LINE
8
DEFAULT_255_2_778
10
10.1293511
20
58.8874882
11
10.1293511
21
60.4675882
0
LINE
8
DEFAULT_255_2_778
10
10.1293511
20
60.4675882
11
9.8044511
21
60.4675882
0
LINE
8
DEFAULT_255_2_778
10
7.5544511
20
60.4675882
11
7.2295511
21
60.4675882
0
ARC
8
DEFAULT_255_2_778
10
8.671782
20
56.4902043
40
1.6177224
50
151.8422222
51
180.0873324
0
ARC
8
DEFAULT_255_2_778
10
8.679664
20
56.4865605
40
1.6263911
50
98.5995563
51
151.8600801
0
ARC
8
DEFAULT_255_2_778
10
8.6784385
20
56.4747833
40
1.6378552
50
89.9817031
51
98.4955638
0
ARC
8
DEFAULT_255_2_778
10
8.6814217
20
56.4946175
40
1.6180229
50
62.1931218
51
90.087118
0
ARC
8
DEFAULT_255_2_778
10
8.6778521
20
56.4869953
40
1.6264303
50
8.6485674
51
62.2071531
0
ARC
8
DEFAULT_255_2_778
10
8.6661778
20
56.488263
40
1.6377839
50
359.981651
51
8.5433085
0
ARC
8
DEFAULT_255_2_778
10
8.6859735
20
56.485275
40
1.6179899
50
332.1926321
51
0.0872357
0
ARC
8
DEFAULT_255_2_778
10
8.6782932
20
56.4888999
40
1.6264743
50
278.6465625
51
332.205897
0
ARC
8
DEFAULT_255_2_778
10
8.6794871
20
56.5008451
40
1.6381067
50
269.981616
51
278.5424654
0
ARC
8
DEFAULT_255_2_778
10
8.6764933
20
56.4804269
40
1.6176903
50
241.8417123
51
270.0874202
0
ARC
8
DEFAULT_255_2_778
10
8.6801929
20
56.4883669
40
1.6264365
50
188.5975683
51
241.8588041
0
ARC
8
DEFAULT_255_2_778
10
8.6922404
20
56.4872144
40
1.6381789
50
179.9816683
51
188.4947209
0
LINE
8
DEFAULT_255_2_778
10
7.0540615
20
56.4877385
11
7.0540615
21
56.4877385
0
ARC
8
DEFAULT_255_2_778
10
3.6790555
20
67.1175492
40
1.4101425
50
37.0813204
51
90.0006401
0
ARC
8
DEFAULT_255_2_778
10
3.6790951
20
67.1174061
40
1.4102856
50
90.0022498
51
142.9157842
0
ARC
8
DEFAULT_255_2_778
10
8.6790844
20
67.1174064
40
1.4102853
50
37.0842098
51
89.9977524
0
ARC
8
DEFAULT_255_2_778
10
8.6791952
20
67.117406
40
1.4102857
50
90.0022533
51
142.9157829
0
LINE
8
DEFAULT_255_2_778
10
2.5540397
20
67.9677917
11
2.2291397
21
67.9677917
0
LINE
8
DEFAULT_255_2_778
10
2.2291397
20
67.9677917
11
2.2291397
21
66.3876917
0
LINE
8
DEFAULT_255_2_778
10
2.2291397
20
66.3876917
11
5.1292397
21
66.3876917
0
LINE
8
DEFAULT_255_2_778
10
5.1292397
20
66.3876917
11
5.1292397
21
67.9677917
0
LINE
8
DEFAULT_255_2_778
10
5.1292397
20
67.9677917
11
4.8040397
21
67.9677917
0
LINE
8
DEFAULT_255_2_778
10
7.5541397
20
67.9677917
11
7.2292397
21
67.9677917
0
LINE
8
DEFAULT_255_2_778
10
7.2292397
20
67.9677917
11
7.2292397
21
66.3876917
0
LINE
8
DEFAULT_255_2_778
10
7.2292397
20
66.3876917
11
10.1293397
21
66.3876917
0
LINE
8
DEFAULT_255_2_778
10
10.1293397
20
66.3876917
11
10.1293397
21
67.9677917
0
LINE
8
DEFAULT_255_2_778
10
10.1293397
20
67.9677917
11
9.8044397
21
67.9677917
0
LINE
8
DEFAULT_255_2_778
10
12.1790397
20
2.2777917
11
12.1790397
21
74.1277917
0
LINE
8
DEFAULT_255_2_778
10
12.1790397
20
74.1277917
11
11.8790397
21
74.1277917
0
ARC
8
DEFAULT_255_2_778
10
3.6790083
20
44.6174562
40
1.4102855
50
37.084211
51
89.9977489
0
ARC
8
DEFAULT_255_2_778
10
3.6791192
20
44.617456
40
1.4102857
50
90.0022533
51
142.9157829
0
LINE
8
DEFAULT_255_2_778
10
13.9790637
20
74.1277417
11
12.1790637
21
74.1277417
0
LINE
8
DEFAULT_255_2_778
10
12.1790637
20
74.1277417
11
12.1790637
21
2.2777417
0
LINE
8
DEFAULT_255_2_778
10
12.1790637
20
2.2777417
11
12.9791637
21
2.2777417
0
LINE
8
DEFAULT_255_2_778
10
12.9791637
20
2.2777417
11
12.9791637
21
5.7477417
0
LINE
8
DEFAULT_255_2_778
10
1.9791637
20
74.1277417
11
0.1791637
21
74.1277417
0
LINE
8
DEFAULT_255_2_778
10
0.1791637
20
74.3187417
11
1.6790637
21
74.3187417
0
LINE
8
DEFAULT_255_2_778
10
1.6790637
20
74.3187417
11
1.6790637
21
77.5186417
0
LINE
8
DEFAULT_255_2_778
10
1.6790637
20
77.5186417
11
1.9791637
21
77.5186417
0
LINE
8
DEFAULT_255_2_778
10
2.2291637
20
43.8877417
11
5.1292637
21
43.8877417
0
LINE
8
DEFAULT_255_2_778
10
5.1292637
20
43.8877417
11
5.1292637
21
45.4678417
0
LINE
8
DEFAULT_255_2_778
10
5.1292637
20
45.4678417
11
4.8040637
21
45.4678417
0
LINE
8
DEFAULT_255_2_778
10
2.5540637
20
45.4678417
11
2.2291637
21
45.4678417
0
LINE
8
DEFAULT_255_2_778
10
2.2291637
20
45.4678417
11
2.2291637
21
43.8877417
0
ARC
8
DEFAULT_255_2_778
10
3.6772107
20
41.4905488
40
1.6230195
50
179.9962003
51
180.1026273
0
ARC
8
DEFAULT_255_2_778
10
3.6761901
20
41.4907848
40
1.6219991
50
135.0034838
51
180.0045353
0
ARC
8
DEFAULT_255_2_778
10
3.6761849
20
41.4906626
40
1.6220819
50
89.9966758
51
135.0003015
0
ARC
8
DEFAULT_255_2_778
10
3.6763867
20
41.4897247
40
1.6230197
50
89.8973727
51
90.0037997
0
ARC
8
DEFAULT_255_2_778
10
3.6817596
20
41.4950211
40
1.6177224
50
61.8422222
51
90.0873324
0
ARC
8
DEFAULT_255_2_778
10
3.6781158
20
41.4871392
40
1.6263911
50
8.5995563
51
61.8600801
0
ARC
8
DEFAULT_255_2_778
10
3.6663386
20
41.4883647
40
1.6378552
50
359.9817031
51
8.4955638
0
ARC
8
DEFAULT_255_2_778
10
3.6861728
20
41.4853814
40
1.6180229
50
332.1931218
51
0.087118
0
ARC
8
DEFAULT_255_2_778
10
3.6785506
20
41.488951
40
1.6264303
50
278.6485674
51
332.2071531
0
ARC
8
DEFAULT_255_2_778
10
3.6798183
20
41.5006254
40
1.6377839
50
269.981651
51
278.5433085
0
ARC
8
DEFAULT_255_2_778
10
3.6763867
20
41.4858585
40
1.6230195
50
269.9962003
51
270.1026273
0
ARC
8
DEFAULT_255_2_778
10
3.6761849
20
41.4849207
40
1.6220819
50
224.9996985
51
270.0033242
0
ARC
8
DEFAULT_255_2_778
10
3.6761901
20
41.4847985
40
1.6219991
50
179.9954647
51
224.9965162
0
ARC
8
DEFAULT_255_2_778
10
3.6772107
20
41.4850345
40
1.6230197
50
179.8973727
51
180.0037997
0
LINE
8
DEFAULT_255_2_778
10
2.0541938
20
41.4879416
11
2.0541938
21
41.4876416
0
ARC
8
DEFAULT_255_2_778
10
8.6794676
20
44.6175472
40
1.410141
50
37.0812903
51
90.0006706
0
ARC
8
DEFAULT_255_2_778
10
8.6793638
20
44.6176891
40
1.4099991
50
89.9964539
51
142.9215758
0
LINE
8
DEFAULT_255_2_778
10
7.2292511
20
43.8876882
11
10.1293511
21
43.8876882
0
LINE
8
DEFAULT_255_2_778
10
10.1293511
20
43.8876882
11
10.1293511
21
45.4677882
0
LINE
8
DEFAULT_255_2_778
10
10.1293511
20
45.4677882
11
9.8044511
21
45.4677882
0
LINE
8
DEFAULT_255_2_778
10
7.5544511
20
45.4677882
11
7.2295511
21
45.4677882
0
LINE
8
DEFAULT_255_2_778
10
7.2295511
20
45.4677882
11
7.2295511
21
43.8876882
0
ARC
8
DEFAULT_255_2_778
10
8.671782
20
41.4902043
40
1.6177224
50
151.8422222
51
180.0873324
0
ARC
8
DEFAULT_255_2_778
10
8.679664
20
41.4865605
40
1.6263911
50
98.5995563
51
151.8600801
0
ARC
8
DEFAULT_255_2_778
10
8.6784385
20
41.4747833
40
1.6378552
50
89.9817031
51
98.4955638
0
ARC
8
DEFAULT_255_2_778
10
8.6814217
20
41.4946175
40
1.6180229
50
62.1931218
51
90.087118
0
ARC
8
DEFAULT_255_2_778
10
8.6778521
20
41.4869953
40
1.6264303
50
8.6485674
51
62.2071531
0
ARC
8
DEFAULT_255_2_778
10
8.6661778
20
41.488263
40
1.6377839
50
359.981651
51
8.5433085
0
ARC
8
DEFAULT_255_2_778
10
8.6859735
20
41.485275
40
1.6179899
50
332.1926321
51
0.0872357
0
ARC
8
DEFAULT_255_2_778
10
8.6782932
20
41.4888999
40
1.6264743
50
278.6465625
51
332.205897
0
ARC
8
DEFAULT_255_2_778
10
8.6794871
20
41.5008451
40
1.6381067
50
269.981616
51
278.5424654
0
ARC
8
DEFAULT_255_2_778
10
8.6764933
20
41.4804269
40
1.6176903
50
241.8417123
51
270.0874202
0
ARC
8
DEFAULT_255_2_778
10
8.6801929
20
41.4883669
40
1.6264365
50
188.5975683
51
241.8588041
0
ARC
8
DEFAULT_255_2_778
10
8.6922404
20
41.4872144
40
1.6381789
50
179.9816683
51
188.4947209
0
LINE
8
DEFAULT_255_2_778
10
7.0540615
20
41.4877385
11
7.0540615
21
41.4877385
0
ARC
8
DEFAULT_255_2_778
10
3.6772107
20
63.9904488
40
1.6230195
50
179.9962003
51
180.1026273
0
ARC
8
DEFAULT_255_2_778
10
3.6761901
20
63.9906848
40
1.6219991
50
135.0034838
51
180.0045353
0
ARC
8
DEFAULT_255_2_778
10
3.6761849
20
63.9905626
40
1.6220819
50
89.9966758
51
135.0003015
0
ARC
8
DEFAULT_255_2_778
10
3.6763867
20
63.9896247
40
1.6230197
50
89.8973727
51
90.0037997
0
ARC
8
DEFAULT_255_2_778
10
3.6817596
20
63.9949211
40
1.6177224
50
61.8422222
51
90.0873324
0
ARC
8
DEFAULT_255_2_778
10
3.6781158
20
63.9870392
40
1.6263911
50
8.5995563
51
61.8600801
0
ARC
8
DEFAULT_255_2_778
10
3.6663386
20
63.9882647
40
1.6378552
50
359.9817031
51
8.4955638
0
ARC
8
DEFAULT_255_2_778
10
3.6861728
20
63.9852814
40
1.6180229
50
332.1931218
51
0.087118
0
ARC
8
DEFAULT_255_2_778
10
3.6785506
20
63.988851
40
1.6264303
50
278.6485674
51
332.2071531
0
ARC
8
DEFAULT_255_2_778
10
3.6798183
20
64.0005254
40
1.6377839
50
269.981651
51
278.5433085
0
ARC
8
DEFAULT_255_2_778
10
3.6763867
20
63.9857585
40
1.6230195
50
269.9962003
51
270.1026273
0
ARC
8
DEFAULT_255_2_778
10
3.6761849
20
63.9848207
40
1.6220819
50
224.9996985
51
270.0033242
0
ARC
8
DEFAULT_255_2_778
10
3.6761901
20
63.9846985
40
1.6219991
50
179.9954647
51
224.9965162
0
ARC
8
DEFAULT_255_2_778
10
3.6772107
20
63.9849345
40
1.6230197
50
179.8973727
51
180.0037997
0
LINE
8
DEFAULT_255_2_778
10
2.0541938
20
63.9878416
11
2.0541938
21
63.9875416
0
ARC
8
DEFAULT_255_2_778
10
8.671782
20
63.9901043
40
1.6177224
50
151.8422222
51
180.0873324
0
ARC
8
DEFAULT_255_2_778
10
8.679664
20
63.9864605
40
1.6263911
50
98.5995563
51
151.8600801
0
ARC
8
DEFAULT_255_2_778
10
8.6784385
20
63.9746833
40
1.6378552
50
89.9817031
51
98.4955638
0
ARC
8
DEFAULT_255_2_778
10
8.6814217
20
63.9945175
40
1.6180229
50
62.1931218
51
90.087118
0
ARC
8
DEFAULT_255_2_778
10
8.6778521
20
63.9868953
40
1.6264303
50
8.6485674
51
62.2071531
0
ARC
8
DEFAULT_255_2_778
10
8.6661778
20
63.988163
40
1.6377839
50
359.981651
51
8.5433085
0
ARC
8
DEFAULT_255_2_778
10
8.6859735
20
63.985175
40
1.6179899
50
332.1926321
51
0.0872357
0
ARC
8
DEFAULT_255_2_778
10
8.6782932
20
63.9887999
40
1.6264743
50
278.6465625
51
332.205897
0
ARC
8
DEFAULT_255_2_778
10
8.6794871
20
64.0007451
40
1.6381067
50
269.981616
51
278.5424654
0
ARC
8
DEFAULT_255_2_778
10
8.6764933
20
63.9803269
40
1.6176903
50
241.8417123
51
270.0874202
0
ARC
8
DEFAULT_255_2_778
10
8.6801929
20
63.9882669
40
1.6264365
50
188.5975683
51
241.8588041
0
ARC
8
DEFAULT_255_2_778
10
8.6922404
20
63.9871144
40
1.6381789
50
179.9816683
51
188.4947209
0
LINE
8
DEFAULT_255_2_778
10
7.0540615
20
63.9876385
11
7.0540615
21
63.9876385
0
LINE
8
DEFAULT_255_2_778
10
4.2791553
20
3.2278562
11
8.4791553
21
3.2278562
0
LINE
8
DEFAULT_255_2_778
10
4.2791553
20
1.8978562
11
8.4791553
21
1.8978562
0
LINE
8
DEFAULT_255_2_778
10
0.9792553
20
4.1478562
11
4.2791553
21
4.1478562
0
LINE
8
DEFAULT_255_2_778
10
7.8290553
20
1.1427562
11
7.8290553
21
-0.1812438
0
LINE
8
DEFAULT_255_2_778
10
7.8290553
20
-0.1812438
11
6.7291553
21
-0.1812438
0
LINE
8
DEFAULT_255_2_778
10
6.7291553
20
-0.1812438
11
6.7291553
21
1.1427562
0
LINE
8
DEFAULT_255_2_778
10
10.6791553
20
3.3186562
11
8.4791553
21
3.3186562
0
LINE
8
DEFAULT_255_2_778
10
4.2790513
20
5.7478089
11
4.2790513
21
1.1428089
0
LINE
8
DEFAULT_255_2_778
10
4.2790513
20
1.1428089
11
8.4790513
21
1.1428089
0
LINE
8
DEFAULT_255_2_778
10
8.4790513
20
1.1428089
11
8.4790513
21
5.7478089
0
LINE
8
DEFAULT_255_2_778
10
10.4790513
20
3.3190089
11
10.4790513
21
4.1479089
0
LINE
8
DEFAULT_255_2_778
10
8.4790513
20
4.1479089
11
12.1790513
21
4.1479089
0
LINE
8
DEFAULT_255_2_778
10
11.8292513
20
1.3187089
11
11.8292513
21
-0.1811911
0
LINE
8
DEFAULT_255_2_778
10
11.8292513
20
-0.1811911
11
12.9291513
21
-0.1811911
0
LINE
8
DEFAULT_255_2_778
10
12.9291513
20
-0.1811911
11
12.9291513
21
1.3187089
0
LINE
8
DEFAULT_255_2_778
10
8.4790513
20
2.3188089
11
10.6790513
21
2.3188089
0
LINE
8
DEFAULT_255_2_778
10
3.5289513
20
100.8367089
11
3.5289513
21
97.3011089
0
LINE
8
DEFAULT_255_2_778
10
3.5289513
20
97.3011089
11
11.0288513
21
97.3011089
0
LINE
8
DEFAULT_255_2_778
10
11.0288513
20
97.3011089
11
3.5289513
21
97.3011089
0
LINE
8
DEFAULT_255_2_778
10
3.5289513
20
97.3011089
11
3.5289513
21
100.8367089
0
LINE
8
DEFAULT_255_2_778
10
3.5289513
20
100.8367089
11
11.0288513
21
100.8367089
0
LINE
8
DEFAULT_255_2_778
10
11.0288513
20
100.8367089
11
11.0288513
21
97.3011089
0
LINE
8
DEFAULT_255_2_778
10
11.0288513
20
97.3011089
11
11.0288513
21
100.8367089
0
LINE
8
DEFAULT_255_2_778
10
11.0288513
20
100.8367089
11
3.5289513
21
100.8367089
0
LINE
8
DEFAULT_255_2_778
10
10.6790513
20
101.3188089
11
10.6790513
21
104.3189089
0
LINE
8
DEFAULT_255_2_778
10
10.6790513
20
104.3189089
11
9.1791513
21
105.8188089
0
LINE
8
DEFAULT_255_2_778
10
9.1791513
20
105.8188089
11
4.1790513
21
105.8188089
0
LINE
8
DEFAULT_255_2_778
10
4.1790513
20
105.8188089
11
2.6791513
21
104.3189089
0
LINE
8
DEFAULT_255_2_778
10
2.6791513
20
104.3189089
11
2.6791513
21
101.3188089
0
LINE
8
DEFAULT_255_2_778
10
15.5291513
20
100.8367089
11
15.5291513
21
97.3011089
0
LINE
8
DEFAULT_255_2_778
10
15.5291513
20
97.3011089
11
23.0290513
21
97.3011089
0
LINE
8
DEFAULT_255_2_778
10
23.0290513
20
97.3011089
11
15.5291513
21
97.3011089
0
LINE
8
DEFAULT_255_2_778
10
15.5291513
20
97.3011089
11
15.5291513
21
100.8367089
0
LINE
8
DEFAULT_255_2_778
10
15.5291513
20
100.8367089
11
23.0290513
21
100.8367089
0
LINE
8
DEFAULT_255_2_778
10
23.0290513
20
100.8367089
11
23.0290513
21
97.3011089
0
LINE
8
DEFAULT_255_2_778
10
23.0290513
20
97.3011089
11
23.0290513
21
100.8367089
0
LINE
8
DEFAULT_255_2_778
10
23.0290513
20
100.8367089
11
15.5291513
21
100.8367089
0
LINE
8
DEFAULT_255_2_778
10
22.6790513
20
101.3188089
11
22.6790513
21
104.3189089
0
LINE
8
DEFAULT_255_2_778
10
22.6790513
20
104.3189089
11
21.1790513
21
105.8188089
0
LINE
8
DEFAULT_255_2_778
10
21.1790513
20
105.8188089
11
16.1789513
21
105.8188089
0
LINE
8
DEFAULT_255_2_778
10
16.1789513
20
105.8188089
11
14.6790513
21
104.3189089
0
LINE
8
DEFAULT_255_2_778
10
14.6790513
20
104.3189089
11
14.6790513
21
101.3188089
0
ENDSEC
0
EOF