0
SECTION
2
HEADER
9
$MEASUREMENT
70
1
0
ENDSEC
0
SECTION
2
TABLES
0
TABLE
2
LTYPE
0
LTYPE
72
65
70
64
2
CONTINUOUS
3
______
73
0
40
0
0
ENDTAB
0
TABLE
2
LAYER
0
LAYER
2
DEFAULT_255_2_778
70
0
62
255
6
CONTINUOUS
0
LAYER
2
DEFAULT_255_1_388
70
0
62
255
6
CONTINUOUS
0
ENDTAB
0
ENDSEC
0
SECTION
2
ENTITIES
0
ARC
8
DEFAULT_255_2_778
10
3.5700693
20
147.242652
40
0.7914215
50
129.1312896
51
180.1450914
0
ARC
8
DEFAULT_255_2_778
10
3.5703345
20
147.2431391
40
0.7912112
50
89.854026
51
129.1684493
0
ARC
8
DEFAULT_255_2_778
10
25.7993937
20
147.2428257
40
0.7915249
50
39.4792447
51
90.147911
0
ARC
8
DEFAULT_255_2_778
10
25.7999935
20
147.2426723
40
0.7911595
50
359.8533901
51
39.5154338
0
ARC
8
DEFAULT_255_2_778
10
25.7996693
20
-1.9864002
40
0.7914836
50
309.4761667
51
0.1482649
0
ARC
8
DEFAULT_255_2_778
10
25.799398
20
-1.9868313
40
0.7913235
50
269.8517415
51
309.511178
0
ARC
8
DEFAULT_255_2_778
10
3.570342
20
-1.9867731
40
0.7913815
50
219.1282118
51
270.1454017
0
ARC
8
DEFAULT_255_2_778
10
3.5700247
20
-1.9863907
40
0.7913769
50
179.8524075
51
219.1641908
0
LINE
8
DEFAULT_255_2_778
10
3.5723503
20
148.0343479
11
25.7973503
21
148.0343479
0
LINE
8
DEFAULT_255_2_778
10
26.5911503
20
147.2406479
11
26.5911503
21
-1.9843521
0
LINE
8
DEFAULT_255_2_778
10
25.7973503
20
-2.7781521
11
3.5723503
21
-2.7781521
0
LINE
8
DEFAULT_255_2_778
10
2.7786503
20
-1.9843521
11
2.7786503
21
147.2406479
0
LINE
8
DEFAULT_255_1_388
10
10.637691
20
0.6757898
11
10.637691
21
-0.6398
0
LINE
8
DEFAULT_255_1_388
10
10.637691
20
-0.6398
11
10.4633031
21
-0.6398
0
LINE
8
DEFAULT_255_1_388
10
10.4633031
20
-0.6398
11
9.8009903
21
0.3739993
0
LINE
8
DEFAULT_255_1_388
10
9.8009903
20
0.3739993
11
9.8009903
21
-0.6398
0
LINE
8
DEFAULT_255_1_388
10
9.8009903
20
-0.6398
11
9.6266024
21
-0.6398
0
LINE
8
DEFAULT_255_1_388
10
9.6266024
20
-0.6398
11
9.6266024
21
0.6757898
0
LINE
8
DEFAULT_255_1_388
10
9.6266024
20
0.6757898
11
9.8009903
21
0.6757898
0
LINE
8
DEFAULT_255_1_388
10
9.8009903
20
0.6757898
11
10.4651102
21
-0.3425273
0
LINE
8
DEFAULT_255_1_388
10
10.4651102
20
-0.3425273
11
10.4651102
21
0.6757898
0
LINE
8
DEFAULT_255_1_388
10
10.4651102
20
0.6757898
11
10.637691
21
0.6757898
0
LINE
8
DEFAULT_255_1_388
10
11.0732091
20
0.6757898
11
11.3903602
21
0.1716009
0
LINE
8
DEFAULT_255_1_388
10
11.3903602
20
0.1716009
11
11.7057042
21
0.6757898
0
LINE
8
DEFAULT_255_1_388
10
11.7057042
20
0.6757898
11
11.9099098
21
0.6757898
0
LINE
8
DEFAULT_255_1_388
10
11.9099098
20
0.6757898
11
11.4942701
21
0.0234163
0
LINE
8
DEFAULT_255_1_388
10
11.4942701
20
0.0234163
11
11.919849
21
-0.6398
0
LINE
8
DEFAULT_255_1_388
10
11.919849
20
-0.6398
11
11.7138363
21
-0.6398
0
LINE
8
DEFAULT_255_1_388
10
11.7138363
20
-0.6398
11
11.3903602
21
-0.1265754
0
LINE
8
DEFAULT_255_1_388
10
11.3903602
20
-0.1265754
11
11.065077
21
-0.6398
0
LINE
8
DEFAULT_255_1_388
10
11.065077
20
-0.6398
11
10.8599679
21
-0.6398
0
LINE
8
DEFAULT_255_1_388
10
10.8599679
20
-0.6398
11
11.2864503
21
0.0234163
0
LINE
8
DEFAULT_255_1_388
10
11.2864503
20
0.0234163
11
10.8699071
21
0.6757898
0
LINE
8
DEFAULT_255_1_388
10
10.8699071
20
0.6757898
11
11.0732091
21
0.6757898
0
LINE
8
DEFAULT_255_1_388
10
12.4014488
20
-0.0127263
11
12.4014488
21
-0.1491645
0
LINE
8
DEFAULT_255_1_388
10
12.4014488
20
-0.1491645
11
11.9605094
21
-0.1491645
0
LINE
8
DEFAULT_255_1_388
10
11.9605094
20
-0.1491645
11
11.9605094
21
-0.0127263
0
LINE
8
DEFAULT_255_1_388
10
11.9605094
20
-0.0127263
11
12.4014488
21
-0.0127263
0
LINE
8
DEFAULT_255_1_388
10
13.3339273
20
0.1101585
11
13.3339273
21
-0.0317011
0
LINE
8
DEFAULT_255_1_388
10
13.3339273
20
-0.0317011
11
12.7637782
21
-0.0317011
0
LINE
8
DEFAULT_255_1_388
10
12.7637782
20
-0.0317011
11
12.7637782
21
-0.4979404
0
LINE
8
DEFAULT_255_1_388
10
12.7637782
20
-0.4979404
11
13.4260909
21
-0.4979404
0
LINE
8
DEFAULT_255_1_388
10
13.4260909
20
-0.4979404
11
13.4260909
21
-0.6398
0
LINE
8
DEFAULT_255_1_388
10
13.4260909
20
-0.6398
11
12.5902938
21
-0.6398
0
LINE
8
DEFAULT_255_1_388
10
12.5902938
20
-0.6398
11
12.5902938
21
0.6757898
0
LINE
8
DEFAULT_255_1_388
10
12.5902938
20
0.6757898
11
13.4170553
21
0.6757898
0
LINE
8
DEFAULT_255_1_388
10
13.4170553
20
0.6757898
11
13.4170553
21
0.5330267
0
LINE
8
DEFAULT_255_1_388
10
13.4170553
20
0.5330267
11
12.7637782
21
0.5330267
0
LINE
8
DEFAULT_255_1_388
10
12.7637782
20
0.5330267
11
12.7637782
21
0.1101585
0
LINE
8
DEFAULT_255_1_388
10
12.7637782
20
0.1101585
11
13.3339273
21
0.1101585
0
LINE
8
DEFAULT_255_1_388
10
14.4353724
20
-0.2223532
11
14.6097604
21
-0.2223532
0
LINE
8
DEFAULT_255_1_388
10
13.5968646
20
-0.0434475
11
13.5968646
21
0.0830516
0
LINE
8
DEFAULT_255_1_388
10
14.6097604
20
0.2529217
11
14.4353724
21
0.2529217
0
LINE
8
DEFAULT_255_1_388
10
13.7712525
20
0.0785337
11
13.7712525
21
-0.0488688
0
ARC
8
DEFAULT_255_1_388
10
13.9931837
20
-0.1551671
40
0.6202263
50
340.1774904
51
353.7812217
0
ARC
8
DEFAULT_255_1_388
10
14.169969
20
-0.2210107
40
0.4315926
50
311.4560052
51
340.4420756
0
ARC
8
DEFAULT_255_1_388
10
14.166223
20
-0.2085335
40
0.4434573
50
282.4332229
51
310.7514507
0
ARC
8
DEFAULT_255_1_388
10
14.1168048
20
-0.0043297
40
0.6535262
50
269.9358869
51
282.8096729
0
ARC
8
DEFAULT_255_1_388
10
14.1109987
20
0.1469329
40
0.8048043
50
269.9995752
51
270.3612856
0
ARC
8
DEFAULT_255_1_388
10
14.1050477
20
-0.1329219
40
0.5249831
50
250.7885263
51
270.6488451
0
ARC
8
DEFAULT_255_1_388
10
14.0861302
20
-0.2046147
40
0.4510942
50
219.3628377
51
250.0611024
0
ARC
8
DEFAULT_255_1_388
10
14.1794176
20
-0.1253347
40
0.5735046
50
193.5480293
51
219.5755675
0
ARC
8
DEFAULT_255_1_388
10
14.4462385
20
-0.056048
40
0.849146
50
181.1220183
51
193.8754971
0
ARC
8
DEFAULT_255_1_388
10
14.6785619
20
-0.0436086
40
1.0816971
50
179.9914644
51
181.5398227
0
ARC
8
DEFAULT_255_1_388
10
14.4708929
20
0.0872586
40
0.8740384
50
169.5837606
51
180.275782
0
ARC
8
DEFAULT_255_1_388
10
14.2642277
20
0.1254439
40
0.6638751
50
155.0367033
51
169.6002779
0
ARC
8
DEFAULT_255_1_388
10
14.1364735
20
0.1870336
40
0.5220662
50
136.7831557
51
155.2472983
0
ARC
8
DEFAULT_255_1_388
10
14.0926526
20
0.2242577
40
0.4646502
50
121.7633063
51
136.4281161
0
ARC
8
DEFAULT_255_1_388
10
14.1078366
20
0.1962049
40
0.4964979
50
95.6460018
51
121.5489589
0
ARC
8
DEFAULT_255_1_388
10
14.125534
20
0.0714704
40
0.6223912
50
89.9245727
51
96.1375919
0
ARC
8
DEFAULT_255_1_388
10
14.1312045
20
0.0848721
40
0.6090084
50
76.6779212
51
90.456405
0
ARC
8
DEFAULT_255_1_388
10
14.1754858
20
0.263806
40
0.42469
50
47.4858803
51
76.9287069
0
ARC
8
DEFAULT_255_1_388
10
14.1589472
20
0.2525623
40
0.4441778
50
16.5424081
51
46.8934505
0
ARC
8
DEFAULT_255_1_388
10
13.9780522
20
0.1931265
40
0.6345318
50
5.4072971
51
17.0363711
0
ARC
8
DEFAULT_255_1_388
10
13.8162247
20
0.1671304
40
0.6250632
50
7.8888693
51
15.9242022
0
ARC
8
DEFAULT_255_1_388
10
14.0397232
20
0.2320309
40
0.3923364
50
15.7650676
51
27.9410069
0
ARC
8
DEFAULT_255_1_388
10
14.1639402
20
0.2985317
40
0.2514401
50
27.8167196
51
46.4007942
0
ARC
8
DEFAULT_255_1_388
10
14.1695243
20
0.2978882
40
0.2480958
50
47.4372362
51
75.0695672
0
ARC
8
DEFAULT_255_1_388
10
14.1348079
20
0.1770277
40
0.3738281
50
74.7009379
51
87.8124314
0
ARC
8
DEFAULT_255_1_388
10
14.1265696
20
0.0586659
40
0.4924321
50
87.3802571
51
90.0251599
0
ARC
8
DEFAULT_255_1_388
10
14.1222343
20
0.1906997
40
0.3604218
50
89.3451886
51
108.5744412
0
ARC
8
DEFAULT_255_1_388
10
14.1068336
20
0.2484836
40
0.3007661
50
109.2998307
51
143.3037387
0
ARC
8
DEFAULT_255_1_388
10
14.1925625
20
0.1825584
40
0.4089031
50
143.075267
51
163.1918576
0
ARC
8
DEFAULT_255_1_388
10
14.412146
20
0.1132652
40
0.6391492
50
162.9375929
51
174.6208776
0
ARC
8
DEFAULT_255_1_388
10
14.7075841
20
0.0808711
40
0.9363344
50
174.342123
51
180.1430283
0
ARC
8
DEFAULT_255_1_388
10
14.6028383
20
-0.0534883
40
0.8315986
50
179.6817261
51
189.150555
0
ARC
8
DEFAULT_255_1_388
10
14.3215132
20
-0.1003441
40
0.5464044
50
188.9911061
51
203.5772363
0
ARC
8
DEFAULT_255_1_388
10
14.2000423
20
-0.1507461
40
0.4149206
50
203.9075402
51
215.1312435
0
ARC
8
DEFAULT_255_1_388
10
14.0962221
20
-0.2312093
40
0.2837747
50
213.9071511
51
263.8848919
0
ARC
8
DEFAULT_255_1_388
10
14.1103214
20
-0.1429481
40
0.3730641
50
263.1757928
51
270.1031044
0
ARC
8
DEFAULT_255_1_388
10
14.1139294
20
-0.0026489
40
0.5133712
50
269.6722503
51
279.0606936
0
ARC
8
DEFAULT_255_1_388
10
14.1439449
20
-0.184085
40
0.3294739
50
278.8749101
51
293.6349581
0
ARC
8
DEFAULT_255_1_388
10
14.1799653
20
-0.2686749
40
0.2375405
50
293.8553806
51
310.0518171
0
ARC
8
DEFAULT_255_1_388
10
14.1805162
20
-0.2756979
40
0.2318463
50
311.0644687
51
332.0111037
0
ARC
8
DEFAULT_255_1_388
10
14.0463835
20
-0.2017298
40
0.3850112
50
331.6586806
51
343.2877423
0
ARC
8
DEFAULT_255_1_388
10
13.8143301
20
-0.1304194
40
0.6277712
50
343.1446576
51
351.0103568
0
ARC
8
DEFAULT_255_1_388
10
13.6510624
20
-0.1004127
40
0.7937327
50
350.71248
51
351.1626997
0
LINE
8
DEFAULT_255_1_388
10
15.6280775
20
0.138169
11
15.6280775
21
-0.0786865
0
LINE
8
DEFAULT_255_1_388
10
14.7977018
20
-0.1012756
11
14.7977018
21
0.1219048
0
LINE
8
DEFAULT_255_1_388
10
15.4609181
20
-0.1238647
11
15.4609181
21
0.1499153
0
LINE
8
DEFAULT_255_1_388
10
14.9648612
20
0.1625652
11
14.9648612
21
-0.1048898
0
ARC
8
DEFAULT_255_1_388
10
14.2503109
20
-0.0841882
40
1.3777776
50
353.8440855
51
0.2287917
0
ARC
8
DEFAULT_255_1_388
10
14.7722126
20
-0.1424586
40
0.852639
50
344.4934746
51
353.9763743
0
ARC
8
DEFAULT_255_1_388
10
15.1088933
20
-0.2381809
40
0.5026273
50
329.2803599
51
344.7473406
0
ARC
8
DEFAULT_255_1_388
10
15.2204429
20
-0.2993962
40
0.3754848
50
324.9361395
51
328.6153007
0
ARC
8
DEFAULT_255_1_388
10
15.2630079
20
-0.3291414
40
0.3235566
50
280.5801797
51
324.9173226
0
ARC
8
DEFAULT_255_1_388
10
15.2178708
20
-0.1411764
40
0.5167077
50
269.5979457
51
281.6732777
0
ARC
8
DEFAULT_255_1_388
10
15.2097611
20
-0.1546887
40
0.5032026
50
256.6228565
51
270.5105488
0
ARC
8
DEFAULT_255_1_388
10
15.1645354
20
-0.3288655
40
0.3233092
50
215.8618351
51
257.2787793
0
ARC
8
DEFAULT_255_1_388
10
15.2794061
20
-0.2517894
40
0.4615831
50
197.9695203
51
215.2622745
0
ARC
8
DEFAULT_255_1_388
10
15.5589737
20
-0.1574359
40
0.7566307
50
187.8816486
51
198.2346584
0
ARC
8
DEFAULT_255_1_388
10
16.0042975
20
-0.0931547
40
1.2065653
50
180.8977266
51
188.0054894
0
ARC
8
DEFAULT_255_1_388
10
16.3093188
20
-0.08166
40
1.5117443
50
180.7434591
51
181.152202
0
ARC
8
DEFAULT_255_1_388
10
16.1418184
20
0.1273371
40
1.3441277
50
173.7674302
51
180.2315596
0
ARC
8
DEFAULT_255_1_388
10
15.6336053
20
0.1847779
40
0.8326847
50
164.3058537
51
173.9000553
0
ARC
8
DEFAULT_255_1_388
10
15.3060053
20
0.2791652
40
0.4917711
50
148.7922028
51
164.5682288
0
ARC
8
DEFAULT_255_1_388
10
15.1990791
20
0.3388457
40
0.3694204
50
144.5883979
51
148.1161588
0
ARC
8
DEFAULT_255_1_388
10
15.1603536
20
0.3658667
40
0.322202
50
101.6440149
51
144.5142619
0
ARC
8
DEFAULT_255_1_388
10
15.2081728
20
0.1758337
40
0.5180451
50
89.528284
51
102.5820197
0
ARC
8
DEFAULT_255_1_388
10
15.217072
20
0.1714376
40
0.5224441
50
77.0437914
51
90.508231
0
ARC
8
DEFAULT_255_1_388
10
15.2622974
20
0.3562272
40
0.3322297
50
48.2777708
51
77.4996087
0
ARC
8
DEFAULT_255_1_388
10
15.2704714
20
0.3707557
40
0.315966
50
36.3141586
51
47.6307332
0
ARC
8
DEFAULT_255_1_388
10
15.1727436
20
0.3049159
40
0.4337313
50
18.2931065
51
35.6770203
0
ARC
8
DEFAULT_255_1_388
10
14.8866277
20
0.2067107
40
0.7362203
50
8.0246996
51
18.5605636
0
ARC
8
DEFAULT_255_1_388
10
14.4182632
20
0.1375432
40
1.2096583
50
1.127539
51
8.1718423
0
ARC
8
DEFAULT_255_1_388
10
14.0533766
20
0.1232374
40
1.5747719
50
0.5432713
51
1.38669
0
ARC
8
DEFAULT_255_1_388
10
14.2591144
20
0.1539163
40
1.2018103
50
359.8092569
51
4.9408001
0
ARC
8
DEFAULT_255_1_388
10
14.7327726
20
0.19619
40
0.7262727
50
4.8364937
51
12.2906017
0
ARC
8
DEFAULT_255_1_388
10
15.0427191
20
0.2652485
40
0.4087324
50
12.0806994
51
23.8171225
0
ARC
8
DEFAULT_255_1_388
10
15.1747587
20
0.3211508
40
0.2653719
50
24.2874621
51
31.3934353
0
ARC
8
DEFAULT_255_1_388
10
15.2338022
20
0.3597822
40
0.1948607
50
30.7407708
51
82.4658033
0
ARC
8
DEFAULT_255_1_388
10
15.2135683
20
0.2604017
40
0.2961198
50
81.1057101
51
90.2187368
0
ARC
8
DEFAULT_255_1_388
10
15.2095495
20
0.2894421
40
0.2670929
50
89.380395
51
105.6763916
0
ARC
8
DEFAULT_255_1_388
10
15.1889217
20
0.364432
40
0.1893189
50
105.7980655
51
149.7387869
0
ARC
8
DEFAULT_255_1_388
10
15.3086357
20
0.2924719
40
0.3289892
50
149.4208441
51
163.628295
0
ARC
8
DEFAULT_255_1_388
10
15.5438587
20
0.2207345
40
0.5749004
50
163.3764549
51
172.141138
0
ARC
8
DEFAULT_255_1_388
10
15.9151308
20
0.1675582
40
0.9499585
50
172.0258462
51
178.0705453
0
ARC
8
DEFAULT_255_1_388
10
16.2572861
20
0.1513682
40
1.2924734
50
177.8639301
51
179.5036263
0
ARC
8
DEFAULT_255_1_388
10
16.135388
20
-0.1089849
40
1.170534
50
179.7995545
51
185.246089
0
ARC
8
DEFAULT_255_1_388
10
15.6805473
20
-0.1520596
40
0.7136613
50
185.1411911
51
193.0082205
0
ARC
8
DEFAULT_255_1_388
10
15.3831734
20
-0.2223559
40
0.4080987
50
192.7897338
51
205.2507384
0
ARC
8
DEFAULT_255_1_388
10
15.2653944
20
-0.2749462
40
0.2791522
50
205.8001921
51
211.2545876
0
ARC
8
DEFAULT_255_1_388
10
15.2065483
20
-0.3143868
40
0.2084074
50
210.3789935
51
238.4007996
0
ARC
8
DEFAULT_255_1_388
10
15.2043569
20
-0.3091214
40
0.2117943
50
239.6521916
51
265.9793852
0
ARC
8
DEFAULT_255_1_388
10
15.2139418
20
-0.2334642
40
0.2879689
50
265.1324455
51
270.0603288
0
ARC
8
DEFAULT_255_1_388
10
15.2171795
20
-0.2699582
40
0.2514919
50
269.3314378
51
287.2180039
0
ARC
8
DEFAULT_255_1_388
10
15.2326877
20
-0.3265709
40
0.1928357
50
287.7957942
51
329.0808983
0
ARC
8
DEFAULT_255_1_388
10
15.1249634
20
-0.2593349
40
0.319808
50
328.6635261
51
343.3325043
0
ARC
8
DEFAULT_255_1_388
10
14.8805093
20
-0.1831805
40
0.5758408
50
343.0498092
51
351.9392499
0
ARC
8
DEFAULT_255_1_388
10
14.4904414
20
-0.1256795
40
0.9701202
50
351.8071632
51
357.7957897
0
ARC
8
DEFAULT_255_1_388
10
14.1269891
20
-0.1068276
40
1.3340376
50
357.5870923
51
359.2682493
0
LINE
8
DEFAULT_255_1_388
10
16.3915895
20
0.6821148
11
16.3915895
21
-0.6398
0
LINE
8
DEFAULT_255_1_388
10
16.3915895
20
-0.6398
11
16.2235265
21
-0.6398
0
LINE
8
DEFAULT_255_1_388
10
16.2235265
20
-0.6398
11
16.2235265
21
0.474295
0
LINE
8
DEFAULT_255_1_388
10
16.2235265
20
0.474295
11
15.8864969
21
0.3505066
0
LINE
8
DEFAULT_255_1_388
10
15.8864969
20
0.3505066
11
15.8864969
21
0.5023055
0
LINE
8
DEFAULT_255_1_388
10
15.8864969
20
0.5023055
11
16.3653861
21
0.6821148
0
LINE
8
DEFAULT_255_1_388
10
16.3653861
20
0.6821148
11
16.3915895
21
0.6821148
0
LINE
8
DEFAULT_255_1_388
10
17.1243802
20
-0.0371225
11
17.1243802
21
0.0993157
0
LINE
8
DEFAULT_255_1_388
10
17.1243802
20
0.0993157
11
17.2499757
21
0.0993157
0
LINE
8
DEFAULT_255_1_388
10
17.0358309
20
0.3306282
11
16.8686715
21
0.3306282
0
LINE
8
DEFAULT_255_1_388
10
16.8569251
20
-0.2928313
11
17.0249881
21
-0.2928313
0
LINE
8
DEFAULT_255_1_388
10
17.2499757
20
-0.0371225
11
17.1243802
21
-0.0371225
0
ARC
8
DEFAULT_255_1_388
10
17.2466983
20
0.4809922
40
0.3816905
50
270.491971
51
281.8953028
0
ARC
8
DEFAULT_255_1_388
10
17.273841
20
0.3570199
40
0.2547877
50
281.6690378
51
301.2943765
0
ARC
8
DEFAULT_255_1_388
10
17.2929861
20
0.3219926
40
0.2149197
50
301.7834992
51
311.754567
0
ARC
8
DEFAULT_255_1_388
10
17.3032903
20
0.310565
40
0.1995326
50
311.7325027
51
354.2803031
0
ARC
8
DEFAULT_255_1_388
10
17.2215319
20
0.324628
40
0.2823461
50
353.0941646
51
0.1174696
0
ARC
8
DEFAULT_255_1_388
10
17.1696877
20
0.3299874
40
0.3342238
50
359.1804452
51
15.0452323
0
ARC
8
DEFAULT_255_1_388
10
17.3210935
20
0.3741546
40
0.1765747
50
13.957816
51
77.6713812
0
ARC
8
DEFAULT_255_1_388
10
17.2776171
20
0.2183464
40
0.3381982
50
76.111571
51
90.7028736
0
ARC
8
DEFAULT_255_1_388
10
17.2709583
20
0.249125
40
0.3074046
50
89.5321574
51
103.5319393
0
ARC
8
DEFAULT_255_1_388
10
17.2483967
20
0.3390443
40
0.2147041
50
103.2930114
51
133.5619756
0
ARC
8
DEFAULT_255_1_388
10
17.2433908
20
0.3457351
40
0.2064084
50
133.8349761
51
173.5343225
0
ARC
8
DEFAULT_255_1_388
10
17.3247566
20
0.3313144
40
0.2889266
50
172.5097183
51
180.1360699
0
ARC
8
DEFAULT_255_1_388
10
17.217733
20
0.335188
40
0.3490913
50
155.3483706
51
180.7484035
0
ARC
8
DEFAULT_255_1_388
10
17.2122305
20
0.3319519
40
0.3454798
50
131.5745177
51
154.4799474
0
ARC
8
DEFAULT_255_1_388
10
17.2474588
20
0.2963422
40
0.3955058
50
96.9874487
51
131.9690874
0
ARC
8
DEFAULT_255_1_388
10
17.272148
20
0.1562407
40
0.537622
50
89.8592909
51
97.7827481
0
ARC
8
DEFAULT_255_1_388
10
17.2775589
20
0.126736
40
0.5671399
50
78.3654493
51
90.4132586
0
ARC
8
DEFAULT_255_1_388
10
17.3178231
20
0.3133918
40
0.3762034
50
56.6229818
51
78.6387103
0
ARC
8
DEFAULT_255_1_388
10
17.342006
20
0.3556846
40
0.3275964
50
47.0254604
51
56.085558
0
ARC
8
DEFAULT_255_1_388
10
17.3442311
20
0.3601189
40
0.3228382
50
10.9207523
51
46.777927
0
ARC
8
DEFAULT_255_1_388
10
17.1907905
20
0.3246401
40
0.4802559
50
359.6364235
51
11.6087615
0
ARC
8
DEFAULT_255_1_388
10
17.3972071
20
0.3229404
40
0.273833
50
332.3549969
51
359.7179765
0
ARC
8
DEFAULT_255_1_388
10
17.3240471
20
0.3576285
40
0.3547505
50
325.2332381
51
332.8746682
0
ARC
8
DEFAULT_255_1_388
10
17.3412054
20
0.3456763
40
0.3338396
50
292.9803892
51
325.2391113
0
ARC
8
DEFAULT_255_1_388
10
17.310125
20
0.4061679
40
0.4016959
50
292.542178
51
293.6931461
0
ARC
8
DEFAULT_255_1_388
10
17.3544822
20
-0.3203964
40
0.372079
50
57.643292
51
72.8626085
0
ARC
8
DEFAULT_255_1_388
10
17.3943656
20
-0.2557727
40
0.2961455
50
36.7246661
51
57.4701329
0
ARC
8
DEFAULT_255_1_388
10
17.3930813
20
-0.254353
40
0.2963321
50
8.054535
51
36.3561529
0
ARC
8
DEFAULT_255_1_388
10
17.2960486
20
-0.2717927
40
0.3948682
50
359.8316595
51
8.5873361
0
ARC
8
DEFAULT_255_1_388
10
17.253796
20
-0.277203
40
0.4371398
50
343.9831631
51
0.557075
0
ARC
8
DEFAULT_255_1_388
10
17.3535009
20
-0.3045037
40
0.3337749
50
311.6358204
51
343.7652116
0
ARC
8
DEFAULT_255_1_388
10
17.3109263
20
-0.2565045
40
0.3979351
50
279.7829743
51
311.625622
0
ARC
8
DEFAULT_255_1_388
10
17.2770398
20
-0.0948358
40
0.5630417
50
269.7285092
51
280.3857694
0
ARC
8
DEFAULT_255_1_388
10
17.2700711
20
-0.0994759
40
0.5584119
50
256.6827433
51
270.4412869
0
ARC
8
DEFAULT_255_1_388
10
17.2319698
20
-0.2552302
40
0.3980715
50
229.4223821
51
256.8554507
0
ARC
8
DEFAULT_255_1_388
10
17.1853251
20
-0.3077317
40
0.3278564
50
181.8183354
51
229.6455015
0
ARC
8
DEFAULT_255_1_388
10
17.3022861
20
-0.2930175
40
0.4453611
50
179.9760419
51
183.2330638
0
ARC
8
DEFAULT_255_1_388
10
17.2829413
20
-0.2953219
40
0.2579652
50
179.4467996
51
196.2871626
0
ARC
8
DEFAULT_255_1_388
10
17.2280867
20
-0.3103291
40
0.2011057
50
196.5661293
51
227.7059371
0
ARC
8
DEFAULT_255_1_388
10
17.2465474
20
-0.2896845
40
0.2287994
50
227.7653015
51
257.8763321
0
ARC
8
DEFAULT_255_1_388
10
17.2718557
20
-0.1836039
40
0.3378385
50
257.4583525
51
270.4267406
0
ARC
8
DEFAULT_255_1_388
10
17.2769807
20
-0.150977
40
0.3704652
50
269.5965319
51
280.8788143
0
ARC
8
DEFAULT_255_1_388
10
17.3028035
20
-0.2799471
40
0.2389415
50
280.6347277
51
299.8594068
0
ARC
8
DEFAULT_255_1_388
10
17.3242804
20
-0.3207264
40
0.19289
50
300.3575552
51
314.5515667
0
ARC
8
DEFAULT_255_1_388
10
17.314948
20
-0.3138975
40
0.204312
50
315.0730962
51
345.0429362
0
ARC
8
DEFAULT_255_1_388
10
17.2110987
20
-0.2836461
40
0.31246
50
344.598526
51
357.9270698
0
ARC
8
DEFAULT_255_1_388
10
17.1101292
20
-0.2767295
40
0.4136265
50
357.4755098
51
0.0224936
0
ARC
8
DEFAULT_255_1_388
10
17.225417
20
-0.2739901
40
0.2983498
50
359.5051035
51
13.4236939
0
ARC
8
DEFAULT_255_1_388
10
17.322926
20
-0.2490363
40
0.1977186
50
12.9497905
51
48.7550905
0
ARC
8
DEFAULT_255_1_388
10
17.3024182
20
-0.2770627
40
0.2323321
50
49.509109
51
72.1832965
0
ARC
8
DEFAULT_255_1_388
10
17.262165
20
-0.3965368
40
0.358397
50
71.9008458
51
84.3555134
0
ARC
8
DEFAULT_255_1_388
10
17.2440045
20
-0.5497288
40
0.512641
50
84.019632
51
89.3326067
0
LINE
8
DEFAULT_255_1_388
10
18.782421
20
-0.5033618
11
18.782421
21
-0.6398
0
LINE
8
DEFAULT_255_1_388
10
18.782421
20
-0.6398
11
17.9204205
21
-0.6398
0
LINE
8
DEFAULT_255_1_388
10
17.9204205
20
-0.6398
11
17.9204205
21
-0.5196259
0
LINE
8
DEFAULT_255_1_388
10
17.9204205
20
-0.5196259
11
18.375817
21
-0.0136298
0
LINE
8
DEFAULT_255_1_388
10
18.0622801
20
0.2881607
11
17.8951207
21
0.2881607
0
LINE
8
DEFAULT_255_1_388
10
18.4743055
20
-0.121154
11
18.1219154
21
-0.5033618
0
LINE
8
DEFAULT_255_1_388
10
18.1219154
20
-0.5033618
11
18.782421
21
-0.5033618
0
ARC
8
DEFAULT_255_1_388
10
16.8582229
20
1.3283983
40
2.0258655
50
318.5132526
51
320.7829045
0
ARC
8
DEFAULT_255_1_388
10
17.4530186
20
0.8442929
40
1.2589638
50
320.7372878
51
323.9739031
0
ARC
8
DEFAULT_255_1_388
10
17.8939118
20
0.5248554
40
0.7145141
50
323.8962701
51
328.64194
0
ARC
8
DEFAULT_255_1_388
10
18.1241376
20
0.3828545
40
0.4440242
50
328.8294576
51
331.7891185
0
ARC
8
DEFAULT_255_1_388
10
18.2363696
20
0.3249374
40
0.3177517
50
331.4254512
51
352.9365785
0
ARC
8
DEFAULT_255_1_388
10
18.2516696
20
0.321505
40
0.3021496
50
353.2257659
51
0.0166158
0
ARC
8
DEFAULT_255_1_388
10
18.2753456
20
0.3240894
40
0.2784847
50
359.486299
51
15.9343185
0
ARC
8
DEFAULT_255_1_388
10
18.3323723
20
0.3394269
40
0.2194403
50
16.1712913
51
43.5286088
0
ARC
8
DEFAULT_255_1_388
10
18.3410668
20
0.3481191
40
0.2071504
50
43.4417391
51
83.1661095
0
ARC
8
DEFAULT_255_1_388
10
18.3259829
20
0.2652316
40
0.2912888
50
82.160179
51
90.1505708
0
ARC
8
DEFAULT_255_1_388
10
18.322431
20
0.2048279
40
0.3517025
50
89.5460741
51
102.5418361
0
ARC
8
DEFAULT_255_1_388
10
18.295103
20
0.3207933
40
0.2325748
50
102.1738499
51
129.206123
0
ARC
8
DEFAULT_255_1_388
10
18.2862484
20
0.3347664
40
0.2161591
50
129.72865
51
135.753947
0
ARC
8
DEFAULT_255_1_388
10
18.2998966
20
0.3238728
40
0.2335433
50
136.1757367
51
166.3673339
0
ARC
8
DEFAULT_255_1_388
10
18.4131654
20
0.2935148
40
0.3507873
50
165.9090694
51
178.8684636
0
ARC
8
DEFAULT_255_1_388
10
18.5107426
20
0.2882263
40
0.4484624
50
178.4391136
51
180.0083808
0
ARC
8
DEFAULT_255_1_388
10
18.3528127
20
0.2926197
40
0.4577138
50
163.2878482
51
180.5581842
0
ARC
8
DEFAULT_255_1_388
10
18.2626169
20
0.3174393
40
0.3641968
50
133.4540601
51
162.947111
0
ARC
8
DEFAULT_255_1_388
10
18.282705
20
0.2960789
40
0.3935189
50
100.7869829
51
133.4382499
0
ARC
8
DEFAULT_255_1_388
10
18.3218295
20
0.1218399
40
0.5720313
50
89.660664
51
101.3702276
0
ARC
8
DEFAULT_255_1_388
10
18.3292904
20
0.1287263
40
0.5651495
50
78.2172678
51
90.412935
0
ARC
8
DEFAULT_255_1_388
10
18.369237
20
0.3114511
40
0.378122
50
55.9269121
51
78.4888449
0
ARC
8
DEFAULT_255_1_388
10
18.3913085
20
0.3495187
40
0.3342379
50
47.929771
51
55.4049217
0
ARC
8
DEFAULT_255_1_388
10
18.4027615
20
0.3611618
40
0.3179217
50
4.334829
51
48.0560205
0
ARC
8
DEFAULT_255_1_388
10
18.2795417
20
0.3420487
40
0.442341
50
359.9251713
51
5.5971671
0
ARC
8
DEFAULT_255_1_388
10
18.3277572
20
0.3483728
40
0.3941854
50
337.8914027
51
358.9967534
0
ARC
8
DEFAULT_255_1_388
10
18.0225142
20
0.4661295
40
0.7213271
50
326.9132501
51
338.3508308
0
ARC
8
DEFAULT_255_1_388
10
17.5741254
20
0.7535105
40
1.2538973
50
319.6471833
51
327.0959558
0
ARC
8
DEFAULT_255_1_388
10
17.1427912
20
1.109305
40
1.8129975
50
317.2588228
51
319.9045804
0
ARC
8
DEFAULT_255_2_778
10
15.0734646
20
145.7991567
40
0.3782009
50
0.4397807
51
91.3045231
0
ARC
8
DEFAULT_255_2_778
10
15.0713202
20
145.7968741
40
0.3803695
50
269.0259909
51
0.7811192
0
ARC
8
DEFAULT_255_2_778
10
15.2304616
20
145.7844321
40
0.7639615
50
290.7362057
51
357.8000295
0
ARC
8
DEFAULT_255_2_778
10
15.1452354
20
145.8019912
40
0.8499188
50
356.8376875
51
0.0046095
0
ARC
8
DEFAULT_255_2_778
10
15.1438766
20
145.8020425
40
0.8512778
50
0.0011515
51
85.3589632
0
ARC
8
DEFAULT_255_2_778
10
15.1438694
20
145.7829769
40
0.8702827
50
85.4600549
51
90.0075769
0
ARC
8
DEFAULT_255_2_778
10
19.9750173
20
145.7927104
40
0.3845507
50
1.3931151
51
90.158378
0
ARC
8
DEFAULT_255_2_778
10
20.0342419
20
145.7863312
40
0.8684198
50
359.7643557
51
42.1181505
0
ARC
8
DEFAULT_255_2_778
10
20.0366479
20
145.7867609
40
0.866348
50
42.2037872
51
87.9292218
0
ARC
8
DEFAULT_255_2_778
10
20.0318949
20
145.7454775
40
0.9077821
50
87.7235759
51
90.0025578
0
ARC
8
DEFAULT_255_2_778
10
12.7284028
20
145.7995796
40
0.3777595
50
0.3761505
51
91.175317
0
ARC
8
DEFAULT_255_2_778
10
12.7825419
20
145.7863312
40
0.8684198
50
359.7643557
51
42.1181505
0
ARC
8
DEFAULT_255_2_778
10
12.7849479
20
145.7867609
40
0.866348
50
42.2037872
51
87.9292218
0
ARC
8
DEFAULT_255_2_778
10
12.7801949
20
145.7454775
40
0.9077821
50
87.7235759
51
90.0025578
0
ARC
8
DEFAULT_255_2_778
10
17.3606743
20
145.3945535
40
1.2841942
50
233.3100129
51
270.0348017
0
ARC
8
DEFAULT_255_2_778
10
17.3727456
20
145.4149299
40
1.3077482
50
187.7860459
51
233.4193197
0
ARC
8
DEFAULT_255_2_778
10
17.3909911
20
145.4164862
40
1.3260368
50
179.9838663
51
187.7458681
0
ARC
8
DEFAULT_255_2_778
10
17.3494846
20
145.4171052
40
1.2845303
50
143.7084173
51
180.0109545
0
ARC
8
DEFAULT_255_2_778
10
17.3645561
20
145.4120576
40
1.2996747
50
94.9692901
51
143.9223324
0
ARC
8
DEFAULT_255_2_778
10
17.3613355
20
145.4127024
40
1.2987573
50
89.9947559
51
94.8302073
0
ARC
8
DEFAULT_255_2_778
10
17.3636379
20
145.4066107
40
1.3048507
50
58.145411
51
90.0958788
0
ARC
8
DEFAULT_255_2_778
10
17.3721873
20
145.4129171
40
1.294988
50
3.2655211
51
58.3194462
0
ARC
8
DEFAULT_255_2_778
10
17.3727016
20
145.4169162
40
1.2942527
50
359.997494
51
3.0900664
0
ARC
8
DEFAULT_255_2_778
10
17.1842403
20
145.414816
40
1.4827154
50
0.006083
51
0.0789681
0
ARC
8
DEFAULT_255_2_778
10
17.3622257
20
145.4148976
40
1.30473
50
315.0276525
51
0.0033284
0
ARC
8
DEFAULT_255_2_778
10
17.36257
20
145.4147198
40
1.3043608
50
270.000667
51
315.0224921
0
LINE
8
DEFAULT_255_2_778
10
17.3625852
20
144.1103591
11
17.3614543
21
144.1103596
0
ARC
8
DEFAULT_255_2_778
10
17.3657135
20
145.4128789
40
0.7580313
50
269.6780691
51
315.5292436
0
ARC
8
DEFAULT_255_2_778
10
17.362643
20
145.4121555
40
0.7597205
50
315.7303962
51
0.2857903
0
ARC
8
DEFAULT_255_2_778
10
17.6503699
20
145.4164059
40
0.4719845
50
359.944048
51
0.0186519
0
ARC
8
DEFAULT_255_2_778
10
17.3704095
20
145.4154282
40
0.7519457
50
0.086204
51
85.4319233
0
ARC
8
DEFAULT_255_2_778
10
17.3615932
20
145.3730015
40
0.7949581
50
85.0420495
51
90.0100075
0
ARC
8
DEFAULT_255_2_778
10
17.3595718
20
145.4297196
40
0.7382424
50
89.8538973
51
89.9999976
0
ARC
8
DEFAULT_255_2_778
10
17.3597093
20
145.4167721
40
0.7511899
50
90.01048
51
134.9443097
0
ARC
8
DEFAULT_255_2_778
10
17.359927
20
145.4165899
40
0.7514726
50
134.9462486
51
180.0023145
0
ARC
8
DEFAULT_255_2_778
10
17.3724947
20
145.4126552
40
0.7640503
50
179.7072119
51
222.5790813
0
ARC
8
DEFAULT_255_2_778
10
17.3595619
20
145.4016152
40
0.7470579
50
222.6267201
51
270.1451401
0
ARC
8
DEFAULT_255_2_778
10
9.3660743
20
145.3945535
40
1.2841942
50
233.3100129
51
270.0348017
0
ARC
8
DEFAULT_255_2_778
10
9.3781456
20
145.4149299
40
1.3077482
50
187.7860459
51
233.4193197
0
ARC
8
DEFAULT_255_2_778
10
9.3963911
20
145.4164862
40
1.3260368
50
179.9838663
51
187.7458681
0
ARC
8
DEFAULT_255_2_778
10
9.3551452
20
145.4169638
40
1.2847909
50
143.1940819
51
180.0046489
0
ARC
8
DEFAULT_255_2_778
10
9.36994
20
145.4122683
40
1.2994598
50
94.9233187
51
143.4191345
0
ARC
8
DEFAULT_255_2_778
10
9.3667331
20
145.4129797
40
1.2984798
50
89.9946509
51
94.7850278
0
ARC
8
DEFAULT_255_2_778
10
9.3690225
20
145.4068118
40
1.3046496
50
58.1428905
51
90.0952196
0
ARC
8
DEFAULT_255_2_778
10
9.37745
20
145.412913
40
1.2950254
50
3.2656058
51
58.3171105
0
ARC
8
DEFAULT_255_2_778
10
9.3780016
20
145.4169162
40
1.2942527
50
359.997494
51
3.0900664
0
ARC
8
DEFAULT_255_2_778
10
9.3953041
20
145.4147125
40
1.276952
50
359.9949307
51
0.0963391
0
ARC
8
DEFAULT_255_2_778
10
9.3679416
20
145.4147263
40
1.3043147
50
315.0200668
51
359.994431
0
ARC
8
DEFAULT_255_2_778
10
9.3679661
20
145.4144877
40
1.3041287
50
270.0008363
51
315.026719
0
LINE
8
DEFAULT_255_2_778
10
9.3679852
20
144.1103591
11
9.3668543
21
144.1103596
0
ARC
8
DEFAULT_255_2_778
10
9.3710735
20
145.4128812
40
0.7580334
50
269.6810953
51
315.6152252
0
ARC
8
DEFAULT_255_2_778
10
9.3680162
20
145.4122058
40
0.7597504
50
315.8129036
51
0.3254485
0
ARC
8
DEFAULT_255_2_778
10
9.3754499
20
145.4151242
40
0.7523058
50
0.1093155
51
85.7820321
0
ARC
8
DEFAULT_255_2_778
10
9.3669704
20
145.373594
40
0.7943655
50
85.3923987
51
90.0083732
0
ARC
8
DEFAULT_255_2_778
10
9.3649708
20
145.4288025
40
0.7391595
50
89.8539942
51
89.9999859
0
ARC
8
DEFAULT_255_2_778
10
9.3650373
20
145.416946
40
0.7510159
50
90.0050654
51
134.9497993
0
ARC
8
DEFAULT_255_2_778
10
9.3649069
20
145.416764
40
0.7510526
50
134.9329452
51
180.0155944
0
ARC
8
DEFAULT_255_2_778
10
9.3779268
20
145.4126289
40
0.7640826
50
179.7052536
51
222.5741919
0
ARC
8
DEFAULT_255_2_778
10
9.3649128
20
145.401584
40
0.7470269
50
222.6256588
51
270.1489141
0
LINE
8
DEFAULT_255_2_778
10
13.8784543
20
146.6326596
11
13.8784543
21
144.1698596
0
LINE
8
DEFAULT_255_2_778
10
13.8784543
20
144.1698596
11
14.4219543
21
144.1698596
0
LINE
8
DEFAULT_255_2_778
10
14.4219543
20
144.1698596
11
14.4219543
21
146.1772596
0
LINE
8
DEFAULT_255_2_778
10
14.4219543
20
146.1772596
11
15.0648543
21
146.1772596
0
LINE
8
DEFAULT_255_2_778
10
15.0648543
20
145.4165596
11
14.6002543
21
145.4165596
0
LINE
8
DEFAULT_255_2_778
10
14.6002543
20
145.4165596
11
15.4413543
21
144.1695596
0
LINE
8
DEFAULT_255_2_778
10
15.4413543
20
144.1695596
11
16.1142543
21
144.1695596
0
LINE
8
DEFAULT_255_2_778
10
16.1142543
20
144.1695596
11
15.5009543
21
145.0699596
0
LINE
8
DEFAULT_255_2_778
10
15.1437543
20
146.6532596
11
14.4216543
21
146.6532596
0
LINE
8
DEFAULT_255_2_778
10
14.4216543
20
146.6532596
11
13.8782543
21
146.6326596
0
LINE
8
DEFAULT_255_2_778
10
13.8782543
20
146.6326596
11
13.8784543
21
146.6326596
0
LINE
8
DEFAULT_255_2_778
10
18.8158543
20
146.6326596
11
18.8158543
21
144.1698596
0
LINE
8
DEFAULT_255_2_778
10
18.8158543
20
144.1698596
11
19.3593543
21
144.1698596
0
LINE
8
DEFAULT_255_2_778
10
19.3593543
20
144.1698596
11
19.3593543
21
146.1772596
0
LINE
8
DEFAULT_255_2_778
10
19.3593543
20
146.1772596
11
19.9739543
21
146.1772596
0
LINE
8
DEFAULT_255_2_778
10
20.3594543
20
145.8020596
11
20.3594543
21
144.1698596
0
LINE
8
DEFAULT_255_2_778
10
20.3594543
20
144.1698596
11
20.9026543
21
144.1698596
0
LINE
8
DEFAULT_255_2_778
10
20.9026543
20
144.1698596
11
20.9026543
21
145.7827596
0
LINE
8
DEFAULT_255_2_778
10
20.0318543
20
146.6532596
11
19.3590543
21
146.6532596
0
LINE
8
DEFAULT_255_2_778
10
19.3590543
20
146.6532596
11
18.8156543
21
146.6326596
0
LINE
8
DEFAULT_255_2_778
10
18.8156543
20
146.6326596
11
18.8158543
21
146.6326596
0
LINE
8
DEFAULT_255_2_778
10
10.8212543
20
146.6326596
11
10.8212543
21
144.1698596
0
LINE
8
DEFAULT_255_2_778
10
10.8212543
20
144.1698596
11
11.3646543
21
144.1698596
0
LINE
8
DEFAULT_255_2_778
10
11.3646543
20
144.1698596
11
11.3646543
21
146.1772596
0
LINE
8
DEFAULT_255_2_778
10
11.3646543
20
146.1772596
11
11.9689543
21
146.1772596
0
LINE
8
DEFAULT_255_2_778
10
11.9689543
20
146.1772596
11
11.9689543
21
144.1698596
0
LINE
8
DEFAULT_255_2_778
10
11.9689543
20
144.1698596
11
12.5124543
21
144.1698596
0
LINE
8
DEFAULT_255_2_778
10
12.5124543
20
144.1698596
11
12.5124543
21
146.1772596
0
LINE
8
DEFAULT_255_2_778
10
12.5124543
20
146.1772596
11
12.7206543
21
146.1772596
0
LINE
8
DEFAULT_255_2_778
10
13.1061543
20
145.8020596
11
13.1061543
21
144.1698596
0
LINE
8
DEFAULT_255_2_778
10
13.1061543
20
144.1698596
11
13.6509543
21
144.1698596
0
LINE
8
DEFAULT_255_2_778
10
13.6509543
20
144.1698596
11
13.6509543
21
145.7827596
0
LINE
8
DEFAULT_255_2_778
10
12.7801543
20
146.6532596
11
11.3749543
21
146.6532596
0
LINE
8
DEFAULT_255_2_778
10
11.3749543
20
146.6532596
11
10.8212543
21
146.6326596
0
LINE
8
DEFAULT_255_2_778
10
10.8212543
20
146.6326596
11
10.8212543
21
146.6326596
0
LINE
8
DEFAULT_255_2_778
10
17.3614543
20
144.1103596
11
17.3614543
21
144.1103596
0
LINE
8
DEFAULT_255_2_778
10
9.3668543
20
144.1103596
11
9.3668543
21
144.1103596
0
LINE
8
DEFAULT_255_1_388
10
11.299091
20
142.8893898
11
11.299091
21
141.5738
0
LINE
8
DEFAULT_255_1_388
10
11.299091
20
141.5738
11
11.1247031
21
141.5738
0
LINE
8
DEFAULT_255_1_388
10
11.1247031
20
141.5738
11
10.4623903
21
142.5875993
0
LINE
8
DEFAULT_255_1_388
10
10.4623903
20
142.5875993
11
10.4623903
21
141.5738
0
LINE
8
DEFAULT_255_1_388
10
10.4623903
20
141.5738
11
10.2880024
21
141.5738
0
LINE
8
DEFAULT_255_1_388
10
10.2880024
20
141.5738
11
10.2880024
21
142.8893898
0
LINE
8
DEFAULT_255_1_388
10
10.2880024
20
142.8893898
11
10.4623903
21
142.8893898
0
LINE
8
DEFAULT_255_1_388
10
10.4623903
20
142.8893898
11
11.1265102
21
141.8710727
0
LINE
8
DEFAULT_255_1_388
10
11.1265102
20
141.8710727
11
11.1265102
21
142.8893898
0
LINE
8
DEFAULT_255_1_388
10
11.1265102
20
142.8893898
11
11.299091
21
142.8893898
0
LINE
8
DEFAULT_255_1_388
10
11.7346091
20
142.8893898
11
12.0517602
21
142.3852009
0
LINE
8
DEFAULT_255_1_388
10
12.0517602
20
142.3852009
11
12.3671042
21
142.8893898
0
LINE
8
DEFAULT_255_1_388
10
12.3671042
20
142.8893898
11
12.5713098
21
142.8893898
0
LINE
8
DEFAULT_255_1_388
10
12.5713098
20
142.8893898
11
12.1556701
21
142.2370163
0
LINE
8
DEFAULT_255_1_388
10
12.1556701
20
142.2370163
11
12.581249
21
141.5738
0
LINE
8
DEFAULT_255_1_388
10
12.581249
20
141.5738
11
12.3752363
21
141.5738
0
LINE
8
DEFAULT_255_1_388
10
12.3752363
20
141.5738
11
12.0517602
21
142.0870246
0
LINE
8
DEFAULT_255_1_388
10
12.0517602
20
142.0870246
11
11.726477
21
141.5738
0
LINE
8
DEFAULT_255_1_388
10
11.726477
20
141.5738
11
11.5213679
21
141.5738
0
LINE
8
DEFAULT_255_1_388
10
11.5213679
20
141.5738
11
11.9478503
21
142.2370163
0
LINE
8
DEFAULT_255_1_388
10
11.9478503
20
142.2370163
11
11.5313071
21
142.8893898
0
LINE
8
DEFAULT_255_1_388
10
11.5313071
20
142.8893898
11
11.7346091
21
142.8893898
0
LINE
8
DEFAULT_255_1_388
10
13.0628488
20
142.2008737
11
13.0628488
21
142.0644355
0
LINE
8
DEFAULT_255_1_388
10
13.0628488
20
142.0644355
11
12.6219094
21
142.0644355
0
LINE
8
DEFAULT_255_1_388
10
12.6219094
20
142.0644355
11
12.6219094
21
142.2008737
0
LINE
8
DEFAULT_255_1_388
10
12.6219094
20
142.2008737
11
13.0628488
21
142.2008737
0
LINE
8
DEFAULT_255_1_388
10
14.1245371
20
142.5089892
11
13.9501491
21
142.5089892
0
LINE
8
DEFAULT_255_1_388
10
13.1712766
20
141.9551042
11
13.3456645
21
141.9551042
0
ARC
8
DEFAULT_255_1_388
10
14.0242218
20
143.5153821
40
1.4087688
50
248.9196578
51
254.1442424
0
ARC
8
DEFAULT_255_1_388
10
13.8352098
20
143.0287805
40
0.8867498
50
241.6337352
51
249.0064643
0
ARC
8
DEFAULT_255_1_388
10
13.6632412
20
142.7136764
40
0.5277799
50
230.4982261
51
241.8087583
0
ARC
8
DEFAULT_255_1_388
10
13.5750183
20
142.6012686
40
0.3849419
50
227.4062979
51
229.9877433
0
ARC
8
DEFAULT_255_1_388
10
13.5201529
20
142.5477155
40
0.3084129
50
200.6782127
51
228.1765252
0
ARC
8
DEFAULT_255_1_388
10
13.5282898
20
142.5460277
40
0.315461
50
179.506278
51
199.8695278
0
ARC
8
DEFAULT_255_1_388
10
13.5272487
20
142.5543671
40
0.3144584
50
132.4834401
51
181.0242352
0
ARC
8
DEFAULT_255_1_388
10
13.5941691
20
142.4911788
40
0.4063094
50
129.2526113
51
133.4249077
0
ARC
8
DEFAULT_255_1_388
10
13.6107284
20
142.4663619
40
0.436014
50
101.9878945
51
128.8741833
0
ARC
8
DEFAULT_255_1_388
10
13.6555699
20
142.272736
40
0.6347415
50
89.5906376
51
102.3170567
0
ARC
8
DEFAULT_255_1_388
10
13.6635011
20
142.3085586
40
0.5989122
50
77.2359491
51
90.3248968
0
ARC
8
DEFAULT_255_1_388
10
13.6867942
20
142.4173554
40
0.4876594
50
63.8379856
51
77.0808925
0
ARC
8
DEFAULT_255_1_388
10
13.7180475
20
142.4755882
40
0.4216191
50
45.9863127
51
64.1608798
0
ARC
8
DEFAULT_255_1_388
10
13.7473869
20
142.509099
40
0.3771394
50
32.2747934
51
45.6544796
0
ARC
8
DEFAULT_255_1_388
10
13.7548675
20
142.5112426
40
0.3696765
50
359.6507495
51
32.6129943
0
ARC
8
DEFAULT_255_1_388
10
13.6487858
20
142.5117788
40
0.3013762
50
359.469654
51
14.983205
0
ARC
8
DEFAULT_255_1_388
10
13.728111
20
142.5330288
40
0.2192542
50
14.9781954
51
48.2004799
0
ARC
8
DEFAULT_255_1_388
10
13.7096221
20
142.5097937
40
0.2489048
50
48.5926661
51
74.1242559
0
ARC
8
DEFAULT_255_1_388
10
13.6721024
20
142.3859607
40
0.3782845
50
73.7889321
51
86.6653996
0
ARC
8
DEFAULT_255_1_388
10
13.6605838
20
142.2501955
40
0.5145025
50
86.2642725
51
90.0533288
0
ARC
8
DEFAULT_255_1_388
10
13.6573931
20
142.2946376
40
0.4700681
50
89.669455
51
99.2313411
0
ARC
8
DEFAULT_255_1_388
10
13.6301091
20
142.4571401
40
0.3052945
50
99.0695987
51
113.7659242
0
ARC
8
DEFAULT_255_1_388
10
13.5993085
20
142.5297772
40
0.226407
50
114.0402885
51
127.9848946
0
ARC
8
DEFAULT_255_1_388
10
13.5722561
20
142.5630884
40
0.1835045
50
127.7287217
51
176.7106493
0
ARC
8
DEFAULT_255_1_388
10
13.6486226
20
142.551721
40
0.2604907
50
175.1780759
51
180.0581213
0
ARC
8
DEFAULT_255_1_388
10
13.553757
20
142.5503411
40
0.1656287
50
179.6140658
51
228.124674
0
ARC
8
DEFAULT_255_1_388
10
13.6034927
20
142.596394
40
0.2332038
50
226.5785315
51
230.8792476
0
ARC
8
DEFAULT_255_1_388
10
13.6564414
20
142.6666908
40
0.3211664
50
231.4636401
51
241.9261664
0
ARC
8
DEFAULT_255_1_388
10
13.7911197
20
142.9145349
40
0.6032345
50
241.7177136
51
248.3259138
0
ARC
8
DEFAULT_255_1_388
10
13.9469792
20
143.3006771
40
1.0196417
50
248.2007377
51
252.4527713
0
ARC
8
DEFAULT_255_1_388
10
14.0823319
20
143.7191092
40
1.4594143
50
252.3388938
51
254.347037
0
ARC
8
DEFAULT_255_1_388
10
13.2338619
20
140.6843095
40
1.6917621
50
71.0197462
51
74.4085467
0
ARC
8
DEFAULT_255_1_388
10
13.4245707
20
141.2348144
40
1.1091618
50
66.1845203
51
71.086519
0
ARC
8
DEFAULT_255_1_388
10
13.5996256
20
141.6289439
40
0.6779073
50
59.3537334
51
66.269255
0
ARC
8
DEFAULT_255_1_388
10
13.6995982
20
141.7980777
40
0.4814366
50
49.1021732
51
59.3294421
0
ARC
8
DEFAULT_255_1_388
10
13.791697
20
141.9030575
40
0.3417875
50
32.7924183
51
49.2503526
0
ARC
8
DEFAULT_255_1_388
10
13.8266584
20
141.9280311
40
0.2988789
50
31.121225
51
32.3977355
0
ARC
8
DEFAULT_255_1_388
10
13.8178762
20
141.9247728
40
0.3080861
50
8.1116803
51
30.7958224
0
ARC
8
DEFAULT_255_1_388
10
13.7267108
20
141.9092437
40
0.4005385
50
359.8390945
51
8.4707348
0
ARC
8
DEFAULT_255_1_388
10
13.7971156
20
141.9037751
40
0.3301608
50
337.4732479
51
0.7538283
0
ARC
8
DEFAULT_255_1_388
10
13.8172181
20
141.9015554
40
0.3107929
50
307.5917028
51
336.4313755
0
ARC
8
DEFAULT_255_1_388
10
13.7661239
20
141.9583509
40
0.3870096
50
307.6560665
51
308.4561779
0
ARC
8
DEFAULT_255_1_388
10
13.7395455
20
141.9991832
40
0.435591
50
284.3733666
51
307.1426212
0
ARC
8
DEFAULT_255_1_388
10
13.6838349
20
142.2041391
40
0.6479685
50
272.4384566
51
284.6464689
0
ARC
8
DEFAULT_255_1_388
10
13.6695734
20
142.4065434
40
0.8508149
50
269.9708517
51
272.8180721
0
ARC
8
DEFAULT_255_1_388
10
13.6647417
20
142.1773283
40
0.6216151
50
248.2707343
51
270.4054609
0
ARC
8
DEFAULT_255_1_388
10
13.6586288
20
142.1558673
40
0.5994203
50
246.1380358
51
248.054058
0
ARC
8
DEFAULT_255_1_388
10
13.6115431
20
142.0569705
40
0.4899388
50
233.1671897
51
246.4951656
0
ARC
8
DEFAULT_255_1_388
10
13.5492066
20
141.9728137
40
0.3852115
50
215.3403381
51
233.084328
0
ARC
8
DEFAULT_255_1_388
10
13.518543
20
141.9505093
40
0.3472969
50
179.2419235
51
215.2648426
0
ARC
8
DEFAULT_255_1_388
10
13.6048981
20
141.9520979
40
0.259251
50
179.3355796
51
199.1045873
0
ARC
8
DEFAULT_255_1_388
10
13.5675123
20
141.9423223
40
0.2207454
50
199.8830064
51
232.7061328
0
ARC
8
DEFAULT_255_1_388
10
13.6206397
20
142.0091456
40
0.306101
50
232.3736206
51
255.5136621
0
ARC
8
DEFAULT_255_1_388
10
13.6589903
20
142.1491177
40
0.4512213
50
255.2447928
51
267.5318292
0
ARC
8
DEFAULT_255_1_388
10
13.668837
20
142.2877709
40
0.5901825
50
267.1564563
51
270.0294721
0
ARC
8
DEFAULT_255_1_388
10
13.6719695
20
142.2378623
40
0.5402814
50
269.6999944
51
278.1662446
0
ARC
8
DEFAULT_255_1_388
10
13.7007723
20
142.0431974
40
0.3435003
50
278.0229022
51
290.6255326
0
ARC
8
DEFAULT_255_1_388
10
13.7398889
20
141.9388547
40
0.2320666
50
290.6616368
51
307.0374127
0
ARC
8
DEFAULT_255_1_388
10
13.7736789
20
141.897404
40
0.1786372
50
306.3942078
51
355.303191
0
ARC
8
DEFAULT_255_1_388
10
13.7161082
20
141.9060186
40
0.2367516
50
354.3662092
51
0.0709489
0
ARC
8
DEFAULT_255_1_388
10
13.7320951
20
141.9085561
40
0.2207761
50
359.4175379
51
16.1975911
0
ARC
8
DEFAULT_255_1_388
10
13.7833069
20
141.9225954
40
0.1676828
50
16.4721294
51
52.6261798
0
ARC
8
DEFAULT_255_1_388
10
13.6909576
20
141.8006606
40
0.3206412
50
52.7381828
51
62.4979144
0
ARC
8
DEFAULT_255_1_388
10
13.5351329
20
141.5074236
40
0.6527035
50
62.2517425
51
68.1219454
0
ARC
8
DEFAULT_255_1_388
10
13.3416817
20
141.0319951
40
1.1659797
50
68.006043
51
71.8055127
0
ARC
8
DEFAULT_255_1_388
10
13.1396725
20
140.4261723
40
1.8045908
50
71.718361
51
73.9260743
0
LINE
8
DEFAULT_255_1_388
10
14.2808537
20
142.0355214
11
14.2808537
21
142.0662426
0
LINE
8
DEFAULT_255_1_388
10
15.1103259
20
142.0843139
11
15.1103259
21
142.0147395
0
LINE
8
DEFAULT_255_1_388
10
15.1103259
20
142.0147395
11
14.4480131
21
142.0147395
0
LINE
8
DEFAULT_255_1_388
10
14.9955732
20
141.8240874
11
15.097676
21
141.7445737
0
LINE
8
DEFAULT_255_1_388
10
14.4534345
20
142.1520813
11
14.9431665
21
142.1520813
0
LINE
8
DEFAULT_255_1_388
10
14.9431665
20
142.1520813
11
14.9431665
21
142.1647312
0
ARC
8
DEFAULT_255_1_388
10
14.7240298
20
142.048021
40
0.4923176
50
252.326534
51
270.5809615
0
ARC
8
DEFAULT_255_1_388
10
14.7009763
20
141.964694
40
0.4059384
50
223.3000488
51
251.8562489
0
ARC
8
DEFAULT_255_1_388
10
14.7247543
20
141.9877898
40
0.4390832
50
190.9374369
51
223.3654369
0
ARC
8
DEFAULT_255_1_388
10
14.918822
20
142.0316598
40
0.63798
50
179.6531919
51
191.4988561
0
ARC
8
DEFAULT_255_1_388
10
14.9325247
20
142.0698571
40
0.6516811
50
167.4005523
51
180.3177836
0
ARC
8
DEFAULT_255_1_388
10
14.8141919
20
142.0948853
40
0.5307402
50
154.1835149
51
167.2508278
0
ARC
8
DEFAULT_255_1_388
10
14.743151
20
142.1322925
40
0.4505076
50
134.3150225
51
154.5315008
0
ARC
8
DEFAULT_255_1_388
10
14.7186845
20
142.153755
40
0.4180662
50
122.8617482
51
133.9707159
0
ARC
8
DEFAULT_255_1_388
10
14.7070452
20
142.1787882
40
0.3907416
50
89.8248474
51
123.4199325
0
ARC
8
DEFAULT_255_1_388
10
14.712675
20
142.1060352
40
0.4635141
50
74.7874349
51
90.5482648
0
ARC
8
DEFAULT_255_1_388
10
14.7457214
20
142.2280987
40
0.3370565
50
39.8178888
51
74.7634383
0
ARC
8
DEFAULT_255_1_388
10
14.6880456
20
142.1831356
40
0.4101553
50
16.8990848
51
39.4830125
0
ARC
8
DEFAULT_255_1_388
10
14.474907
20
142.1148711
40
0.6339427
50
4.9634768
51
17.2027767
0
ARC
8
DEFAULT_255_1_388
10
14.2028475
20
142.08616
40
0.9074803
50
359.8834402
51
5.2832409
0
ARC
8
DEFAULT_255_1_388
10
14.8820833
20
142.0221981
40
0.4341343
50
180.9844233
51
194.9402766
0
ARC
8
DEFAULT_255_1_388
10
14.7639999
20
141.989917
40
0.3117211
50
194.8030557
51
222.0412897
0
ARC
8
DEFAULT_255_1_388
10
14.7297871
20
141.9559715
40
0.2635903
50
221.541578
51
268.8616004
0
ARC
8
DEFAULT_255_1_388
10
14.7379991
20
142.032028
40
0.3398611
50
267.7321071
51
270.009808
0
ARC
8
DEFAULT_255_1_388
10
14.7400055
20
142.0547178
40
0.3625561
50
269.6921218
51
280.4122297
0
ARC
8
DEFAULT_255_1_388
10
14.7598466
20
141.9513767
40
0.2573323
50
280.2257165
51
298.633539
0
ARC
8
DEFAULT_255_1_388
10
14.772388
20
141.9249578
40
0.2281403
50
299.0485543
51
300.4624141
0
ARC
8
DEFAULT_255_1_388
10
14.696486
20
142.0514796
40
0.3756797
50
300.6578578
51
322.037749
0
ARC
8
DEFAULT_255_1_388
10
14.6594382
20
142.0838266
40
0.4247956
50
321.671786
51
322.3059078
0
ARC
8
DEFAULT_255_1_388
10
14.7617945
20
141.9544267
40
0.3960488
50
276.9729088
51
328.0035579
0
ARC
8
DEFAULT_255_1_388
10
14.7306415
20
142.1209609
40
0.5652345
50
269.8358003
51
278.0581296
0
ARC
8
DEFAULT_255_1_388
10
14.7050714
20
142.204782
40
0.2274263
50
89.2017936
51
117.2852353
0
ARC
8
DEFAULT_255_1_388
10
14.7110465
20
142.2000637
40
0.2343798
50
118.0546404
51
137.4544511
0
ARC
8
DEFAULT_255_1_388
10
14.7532109
20
142.1617556
40
0.2913471
50
137.5109688
51
158.8516701
0
ARC
8
DEFAULT_255_1_388
10
14.8812209
20
142.1100902
40
0.4293804
50
158.5845496
51
170.1719753
0
ARC
8
DEFAULT_255_1_388
10
15.0128545
20
142.0839519
40
0.5635533
50
169.8378964
51
173.0563877
0
ARC
8
DEFAULT_255_1_388
10
14.4843829
20
142.1414187
40
0.4593755
50
2.9089079
51
12.88469
0
ARC
8
DEFAULT_255_1_388
10
14.6385748
20
142.1777082
40
0.3009753
50
12.6957404
51
28.6405841
0
ARC
8
DEFAULT_255_1_388
10
14.6995245
20
142.2092577
40
0.232366
50
29.016559
51
41.1492981
0
ARC
8
DEFAULT_255_1_388
10
14.7223224
20
142.229108
40
0.2021373
50
41.1646967
51
85.001362
0
ARC
8
DEFAULT_255_1_388
10
14.7087228
20
142.1464775
40
0.2857091
50
83.728216
51
90.0968824
0
LINE
8
DEFAULT_255_1_388
10
15.7762529
20
142.5568781
11
15.7762529
21
142.401465
0
LINE
8
DEFAULT_255_1_388
10
15.4708481
20
142.2677375
11
15.4708481
21
141.5738
0
LINE
8
DEFAULT_255_1_388
10
15.4708481
20
141.5738
11
15.3036887
21
141.5738
0
LINE
8
DEFAULT_255_1_388
10
15.3036887
20
141.5738
11
15.3036887
21
142.5514567
0
LINE
8
DEFAULT_255_1_388
10
15.3036887
20
142.5514567
11
15.4663303
21
142.5514567
0
LINE
8
DEFAULT_255_1_388
10
15.4663303
20
142.5514567
11
15.469041
21
142.4385112
0
ARC
8
DEFAULT_255_1_388
10
15.7012689
20
141.9448068
40
0.4627735
50
80.6751522
51
86.893806
0
ARC
8
DEFAULT_255_1_388
10
15.6944518
20
141.8356103
40
0.5721798
50
86.8046851
51
90.0423898
0
ARC
8
DEFAULT_255_1_388
10
15.6902938
20
142.1123197
40
0.2954939
50
89.2758283
51
106.6212906
0
ARC
8
DEFAULT_255_1_388
10
15.6672963
20
142.1959009
40
0.2088351
50
107.1347109
51
157.6456887
0
ARC
8
DEFAULT_255_1_388
10
15.7441025
20
142.1531908
40
0.296292
50
155.6557383
51
157.256838
0
ARC
8
DEFAULT_255_1_388
10
15.7220639
20
142.2842472
40
0.296341
50
127.8167201
51
148.6300223
0
ARC
8
DEFAULT_255_1_388
10
15.6935386
20
142.3135066
40
0.2557782
50
91.3329934
51
126.7875218
0
ARC
8
DEFAULT_255_1_388
10
15.7020774
20
142.2331718
40
0.3363561
50
89.9858247
51
92.4688453
0
ARC
8
DEFAULT_255_1_388
10
15.7030267
20
142.2640114
40
0.3055179
50
85.3587643
51
90.1624243
0
ARC
8
DEFAULT_255_1_388
10
15.7125332
20
142.3769458
40
0.1921848
50
78.4019195
51
85.4592653
0
ARC
8
DEFAULT_255_1_388
10
15.7288393
20
142.4547142
40
0.1127267
50
67.7849217
51
78.573798
0
ARC
8
DEFAULT_255_1_388
10
15.7410027
20
142.4862374
40
0.0789473
50
63.4805074
51
67.3074739
0
LINE
8
DEFAULT_255_1_388
10
16.1114753
20
142.5514567
11
16.1114753
21
141.5738
0
LINE
8
DEFAULT_255_1_388
10
16.1114753
20
141.5738
11
15.9443159
21
141.5738
0
LINE
8
DEFAULT_255_1_388
10
15.9443159
20
141.5738
11
15.9443159
21
142.5514567
0
LINE
8
DEFAULT_255_1_388
10
15.9443159
20
142.5514567
11
16.1114753
21
142.5514567
0
ARC
8
DEFAULT_255_1_388
10
16.0408521
20
142.8118428
40
0.1100948
50
161.4148232
51
180.5532607
0
ARC
8
DEFAULT_255_1_388
10
16.0268831
20
142.8156875
40
0.0956324
50
138.1830164
51
160.9307633
0
ARC
8
DEFAULT_255_1_388
10
16.0145018
20
142.8264313
40
0.0792417
50
104.6371663
51
138.0036136
0
ARC
8
DEFAULT_255_1_388
10
16.0265557
20
142.7851963
40
0.1221906
50
92.0601206
51
105.2198859
0
ARC
8
DEFAULT_255_1_388
10
16.0291921
20
142.7463583
40
0.161103
50
89.9790681
51
92.5006086
0
ARC
8
DEFAULT_255_1_388
10
16.0303097
20
142.7719998
40
0.1354654
50
78.0234649
51
90.4478111
0
ARC
8
DEFAULT_255_1_388
10
16.0406681
20
142.8185203
40
0.0878096
50
55.0521508
51
78.336297
0
ARC
8
DEFAULT_255_1_388
10
16.0463216
20
142.8280168
40
0.0767913
50
42.0506198
51
54.4508489
0
ARC
8
DEFAULT_255_1_388
10
16.0311248
20
142.8140821
40
0.0974091
50
1.7493657
51
42.1498724
0
ARC
8
DEFAULT_255_1_388
10
16.0025154
20
142.8108166
40
0.1261276
50
359.9832635
51
2.8353994
0
ARC
8
DEFAULT_255_1_388
10
16.0211564
20
142.8097412
40
0.1074916
50
342.1062453
51
0.5535864
0
ARC
8
DEFAULT_255_1_388
10
16.0371988
20
142.8053197
40
0.0908695
50
316.7110111
51
341.6513114
0
ARC
8
DEFAULT_255_1_388
10
16.044742
20
142.7985607
40
0.0807447
50
285.4398289
51
316.5320129
0
ARC
8
DEFAULT_255_1_388
10
16.0323591
20
142.8397023
40
0.1237022
50
272.3543902
51
285.8951677
0
ARC
8
DEFAULT_255_1_388
10
16.0293301
20
142.8812742
40
0.1653687
50
269.9725761
51
272.8112722
0
ARC
8
DEFAULT_255_1_388
10
16.0282353
20
142.8561727
40
0.1402709
50
258.8433431
51
270.4148607
0
ARC
8
DEFAULT_255_1_388
10
16.0181133
20
142.8071739
40
0.0902407
50
238.54281
51
259.1289544
0
ARC
8
DEFAULT_255_1_388
10
16.0104454
20
142.7932694
40
0.0743817
50
222.5056676
51
237.9918132
0
ARC
8
DEFAULT_255_1_388
10
16.0248048
20
142.8063295
40
0.0937918
50
184.1070774
51
222.4604165
0
ARC
8
DEFAULT_255_1_388
10
16.0550461
20
142.8106538
40
0.1242838
50
179.9419581
51
185.0970785
0
LINE
8
DEFAULT_255_1_388
10
16.3364628
20
142.0355214
11
16.3364628
21
142.0662426
0
LINE
8
DEFAULT_255_1_388
10
17.165935
20
142.0843139
11
17.165935
21
142.0147395
0
LINE
8
DEFAULT_255_1_388
10
17.165935
20
142.0147395
11
16.5036223
21
142.0147395
0
LINE
8
DEFAULT_255_1_388
10
17.0511823
20
141.8240874
11
17.1532851
21
141.7445737
0
LINE
8
DEFAULT_255_1_388
10
16.5090437
20
142.1520813
11
16.9987756
21
142.1520813
0
LINE
8
DEFAULT_255_1_388
10
16.9987756
20
142.1520813
11
16.9987756
21
142.1647312
0
ARC
8
DEFAULT_255_1_388
10
16.7796389
20
142.048021
40
0.4923176
50
252.326534
51
270.5809615
0
ARC
8
DEFAULT_255_1_388
10
16.7565854
20
141.964694
40
0.4059384
50
223.3000488
51
251.8562489
0
ARC
8
DEFAULT_255_1_388
10
16.7803634
20
141.9877898
40
0.4390832
50
190.9374369
51
223.3654369
0
ARC
8
DEFAULT_255_1_388
10
16.9744312
20
142.0316598
40
0.63798
50
179.6531919
51
191.4988561
0
ARC
8
DEFAULT_255_1_388
10
16.9881339
20
142.0698571
40
0.6516811
50
167.4005523
51
180.3177836
0
ARC
8
DEFAULT_255_1_388
10
16.869801
20
142.0948853
40
0.5307402
50
154.1835149
51
167.2508278
0
ARC
8
DEFAULT_255_1_388
10
16.7987601
20
142.1322925
40
0.4505076
50
134.3150225
51
154.5315008
0
ARC
8
DEFAULT_255_1_388
10
16.7742936
20
142.153755
40
0.4180662
50
122.8617482
51
133.9707159
0
ARC
8
DEFAULT_255_1_388
10
16.7626543
20
142.1787882
40
0.3907416
50
89.8248474
51
123.4199325
0
ARC
8
DEFAULT_255_1_388
10
16.7682841
20
142.1060352
40
0.4635141
50
74.7874349
51
90.5482648
0
ARC
8
DEFAULT_255_1_388
10
16.8013305
20
142.2280987
40
0.3370565
50
39.8178888
51
74.7634383
0
ARC
8
DEFAULT_255_1_388
10
16.7436547
20
142.1831356
40
0.4101553
50
16.8990848
51
39.4830125
0
ARC
8
DEFAULT_255_1_388
10
16.5305162
20
142.1148711
40
0.6339427
50
4.9634768
51
17.2027767
0
ARC
8
DEFAULT_255_1_388
10
16.2584567
20
142.08616
40
0.9074803
50
359.8834402
51
5.2832409
0
ARC
8
DEFAULT_255_1_388
10
16.9376924
20
142.0221981
40
0.4341343
50
180.9844233
51
194.9402766
0
ARC
8
DEFAULT_255_1_388
10
16.819609
20
141.989917
40
0.3117211
50
194.8030557
51
222.0412897
0
ARC
8
DEFAULT_255_1_388
10
16.7853962
20
141.9559715
40
0.2635903
50
221.541578
51
268.8616004
0
ARC
8
DEFAULT_255_1_388
10
16.7936083
20
142.032028
40
0.3398611
50
267.7321071
51
270.009808
0
ARC
8
DEFAULT_255_1_388
10
16.7956146
20
142.0547178
40
0.3625561
50
269.6921218
51
280.4122297
0
ARC
8
DEFAULT_255_1_388
10
16.8154558
20
141.9513767
40
0.2573323
50
280.2257165
51
298.633539
0
ARC
8
DEFAULT_255_1_388
10
16.8279972
20
141.9249578
40
0.2281403
50
299.0485543
51
300.4624141
0
ARC
8
DEFAULT_255_1_388
10
16.7520952
20
142.0514796
40
0.3756797
50
300.6578578
51
322.037749
0
ARC
8
DEFAULT_255_1_388
10
16.7150473
20
142.0838266
40
0.4247956
50
321.671786
51
322.3059078
0
ARC
8
DEFAULT_255_1_388
10
16.8174036
20
141.9544267
40
0.3960488
50
276.9729088
51
328.0035579
0
ARC
8
DEFAULT_255_1_388
10
16.7862507
20
142.1209609
40
0.5652345
50
269.8358003
51
278.0581296
0
ARC
8
DEFAULT_255_1_388
10
16.7606806
20
142.204782
40
0.2274263
50
89.2017936
51
117.2852353
0
ARC
8
DEFAULT_255_1_388
10
16.7666556
20
142.2000637
40
0.2343798
50
118.0546404
51
137.4544511
0
ARC
8
DEFAULT_255_1_388
10
16.80882
20
142.1617556
40
0.2913471
50
137.5109688
51
158.8516701
0
ARC
8
DEFAULT_255_1_388
10
16.9368301
20
142.1100902
40
0.4293804
50
158.5845496
51
170.1719753
0
ARC
8
DEFAULT_255_1_388
10
17.0684636
20
142.0839519
40
0.5635533
50
169.8378964
51
173.0563877
0
ARC
8
DEFAULT_255_1_388
10
16.539992
20
142.1414187
40
0.4593755
50
2.9089079
51
12.88469
0
ARC
8
DEFAULT_255_1_388
10
16.6941839
20
142.1777082
40
0.3009753
50
12.6957404
51
28.6405841
0
ARC
8
DEFAULT_255_1_388
10
16.7551336
20
142.2092577
40
0.232366
50
29.016559
51
41.1492981
0
ARC
8
DEFAULT_255_1_388
10
16.7779315
20
142.229108
40
0.2021373
50
41.1646967
51
85.001362
0
ARC
8
DEFAULT_255_1_388
10
16.7643319
20
142.1464775
40
0.2857091
50
83.728216
51
90.0968824
0
LINE
8
DEFAULT_255_1_388
10
18.0866672
20
142.2641232
11
17.9186042
21
142.2641232
0
LINE
8
DEFAULT_255_1_388
10
17.3186374
20
141.874687
11
17.4857968
21
141.874687
0
ARC
8
DEFAULT_255_1_388
10
17.7849333
20
141.8347935
40
0.1436198
50
359.3335374
51
18.5869869
0
ARC
8
DEFAULT_255_1_388
10
17.8084072
20
141.8410015
40
0.1194022
50
19.3538149
51
54.6486387
0
ARC
8
DEFAULT_255_1_388
10
17.751706
20
141.7628077
40
0.2159877
50
54.3821575
51
65.0627557
0
ARC
8
DEFAULT_255_1_388
10
17.6652407
20
141.5809032
40
0.4173927
50
64.8282172
51
71.4204388
0
ARC
8
DEFAULT_255_1_388
10
17.5637302
20
141.2830782
40
0.7320403
50
71.3166092
51
75.8005927
0
ARC
8
DEFAULT_255_1_388
10
17.4691188
20
140.9185881
40
1.108605
50
75.6810806
51
78.0063886
0
ARC
8
DEFAULT_255_1_388
10
17.9695777
20
143.278753
40
1.3040363
50
254.69024
51
258.0465557
0
ARC
8
DEFAULT_255_1_388
10
17.8527646
20
142.8557742
40
0.8652254
50
249.9010634
51
254.7555005
0
ARC
8
DEFAULT_255_1_388
10
17.7398698
20
142.549168
40
0.5384962
50
243.3097375
51
249.970939
0
ARC
8
DEFAULT_255_1_388
10
17.6691112
20
142.4080721
40
0.380652
50
234.4047808
51
243.2861752
0
ARC
8
DEFAULT_255_1_388
10
17.5990748
20
142.3113645
40
0.2612502
50
220.8665526
51
234.5497192
0
ARC
8
DEFAULT_255_1_388
10
17.5605746
20
142.2763203
40
0.2092097
50
214.3063391
51
220.5075055
0
ARC
8
DEFAULT_255_1_388
10
17.557686
20
142.2728577
40
0.2048755
50
186.9131438
51
213.9617385
0
ARC
8
DEFAULT_255_1_388
10
17.617525
20
142.2825431
40
0.2654563
50
179.8802037
51
187.4338578
0
ARC
8
DEFAULT_255_1_388
10
17.6001215
20
142.2848049
40
0.2480581
50
132.0053393
51
180.3942351
0
ARC
8
DEFAULT_255_1_388
10
17.6740128
20
142.2165997
40
0.3483116
50
129.2317021
51
133.5294826
0
ARC
8
DEFAULT_255_1_388
10
17.6800097
20
142.2060383
40
0.360291
50
100.440976
51
128.9081567
0
ARC
8
DEFAULT_255_1_388
10
17.7108214
20
142.0614357
40
0.5080996
50
89.6985063
51
100.9029043
0
ARC
8
DEFAULT_255_1_388
10
17.7172369
20
142.0433739
40
0.5261675
50
77.6967144
51
90.4074623
0
ARC
8
DEFAULT_255_1_388
10
17.7544721
20
142.2039503
40
0.3613511
50
50.7278431
51
78.0397473
0
ARC
8
DEFAULT_255_1_388
10
17.8044764
20
142.2622173
40
0.2845966
50
25.754382
51
51.0957456
0
ARC
8
DEFAULT_255_1_388
10
17.8046131
20
142.2678311
40
0.2820785
50
359.2468358
51
24.7393861
0
ARC
8
DEFAULT_255_1_388
10
17.7726019
20
142.2646204
40
0.1460032
50
359.8048924
51
45.1543866
0
ARC
8
DEFAULT_255_1_388
10
17.7267752
20
142.2254291
40
0.2061641
50
43.8053172
51
49.625485
0
ARC
8
DEFAULT_255_1_388
10
17.7277195
20
142.2255849
40
0.2054344
50
49.7979696
51
82.121802
0
ARC
8
DEFAULT_255_1_388
10
17.7143278
20
142.1528473
40
0.2793404
50
81.4458692
51
90.1707936
0
ARC
8
DEFAULT_255_1_388
10
17.7115854
20
142.0936478
40
0.3385438
50
89.6768097
51
99.1267111
0
ARC
8
DEFAULT_255_1_388
10
17.6922836
20
142.2099405
40
0.2206627
50
98.9679878
51
113.4573418
0
ARC
8
DEFAULT_255_1_388
10
17.6702517
20
142.2626193
40
0.1635691
50
113.7230234
51
127.4758155
0
ARC
8
DEFAULT_255_1_388
10
17.6513099
20
142.2851433
40
0.1341757
50
126.9086647
51
150.3160891
0
ARC
8
DEFAULT_255_1_388
10
17.645943
20
142.290868
40
0.1266992
50
151.363328
51
180.0701537
0
ARC
8
DEFAULT_255_1_388
10
17.6769651
20
142.288523
40
0.1577364
50
179.2045432
51
180.0012892
0
ARC
8
DEFAULT_255_1_388
10
17.6400762
20
142.2870515
40
0.1208564
50
179.3040542
51
198.4225767
0
ARC
8
DEFAULT_255_1_388
10
17.6184904
20
142.2814337
40
0.0986126
50
199.2893055
51
238.6036855
0
ARC
8
DEFAULT_255_1_388
10
17.6862997
20
142.3878752
40
0.2248082
50
237.9844191
51
246.8751643
0
ARC
8
DEFAULT_255_1_388
10
17.7827857
20
142.6085861
40
0.4656832
50
246.6226408
51
251.8174794
0
ARC
8
DEFAULT_255_1_388
10
17.8988324
20
142.9570909
40
0.8329993
50
251.7140983
51
255.0775146
0
ARC
8
DEFAULT_255_1_388
10
18.0337848
20
143.4597708
40
1.3534786
50
255.0370864
51
257.4701577
0
ARC
8
DEFAULT_255_1_388
10
17.4590393
20
140.8703535
40
1.298957
50
73.6835762
51
77.5015749
0
ARC
8
DEFAULT_255_1_388
10
17.5815307
20
141.2865699
40
0.8650912
50
68.7042835
51
73.7249997
0
ARC
8
DEFAULT_255_1_388
10
17.6830871
20
141.5482853
40
0.584363
50
63.5907059
51
68.6622978
0
ARC
8
DEFAULT_255_1_388
10
17.7698613
20
141.7213157
40
0.3907955
50
54.7106507
51
63.7018033
0
ARC
8
DEFAULT_255_1_388
10
17.8401
20
141.8194287
40
0.2701345
50
41.0624597
51
54.8488532
0
ARC
8
DEFAULT_255_1_388
10
17.8784779
20
141.8546439
40
0.2180695
50
34.4952722
51
40.7097584
0
ARC
8
DEFAULT_255_1_388
10
17.8837744
20
141.8601204
40
0.2106083
50
9.3761233
51
34.0834046
0
ARC
8
DEFAULT_255_1_388
10
17.8102872
20
141.8460174
40
0.2854177
50
359.7695264
51
9.7660556
0
ARC
8
DEFAULT_255_1_388
10
17.8325166
20
141.8411841
40
0.2632121
50
335.8653103
51
0.8022272
0
ARC
8
DEFAULT_255_1_388
10
17.8409571
20
141.8426951
40
0.2561728
50
307.7357819
51
334.7849324
0
ARC
8
DEFAULT_255_1_388
10
17.7964212
20
141.8926553
40
0.3229737
50
307.0217048
51
308.5596894
0
ARC
8
DEFAULT_255_1_388
10
17.7668796
20
141.9368063
40
0.3760237
50
282.9361285
51
306.5649033
0
ARC
8
DEFAULT_255_1_388
10
17.7261858
20
142.1018871
40
0.5460314
50
271.1026197
51
283.2199962
0
ARC
8
DEFAULT_255_1_388
10
17.7190047
20
142.2419744
40
0.6862456
50
269.9926344
51
271.4770056
0
ARC
8
DEFAULT_255_1_388
10
17.7160617
20
142.1202633
40
0.5645418
50
259.0723633
51
270.2897324
0
ARC
8
DEFAULT_255_1_388
10
17.6921841
20
141.9945887
40
0.4366198
50
245.4965026
51
259.0225745
0
ARC
8
DEFAULT_255_1_388
10
17.6609058
20
141.9291491
40
0.3641037
50
228.9686619
51
245.7042678
0
ARC
8
DEFAULT_255_1_388
10
17.6310333
20
141.8923573
40
0.3167435
50
214.4015391
51
228.6759028
0
ARC
8
DEFAULT_255_1_388
10
17.598483
20
141.8745429
40
0.2798456
50
179.9704983
51
215.1574389
0
ARC
8
DEFAULT_255_1_388
10
17.6773042
20
141.8828148
40
0.1916798
50
182.430239
51
203.0329751
0
ARC
8
DEFAULT_255_1_388
10
17.6565638
20
141.8764675
40
0.1701248
50
203.7987464
51
232.5483345
0
ARC
8
DEFAULT_255_1_388
10
17.6876723
20
141.9160049
40
0.2204299
50
232.3784541
51
256.3934343
0
ARC
8
DEFAULT_255_1_388
10
17.713587
20
142.0161359
40
0.3238512
50
256.1048329
51
268.4627478
0
ARC
8
DEFAULT_255_1_388
10
17.7188289
20
142.1065297
40
0.4143627
50
268.0734924
51
270.0121004
0
ARC
8
DEFAULT_255_1_388
10
17.7209008
20
142.0751191
40
0.3829573
50
269.7031202
51
278.8338867
0
ARC
8
DEFAULT_255_1_388
10
17.7413872
20
141.9479553
40
0.2541568
50
278.6727378
51
292.82331
0
ARC
8
DEFAULT_255_1_388
10
17.7639418
20
141.8915546
40
0.1934264
50
293.1457581
51
303.6656964
0
ARC
8
DEFAULT_255_1_388
10
17.7937492
20
141.8492159
40
0.1416713
50
303.1245849
51
321.7434683
0
ARC
8
DEFAULT_255_1_388
10
17.8146573
20
141.830878
40
0.1139081
50
322.4747616
51
1.1293039
0
LINE
8
DEFAULT_255_1_388
10
4.8826318
20
139.7258382
11
4.8826318
21
139.5894
0
LINE
8
DEFAULT_255_1_388
10
4.8826318
20
139.5894
11
4.0206313
21
139.5894
0
LINE
8
DEFAULT_255_1_388
10
4.0206313
20
139.5894
11
4.0206313
21
139.7095741
0
LINE
8
DEFAULT_255_1_388
10
4.0206313
20
139.7095741
11
4.4760278
21
140.2155702
0
LINE
8
DEFAULT_255_1_388
10
4.1624909
20
140.5173607
11
3.9953315
21
140.5173607
0
LINE
8
DEFAULT_255_1_388
10
4.5745163
20
140.108046
11
4.2221262
21
139.7258382
0
LINE
8
DEFAULT_255_1_388
10
4.2221262
20
139.7258382
11
4.8826318
21
139.7258382
0
ARC
8
DEFAULT_255_1_388
10
2.9584337
20
141.5575983
40
2.0258655
50
318.5132526
51
320.7829045
0
ARC
8
DEFAULT_255_1_388
10
3.5532294
20
141.0734929
40
1.2589638
50
320.7372878
51
323.9739031
0
ARC
8
DEFAULT_255_1_388
10
3.9941226
20
140.7540554
40
0.7145141
50
323.8962701
51
328.64194
0
ARC
8
DEFAULT_255_1_388
10
4.2243484
20
140.6120545
40
0.4440242
50
328.8294576
51
331.7891185
0
ARC
8
DEFAULT_255_1_388
10
4.3365804
20
140.5541374
40
0.3177517
50
331.4254512
51
352.9365785
0
ARC
8
DEFAULT_255_1_388
10
4.3518804
20
140.550705
40
0.3021496
50
353.2257659
51
0.0166158
0
ARC
8
DEFAULT_255_1_388
10
4.3755564
20
140.5532894
40
0.2784847
50
359.486299
51
15.9343185
0
ARC
8
DEFAULT_255_1_388
10
4.4325831
20
140.5686269
40
0.2194403
50
16.1712913
51
43.5286088
0
ARC
8
DEFAULT_255_1_388
10
4.4412776
20
140.5773191
40
0.2071504
50
43.4417391
51
83.1661095
0
ARC
8
DEFAULT_255_1_388
10
4.4261937
20
140.4944316
40
0.2912888
50
82.160179
51
90.1505708
0
ARC
8
DEFAULT_255_1_388
10
4.4226418
20
140.4340279
40
0.3517025
50
89.5460741
51
102.5418361
0
ARC
8
DEFAULT_255_1_388
10
4.3953138
20
140.5499933
40
0.2325748
50
102.1738499
51
129.206123
0
ARC
8
DEFAULT_255_1_388
10
4.3864592
20
140.5639664
40
0.2161591
50
129.72865
51
135.753947
0
ARC
8
DEFAULT_255_1_388
10
4.4001074
20
140.5530728
40
0.2335433
50
136.1757367
51
166.3673339
0
ARC
8
DEFAULT_255_1_388
10
4.5133762
20
140.5227148
40
0.3507873
50
165.9090694
51
178.8684636
0
ARC
8
DEFAULT_255_1_388
10
4.6109534
20
140.5174263
40
0.4484624
50
178.4391136
51
180.0083808
0
ARC
8
DEFAULT_255_1_388
10
4.4530235
20
140.5218197
40
0.4577138
50
163.2878482
51
180.5581842
0
ARC
8
DEFAULT_255_1_388
10
4.3628276
20
140.5466393
40
0.3641968
50
133.4540601
51
162.947111
0
ARC
8
DEFAULT_255_1_388
10
4.3829158
20
140.5252789
40
0.3935189
50
100.7869829
51
133.4382499
0
ARC
8
DEFAULT_255_1_388
10
4.4220403
20
140.3510399
40
0.5720313
50
89.660664
51
101.3702276
0
ARC
8
DEFAULT_255_1_388
10
4.4295012
20
140.3579263
40
0.5651495
50
78.2172678
51
90.412935
0
ARC
8
DEFAULT_255_1_388
10
4.4694478
20
140.5406511
40
0.378122
50
55.9269121
51
78.4888449
0
ARC
8
DEFAULT_255_1_388
10
4.4915193
20
140.5787187
40
0.3342379
50
47.929771
51
55.4049217
0
ARC
8
DEFAULT_255_1_388
10
4.5029723
20
140.5903618
40
0.3179217
50
4.334829
51
48.0560205
0
ARC
8
DEFAULT_255_1_388
10
4.3797525
20
140.5712487
40
0.442341
50
359.9251713
51
5.5971671
0
ARC
8
DEFAULT_255_1_388
10
4.427968
20
140.5775728
40
0.3941854
50
337.8914027
51
358.9967534
0
ARC
8
DEFAULT_255_1_388
10
4.122725
20
140.6953295
40
0.7213271
50
326.9132501
51
338.3508308
0
ARC
8
DEFAULT_255_1_388
10
3.6743362
20
140.9827105
40
1.2538973
50
319.6471833
51
327.0959558
0
ARC
8
DEFAULT_255_1_388
10
3.243002
20
141.338505
40
1.8129975
50
317.2588228
51
319.9045804
0
LINE
8
DEFAULT_255_1_388
10
5.7654143
20
140.9049898
11
5.7654143
21
140.031243
0
LINE
8
DEFAULT_255_1_388
10
5.7654143
20
140.031243
11
5.9479343
21
140.031243
0
LINE
8
DEFAULT_255_1_388
10
5.9479343
20
140.031243
11
5.9479343
21
139.8948048
0
LINE
8
DEFAULT_255_1_388
10
5.9479343
20
139.8948048
11
5.7654143
21
139.8948048
0
LINE
8
DEFAULT_255_1_388
10
5.7654143
20
139.8948048
11
5.7654143
21
139.5894
0
LINE
8
DEFAULT_255_1_388
10
5.7654143
20
139.5894
11
5.5973513
21
139.5894
0
LINE
8
DEFAULT_255_1_388
10
5.5973513
20
139.5894
11
5.5973513
21
139.8948048
0
LINE
8
DEFAULT_255_1_388
10
5.5973513
20
139.8948048
11
4.998288
21
139.8948048
0
LINE
8
DEFAULT_255_1_388
10
4.998288
20
139.8948048
11
4.998288
21
139.9932933
0
LINE
8
DEFAULT_255_1_388
10
4.998288
20
139.9932933
11
5.5874121
21
140.9049898
0
LINE
8
DEFAULT_255_1_388
10
5.5874121
20
140.9049898
11
5.7654143
21
140.9049898
0
LINE
8
DEFAULT_255_1_388
10
5.5774729
20
140.6402455
11
5.1880366
21
140.031243
0
LINE
8
DEFAULT_255_1_388
10
5.1880366
20
140.031243
11
5.5973513
21
140.031243
0
LINE
8
DEFAULT_255_1_388
10
5.5973513
20
140.031243
11
5.5973513
21
140.676388
0
LINE
8
DEFAULT_255_1_388
10
5.5973513
20
140.676388
11
5.5774729
21
140.6402455
0
LINE
8
DEFAULT_255_1_388
10
6.203643
20
140.9049898
11
6.5777187
21
139.8198089
0
LINE
8
DEFAULT_255_1_388
10
6.5777187
20
139.8198089
11
6.9536015
21
140.9049898
0
LINE
8
DEFAULT_255_1_388
10
6.9536015
20
140.9049898
11
7.14335
21
140.9049898
0
LINE
8
DEFAULT_255_1_388
10
7.14335
20
140.9049898
11
6.6554252
21
139.5894
0
LINE
8
DEFAULT_255_1_388
10
6.6554252
20
139.5894
11
6.5018193
21
139.5894
0
LINE
8
DEFAULT_255_1_388
10
6.5018193
20
139.5894
11
6.014798
21
140.9049898
0
LINE
8
DEFAULT_255_1_388
10
6.014798
20
140.9049898
11
6.203643
21
140.9049898
0
LINE
8
DEFAULT_255_1_388
10
4.8423856
20
5.429869
11
4.8423856
21
5.2130135
0
LINE
8
DEFAULT_255_1_388
10
4.0120099
20
5.1904244
11
4.0120099
21
5.4136048
0
LINE
8
DEFAULT_255_1_388
10
4.6752262
20
5.1678353
11
4.6752262
21
5.4416153
0
LINE
8
DEFAULT_255_1_388
10
4.1791693
20
5.4542652
11
4.1791693
21
5.1868102
0
ARC
8
DEFAULT_255_1_388
10
3.464619
20
5.2075118
40
1.3777776
50
353.8440855
51
0.2287917
0
ARC
8
DEFAULT_255_1_388
10
3.9865208
20
5.1492414
40
0.852639
50
344.4934746
51
353.9763743
0
ARC
8
DEFAULT_255_1_388
10
4.3232015
20
5.0535191
40
0.5026273
50
329.2803599
51
344.7473406
0
ARC
8
DEFAULT_255_1_388
10
4.4347511
20
4.9923038
40
0.3754848
50
324.9361395
51
328.6153007
0
ARC
8
DEFAULT_255_1_388
10
4.4773161
20
4.9625586
40
0.3235566
50
280.5801797
51
324.9173226
0
ARC
8
DEFAULT_255_1_388
10
4.4321789
20
5.1505236
40
0.5167077
50
269.5979457
51
281.6732777
0
ARC
8
DEFAULT_255_1_388
10
4.4240693
20
5.1370113
40
0.5032026
50
256.6228565
51
270.5105488
0
ARC
8
DEFAULT_255_1_388
10
4.3788435
20
4.9628345
40
0.3233092
50
215.8618351
51
257.2787793
0
ARC
8
DEFAULT_255_1_388
10
4.4937142
20
5.0399106
40
0.4615831
50
197.9695203
51
215.2622745
0
ARC
8
DEFAULT_255_1_388
10
4.7732818
20
5.1342641
40
0.7566307
50
187.8816486
51
198.2346584
0
ARC
8
DEFAULT_255_1_388
10
5.2186056
20
5.1985453
40
1.2065653
50
180.8977266
51
188.0054894
0
ARC
8
DEFAULT_255_1_388
10
5.523627
20
5.21004
40
1.5117443
50
180.7434591
51
181.152202
0
ARC
8
DEFAULT_255_1_388
10
5.3561266
20
5.4190371
40
1.3441277
50
173.7674302
51
180.2315596
0
ARC
8
DEFAULT_255_1_388
10
4.8479135
20
5.4764779
40
0.8326847
50
164.3058537
51
173.9000553
0
ARC
8
DEFAULT_255_1_388
10
4.5203135
20
5.5708652
40
0.4917711
50
148.7922028
51
164.5682288
0
ARC
8
DEFAULT_255_1_388
10
4.4133872
20
5.6305457
40
0.3694204
50
144.5883979
51
148.1161588
0
ARC
8
DEFAULT_255_1_388
10
4.3746618
20
5.6575667
40
0.322202
50
101.6440149
51
144.5142619
0
ARC
8
DEFAULT_255_1_388
10
4.422481
20
5.4675337
40
0.5180451
50
89.528284
51
102.5820197
0
ARC
8
DEFAULT_255_1_388
10
4.4313802
20
5.4631376
40
0.5224441
50
77.0437914
51
90.508231
0
ARC
8
DEFAULT_255_1_388
10
4.4766055
20
5.6479272
40
0.3322297
50
48.2777708
51
77.4996087
0
ARC
8
DEFAULT_255_1_388
10
4.4847795
20
5.6624557
40
0.315966
50
36.3141586
51
47.6307332
0
ARC
8
DEFAULT_255_1_388
10
4.3870518
20
5.5966159
40
0.4337313
50
18.2931065
51
35.6770203
0
ARC
8
DEFAULT_255_1_388
10
4.1009358
20
5.4984107
40
0.7362203
50
8.0246996
51
18.5605636
0
ARC
8
DEFAULT_255_1_388
10
3.6325714
20
5.4292432
40
1.2096583
50
1.127539
51
8.1718423
0
ARC
8
DEFAULT_255_1_388
10
3.2676847
20
5.4149374
40
1.5747719
50
0.5432713
51
1.38669
0
ARC
8
DEFAULT_255_1_388
10
3.4734226
20
5.4456163
40
1.2018103
50
359.8092569
51
4.9408001
0
ARC
8
DEFAULT_255_1_388
10
3.9470807
20
5.48789
40
0.7262727
50
4.8364937
51
12.2906017
0
ARC
8
DEFAULT_255_1_388
10
4.2570272
20
5.5569485
40
0.4087324
50
12.0806994
51
23.8171225
0
ARC
8
DEFAULT_255_1_388
10
4.3890668
20
5.6128508
40
0.2653719
50
24.2874621
51
31.3934353
0
ARC
8
DEFAULT_255_1_388
10
4.4481104
20
5.6514822
40
0.1948607
50
30.7407708
51
82.4658033
0
ARC
8
DEFAULT_255_1_388
10
4.4278765
20
5.5521017
40
0.2961198
50
81.1057101
51
90.2187368
0
ARC
8
DEFAULT_255_1_388
10
4.4238577
20
5.5811421
40
0.2670929
50
89.380395
51
105.6763916
0
ARC
8
DEFAULT_255_1_388
10
4.4032299
20
5.656132
40
0.1893189
50
105.7980655
51
149.7387869
0
ARC
8
DEFAULT_255_1_388
10
4.5229439
20
5.5841719
40
0.3289892
50
149.4208441
51
163.628295
0
ARC
8
DEFAULT_255_1_388
10
4.7581668
20
5.5124345
40
0.5749004
50
163.3764549
51
172.141138
0
ARC
8
DEFAULT_255_1_388
10
5.129439
20
5.4592582
40
0.9499585
50
172.0258462
51
178.0705453
0
ARC
8
DEFAULT_255_1_388
10
5.4715943
20
5.4430682
40
1.2924734
50
177.8639301
51
179.5036263
0
ARC
8
DEFAULT_255_1_388
10
5.3496961
20
5.1827151
40
1.170534
50
179.7995545
51
185.246089
0
ARC
8
DEFAULT_255_1_388
10
4.8948554
20
5.1396404
40
0.7136613
50
185.1411911
51
193.0082205
0
ARC
8
DEFAULT_255_1_388
10
4.5974815
20
5.0693441
40
0.4080987
50
192.7897338
51
205.2507384
0
ARC
8
DEFAULT_255_1_388
10
4.4797025
20
5.0167538
40
0.2791522
50
205.8001921
51
211.2545876
0
ARC
8
DEFAULT_255_1_388
10
4.4208564
20
4.9773132
40
0.2084074
50
210.3789935
51
238.4007996
0
ARC
8
DEFAULT_255_1_388
10
4.418665
20
4.9825786
40
0.2117943
50
239.6521916
51
265.9793852
0
ARC
8
DEFAULT_255_1_388
10
4.4282499
20
5.0582358
40
0.2879689
50
265.1324455
51
270.0603288
0
ARC
8
DEFAULT_255_1_388
10
4.4314876
20
5.0217418
40
0.2514919
50
269.3314378
51
287.2180039
0
ARC
8
DEFAULT_255_1_388
10
4.4469958
20
4.9651291
40
0.1928357
50
287.7957942
51
329.0808983
0
ARC
8
DEFAULT_255_1_388
10
4.3392715
20
5.0323651
40
0.319808
50
328.6635261
51
343.3325043
0
ARC
8
DEFAULT_255_1_388
10
4.0948174
20
5.1085195
40
0.5758408
50
343.0498092
51
351.9392499
0
ARC
8
DEFAULT_255_1_388
10
3.7047496
20
5.1660205
40
0.9701202
50
351.8071632
51
357.7957897
0
ARC
8
DEFAULT_255_1_388
10
3.3412973
20
5.1848724
40
1.3340376
50
357.5870923
51
359.2682493
0
LINE
8
DEFAULT_255_1_388
10
5.1613439
20
5.9674898
11
5.5354196
21
4.8823089
0
LINE
8
DEFAULT_255_1_388
10
5.5354196
20
4.8823089
11
5.9113024
21
5.9674898
0
LINE
8
DEFAULT_255_1_388
10
5.9113024
20
5.9674898
11
6.1010509
21
5.9674898
0
LINE
8
DEFAULT_255_1_388
10
6.1010509
20
5.9674898
11
5.6131261
21
4.6519
0
LINE
8
DEFAULT_255_1_388
10
5.6131261
20
4.6519
11
5.4595202
21
4.6519
0
LINE
8
DEFAULT_255_1_388
10
5.4595202
20
4.6519
11
4.9724989
21
5.9674898
0
LINE
8
DEFAULT_255_1_388
10
4.9724989
20
5.9674898
11
5.1613439
21
5.9674898
0
LINE
8
DEFAULT_255_1_388
10
4.2279618
20
13.2146666
11
4.0942343
21
13.2490021
0
LINE
8
DEFAULT_255_1_388
10
4.0942343
20
13.2490021
11
4.161098
21
13.9049898
0
LINE
8
DEFAULT_255_1_388
10
4.161098
20
13.9049898
11
4.8351571
21
13.9049898
0
LINE
8
DEFAULT_255_1_388
10
4.8351571
20
13.9049898
11
4.8351571
21
13.7504803
0
LINE
8
DEFAULT_255_1_388
10
4.8351571
20
13.7504803
11
4.3029577
21
13.7504803
0
LINE
8
DEFAULT_255_1_388
10
4.3029577
20
13.7504803
11
4.2632008
21
13.3917652
0
LINE
8
DEFAULT_255_1_388
10
4.0472489
20
12.9354652
11
4.2053727
21
12.9354652
0
LINE
8
DEFAULT_255_1_388
10
4.2722365
20
13.2508092
11
4.2279618
21
13.2146666
0
ARC
8
DEFAULT_255_1_388
10
4.4718622
20
13.0340241
40
0.4141476
50
93.7181681
51
120.253934
0
ARC
8
DEFAULT_255_1_388
10
4.4824674
20
12.9431284
40
0.5055616
50
89.9660471
51
94.2495185
0
ARC
8
DEFAULT_255_1_388
10
4.4870496
20
13.0094154
40
0.4392953
50
73.8045384
51
90.5585736
0
ARC
8
DEFAULT_255_1_388
10
4.5134754
20
13.105952
40
0.3392225
50
41.3071072
51
73.543002
0
ARC
8
DEFAULT_255_1_388
10
4.4666574
20
13.0656461
40
0.4009977
50
13.5075837
51
41.2174839
0
ARC
8
DEFAULT_255_1_388
10
4.2819671
20
13.0172907
40
0.5918864
50
1.1330171
51
13.8830737
0
ARC
8
DEFAULT_255_1_388
10
4.1223317
20
13.0087522
40
0.7516787
50
359.9925091
51
1.5431298
0
ARC
8
DEFAULT_255_1_388
10
4.2667932
20
13.0041027
40
0.6072343
50
347.8572712
51
0.4294349
0
ARC
8
DEFAULT_255_1_388
10
4.4637066
20
12.9594898
40
0.4053482
50
323.6727442
51
348.1674594
0
ARC
8
DEFAULT_255_1_388
10
4.4968031
20
12.9393175
40
0.3667495
50
316.8171818
51
323.1486802
0
ARC
8
DEFAULT_255_1_388
10
4.5037155
20
12.9351612
40
0.358869
50
281.839603
51
316.5458142
0
ARC
8
DEFAULT_255_1_388
10
4.4614442
20
13.1101363
40
0.5388223
50
269.5770964
51
282.4214641
0
ARC
8
DEFAULT_255_1_388
10
4.4534363
20
13.086093
40
0.5147801
50
256.2425863
51
270.4486481
0
ARC
8
DEFAULT_255_1_388
10
4.4197891
20
12.9511124
40
0.3756708
50
228.9024379
51
256.33135
0
ARC
8
DEFAULT_255_1_388
10
4.4114871
20
12.9380054
40
0.360344
50
193.7536029
51
228.5272638
0
ARC
8
DEFAULT_255_1_388
10
4.5507436
20
12.9788463
40
0.5053599
50
184.9244437
51
194.4976052
0
ARC
8
DEFAULT_255_1_388
10
4.5724077
20
12.9828722
40
0.3700839
50
187.3596909
51
198.6733728
0
ARC
8
DEFAULT_255_1_388
10
4.4543321
20
12.9419373
40
0.2451195
50
198.4453795
51
217.7945479
0
ARC
8
DEFAULT_255_1_388
10
4.4210493
20
12.9183563
40
0.2043754
50
218.2887146
51
228.5613203
0
ARC
8
DEFAULT_255_1_388
10
4.43205
20
12.9331902
40
0.2227819
50
228.9652423
51
258.1237049
0
ARC
8
DEFAULT_255_1_388
10
4.4551937
20
13.0322964
40
0.3245374
50
257.7260585
51
270.4013717
0
ARC
8
DEFAULT_255_1_388
10
4.4602435
20
12.9822255
40
0.2744726
50
269.4204315
51
286.420998
0
ARC
8
DEFAULT_255_1_388
10
4.4769491
20
12.9215705
40
0.2115721
50
286.7250065
51
320.6004665
0
ARC
8
DEFAULT_255_1_388
10
4.4338407
20
12.9565527
40
0.2670878
50
320.6712228
51
344.5440474
0
ARC
8
DEFAULT_255_1_388
10
4.303712
20
12.9947394
40
0.4026927
50
344.241448
51
356.735803
0
ARC
8
DEFAULT_255_1_388
10
4.1633428
20
13.0063656
40
0.5435085
50
356.3547471
51
0.0507222
0
ARC
8
DEFAULT_255_1_388
10
4.3135693
20
13.0098812
40
0.3932934
50
359.5579289
51
12.9534322
0
ARC
8
DEFAULT_255_1_388
10
4.4322533
20
13.0386586
40
0.2711827
50
12.6489751
51
41.608121
0
ARC
8
DEFAULT_255_1_388
10
4.4581693
20
13.0606946
40
0.2371737
50
41.7851122
51
85.9892156
0
ARC
8
DEFAULT_255_1_388
10
4.4443003
20
12.9691738
40
0.3295244
50
84.6965848
51
90.0672125
0
ARC
8
DEFAULT_255_1_388
10
4.441657
20
12.8940118
40
0.4046926
50
89.6804991
51
99.161352
0
ARC
8
DEFAULT_255_1_388
10
4.4185579
20
13.0320848
40
0.2647044
50
98.9836248
51
113.8905702
0
ARC
8
DEFAULT_255_1_388
10
4.3927254
20
13.0930118
40
0.1985386
50
114.195234
51
127.3641866
0
LINE
8
DEFAULT_255_1_388
10
5.1613439
20
13.9049898
11
5.5354196
21
12.8198089
0
LINE
8
DEFAULT_255_1_388
10
5.5354196
20
12.8198089
11
5.9113024
21
13.9049898
0
LINE
8
DEFAULT_255_1_388
10
5.9113024
20
13.9049898
11
6.1010509
21
13.9049898
0
LINE
8
DEFAULT_255_1_388
10
6.1010509
20
13.9049898
11
5.6131261
21
12.5894
0
LINE
8
DEFAULT_255_1_388
10
5.6131261
20
12.5894
11
5.4595202
21
12.5894
0
LINE
8
DEFAULT_255_1_388
10
5.4595202
20
12.5894
11
4.9724989
21
13.9049898
0
LINE
8
DEFAULT_255_1_388
10
4.9724989
20
13.9049898
11
5.1613439
21
13.9049898
0
LINE
8
DEFAULT_255_1_388
10
4.5881024
20
20.5269
11
4.1318024
21
20.5269
0
LINE
8
DEFAULT_255_1_388
10
4.1318024
20
20.5269
11
4.1318024
21
21.8424898
0
LINE
8
DEFAULT_255_1_388
10
4.1318024
20
21.8424898
11
4.5618991
21
21.8424898
0
LINE
8
DEFAULT_255_1_388
10
4.5944274
20
21.1422274
11
4.3052868
21
21.1422274
0
LINE
8
DEFAULT_255_1_388
10
4.3052868
20
21.1422274
11
4.3052868
21
20.6687596
0
LINE
8
DEFAULT_255_1_388
10
4.3052868
20
20.6687596
11
4.5917167
21
20.6687596
0
LINE
8
DEFAULT_255_1_388
10
4.3052868
20
21.6997267
11
4.3052868
21
21.2813763
0
LINE
8
DEFAULT_255_1_388
10
4.3052868
20
21.2813763
11
4.5673205
21
21.2813763
0
LINE
8
DEFAULT_255_1_388
10
4.5618991
20
21.6997267
11
4.3052868
21
21.6997267
0
ARC
8
DEFAULT_255_1_388
10
4.5661411
20
21.0136824
40
0.8288183
50
82.1256322
51
90.2932506
0
ARC
8
DEFAULT_255_1_388
10
4.6098986
20
21.319459
40
0.5199321
50
69.9044202
51
82.2857574
0
ARC
8
DEFAULT_255_1_388
10
4.6740979
20
21.4929993
40
0.3348993
50
51.1840204
51
70.018125
0
ARC
8
DEFAULT_255_1_388
10
4.7027811
20
21.5346945
40
0.2844579
50
12.1018086
51
50.421322
0
ARC
8
DEFAULT_255_1_388
10
4.5470682
20
21.4955937
40
0.4449429
50
359.5252354
51
12.8212369
0
ARC
8
DEFAULT_255_1_388
10
4.7248112
20
21.4877943
40
0.2672162
50
323.4907456
51
0.8818258
0
ARC
8
DEFAULT_255_1_388
10
4.6777525
20
21.5241523
40
0.3266736
50
298.6824053
51
323.2758285
0
ARC
8
DEFAULT_255_1_388
10
4.6370816
20
21.5917509
40
0.4055105
50
293.1994739
51
299.139634
0
ARC
8
DEFAULT_255_1_388
10
4.7127766
20
20.9071651
40
0.3229926
50
54.0009997
51
74.9168635
0
ARC
8
DEFAULT_255_1_388
10
4.7258693
20
20.9293511
40
0.2973581
50
36.3578854
51
53.5293172
0
ARC
8
DEFAULT_255_1_388
10
4.7116061
20
20.919185
40
0.3148715
50
4.8189348
51
36.3090187
0
ARC
8
DEFAULT_255_1_388
10
4.6239085
20
20.9068383
40
0.4033265
50
359.9373213
51
5.5201284
0
ARC
8
DEFAULT_255_1_388
10
4.5874415
20
20.9022733
40
0.4398126
50
344.7479357
51
0.5372278
0
ARC
8
DEFAULT_255_1_388
10
4.6989314
20
20.8722205
40
0.3243441
50
311.1785587
51
344.6887681
0
ARC
8
DEFAULT_255_1_388
10
4.6660857
20
20.9131084
40
0.3767511
50
286.0417804
51
310.8440924
0
ARC
8
DEFAULT_255_1_388
10
4.6090266
20
21.0983885
40
0.5705957
50
274.1044074
51
286.4070149
0
ARC
8
DEFAULT_255_1_388
10
4.5891482
20
21.3101901
40
0.7832907
50
269.9235077
51
274.4458593
0
ARC
8
DEFAULT_255_1_388
10
4.59432
20
21.0470462
40
0.3782955
50
269.6057074
51
281.3740795
0
ARC
8
DEFAULT_255_1_388
10
4.6202698
20
20.9240569
40
0.2526069
50
281.105298
51
302.5134029
0
ARC
8
DEFAULT_255_1_388
10
4.6368086
20
20.8943944
40
0.2187131
50
303.0365425
51
311.8818034
0
ARC
8
DEFAULT_255_1_388
10
4.6448263
20
20.8848602
40
0.2062624
50
311.9916937
51
351.7143773
0
ARC
8
DEFAULT_255_1_388
10
4.5529288
20
20.9034271
40
0.2999202
50
350.7343295
51
0.2221526
0
ARC
8
DEFAULT_255_1_388
10
4.5408376
20
20.909787
40
0.3120525
50
359.045729
51
17.2295312
0
ARC
8
DEFAULT_255_1_388
10
4.6577406
20
20.9445155
40
0.1901144
50
17.6685208
51
78.9940245
0
ARC
8
DEFAULT_255_1_388
10
4.5995767
20
20.7357011
40
0.4065575
50
76.565218
51
90.7103392
0
LINE
8
DEFAULT_255_1_388
10
4.5945364
20
21.1422274
11
4.5944274
21
21.1422274
0
ARC
8
DEFAULT_255_1_388
10
4.5698593
20
21.6509949
40
0.3696273
50
269.6064514
51
281.4533785
0
ARC
8
DEFAULT_255_1_388
10
4.5949234
20
21.5327283
40
0.2487412
50
281.2044438
51
302.5143998
0
ARC
8
DEFAULT_255_1_388
10
4.6103488
20
21.5049576
40
0.2170405
50
303.0211308
51
309.8378766
0
ARC
8
DEFAULT_255_1_388
10
4.6309605
20
21.4818486
40
0.1860946
50
309.5229446
51
356.9509628
0
ARC
8
DEFAULT_255_1_388
10
4.5563731
20
21.4925831
40
0.2612347
50
355.4699226
51
0.0498632
0
ARC
8
DEFAULT_255_1_388
10
4.5249404
20
21.4950789
40
0.2926762
50
359.5558955
51
11.2092924
0
ARC
8
DEFAULT_255_1_388
10
4.6326372
20
21.5173667
40
0.1827036
50
10.9185717
51
31.322519
0
ARC
8
DEFAULT_255_1_388
10
4.664792
20
21.5352571
40
0.1459418
50
31.8850633
51
52.1415586
0
ARC
8
DEFAULT_255_1_388
10
4.6339349
20
21.4916674
40
0.1993088
50
52.8283418
51
71.9850132
0
ARC
8
DEFAULT_255_1_388
10
4.591651
20
21.3672158
40
0.3307407
50
71.686634
51
82.8453416
0
ARC
8
DEFAULT_255_1_388
10
4.5647157
20
21.1636892
40
0.536039
50
82.6981895
51
90.1730083
0
ARC
8
DEFAULT_255_1_388
10
4.5621989
20
21.2515836
40
0.4481429
50
89.8851568
51
90.0383283
0
LINE
8
DEFAULT_255_1_388
10
5.605516
20
21.1539737
11
5.605516
21
21.0175355
0
LINE
8
DEFAULT_255_1_388
10
5.605516
20
21.0175355
11
5.1645766
21
21.0175355
0
LINE
8
DEFAULT_255_1_388
10
5.1645766
20
21.0175355
11
5.1645766
21
21.1539737
0
LINE
8
DEFAULT_255_1_388
10
5.1645766
20
21.1539737
11
5.605516
21
21.1539737
0
LINE
8
DEFAULT_255_1_388
10
4.4516024
20
28.4644
11
3.9953024
21
28.4644
0
LINE
8
DEFAULT_255_1_388
10
3.9953024
20
28.4644
11
3.9953024
21
29.7799898
0
LINE
8
DEFAULT_255_1_388
10
3.9953024
20
29.7799898
11
4.4253991
21
29.7799898
0
LINE
8
DEFAULT_255_1_388
10
4.4579274
20
29.0797274
11
4.1687868
21
29.0797274
0
LINE
8
DEFAULT_255_1_388
10
4.1687868
20
29.0797274
11
4.1687868
21
28.6062596
0
LINE
8
DEFAULT_255_1_388
10
4.1687868
20
28.6062596
11
4.4552167
21
28.6062596
0
LINE
8
DEFAULT_255_1_388
10
4.1687868
20
29.6372267
11
4.1687868
21
29.2188763
0
LINE
8
DEFAULT_255_1_388
10
4.1687868
20
29.2188763
11
4.4308205
21
29.2188763
0
LINE
8
DEFAULT_255_1_388
10
4.4253991
20
29.6372267
11
4.1687868
21
29.6372267
0
ARC
8
DEFAULT_255_1_388
10
4.4296411
20
28.9511824
40
0.8288183
50
82.1256322
51
90.2932506
0
ARC
8
DEFAULT_255_1_388
10
4.4733986
20
29.256959
40
0.5199321
50
69.9044202
51
82.2857574
0
ARC
8
DEFAULT_255_1_388
10
4.5375979
20
29.4304993
40
0.3348993
50
51.1840204
51
70.018125
0
ARC
8
DEFAULT_255_1_388
10
4.5662811
20
29.4721945
40
0.2844579
50
12.1018086
51
50.421322
0
ARC
8
DEFAULT_255_1_388
10
4.4105682
20
29.4330937
40
0.4449429
50
359.5252354
51
12.8212369
0
ARC
8
DEFAULT_255_1_388
10
4.5883112
20
29.4252943
40
0.2672162
50
323.4907456
51
0.8818258
0
ARC
8
DEFAULT_255_1_388
10
4.5412525
20
29.4616523
40
0.3266736
50
298.6824053
51
323.2758285
0
ARC
8
DEFAULT_255_1_388
10
4.5005816
20
29.5292509
40
0.4055105
50
293.1994739
51
299.139634
0
ARC
8
DEFAULT_255_1_388
10
4.5762766
20
28.8446651
40
0.3229926
50
54.0009997
51
74.9168635
0
ARC
8
DEFAULT_255_1_388
10
4.5893693
20
28.8668511
40
0.2973581
50
36.3578854
51
53.5293172
0
ARC
8
DEFAULT_255_1_388
10
4.5751061
20
28.856685
40
0.3148715
50
4.8189348
51
36.3090187
0
ARC
8
DEFAULT_255_1_388
10
4.4874085
20
28.8443383
40
0.4033265
50
359.9373213
51
5.5201284
0
ARC
8
DEFAULT_255_1_388
10
4.4509415
20
28.8397733
40
0.4398126
50
344.7479357
51
0.5372278
0
ARC
8
DEFAULT_255_1_388
10
4.5624314
20
28.8097205
40
0.3243441
50
311.1785587
51
344.6887681
0
ARC
8
DEFAULT_255_1_388
10
4.5295857
20
28.8506084
40
0.3767511
50
286.0417804
51
310.8440924
0
ARC
8
DEFAULT_255_1_388
10
4.4725266
20
29.0358885
40
0.5705957
50
274.1044074
51
286.4070149
0
ARC
8
DEFAULT_255_1_388
10
4.4526482
20
29.2476901
40
0.7832907
50
269.9235077
51
274.4458593
0
ARC
8
DEFAULT_255_1_388
10
4.45782
20
28.9845462
40
0.3782955
50
269.6057074
51
281.3740795
0
ARC
8
DEFAULT_255_1_388
10
4.4837698
20
28.8615569
40
0.2526069
50
281.105298
51
302.5134029
0
ARC
8
DEFAULT_255_1_388
10
4.5003086
20
28.8318944
40
0.2187131
50
303.0365425
51
311.8818034
0
ARC
8
DEFAULT_255_1_388
10
4.5083263
20
28.8223602
40
0.2062624
50
311.9916937
51
351.7143773
0
ARC
8
DEFAULT_255_1_388
10
4.4164288
20
28.8409271
40
0.2999202
50
350.7343295
51
0.2221526
0
ARC
8
DEFAULT_255_1_388
10
4.4043376
20
28.847287
40
0.3120525
50
359.045729
51
17.2295312
0
ARC
8
DEFAULT_255_1_388
10
4.5212406
20
28.8820155
40
0.1901144
50
17.6685208
51
78.9940245
0
ARC
8
DEFAULT_255_1_388
10
4.4630767
20
28.6732011
40
0.4065575
50
76.565218
51
90.7103392
0
LINE
8
DEFAULT_255_1_388
10
4.4580364
20
29.0797274
11
4.4579274
21
29.0797274
0
ARC
8
DEFAULT_255_1_388
10
4.4333593
20
29.5884949
40
0.3696273
50
269.6064514
51
281.4533785
0
ARC
8
DEFAULT_255_1_388
10
4.4584234
20
29.4702283
40
0.2487412
50
281.2044438
51
302.5143998
0
ARC
8
DEFAULT_255_1_388
10
4.4738488
20
29.4424576
40
0.2170405
50
303.0211308
51
309.8378766
0
ARC
8
DEFAULT_255_1_388
10
4.4944605
20
29.4193486
40
0.1860946
50
309.5229446
51
356.9509628
0
ARC
8
DEFAULT_255_1_388
10
4.4198731
20
29.4300831
40
0.2612347
50
355.4699226
51
0.0498632
0
ARC
8
DEFAULT_255_1_388
10
4.3884404
20
29.4325789
40
0.2926762
50
359.5558955
51
11.2092924
0
ARC
8
DEFAULT_255_1_388
10
4.4961372
20
29.4548667
40
0.1827036
50
10.9185717
51
31.322519
0
ARC
8
DEFAULT_255_1_388
10
4.528292
20
29.4727571
40
0.1459418
50
31.8850633
51
52.1415586
0
ARC
8
DEFAULT_255_1_388
10
4.4974349
20
29.4291674
40
0.1993088
50
52.8283418
51
71.9850132
0
ARC
8
DEFAULT_255_1_388
10
4.455151
20
29.3047158
40
0.3307407
50
71.686634
51
82.8453416
0
ARC
8
DEFAULT_255_1_388
10
4.4282157
20
29.1011892
40
0.536039
50
82.6981895
51
90.1730083
0
ARC
8
DEFAULT_255_1_388
10
4.4256989
20
29.1890836
40
0.4481429
50
89.8851568
51
90.0383283
0
LINE
8
DEFAULT_255_1_388
10
5.6000329
20
29.5540987
11
5.6000329
21
29.1700838
0
LINE
8
DEFAULT_255_1_388
10
5.6000329
20
29.1700838
11
5.96688
21
29.1700838
0
LINE
8
DEFAULT_255_1_388
10
5.96688
20
29.1700838
11
5.96688
21
29.0119601
0
LINE
8
DEFAULT_255_1_388
10
5.96688
20
29.0119601
11
5.6000329
21
29.0119601
0
LINE
8
DEFAULT_255_1_388
10
5.6000329
20
29.0119601
11
5.6000329
21
28.5963204
0
LINE
8
DEFAULT_255_1_388
10
5.6000329
20
28.5963204
11
5.4319699
21
28.5963204
0
LINE
8
DEFAULT_255_1_388
10
5.4319699
20
28.5963204
11
5.4319699
21
29.0119601
0
LINE
8
DEFAULT_255_1_388
10
5.4319699
20
29.0119601
11
5.0651227
21
29.0119601
0
LINE
8
DEFAULT_255_1_388
10
5.0651227
20
29.0119601
11
5.0651227
21
29.1700838
0
LINE
8
DEFAULT_255_1_388
10
5.0651227
20
29.1700838
11
5.4319699
21
29.1700838
0
LINE
8
DEFAULT_255_1_388
10
5.4319699
20
29.1700838
11
5.4319699
21
29.5540987
0
LINE
8
DEFAULT_255_1_388
10
5.4319699
20
29.5540987
11
5.6000329
21
29.5540987
0
LINE
8
DEFAULT_255_1_388
10
4.9841708
20
37.5900873
11
4.2604157
21
36.5437596
0
LINE
8
DEFAULT_255_1_388
10
4.2604157
20
36.5437596
11
5.0130849
21
36.5437596
0
LINE
8
DEFAULT_255_1_388
10
5.0130849
20
36.5437596
11
5.0130849
21
36.4019
0
LINE
8
DEFAULT_255_1_388
10
5.0130849
20
36.4019
11
4.0553065
21
36.4019
0
LINE
8
DEFAULT_255_1_388
10
4.0553065
20
36.4019
11
4.0553065
21
36.5320133
0
LINE
8
DEFAULT_255_1_388
10
4.0553065
20
36.5320133
11
4.776351
21
37.5747267
0
LINE
8
DEFAULT_255_1_388
10
4.776351
20
37.5747267
11
4.0670529
21
37.5747267
0
LINE
8
DEFAULT_255_1_388
10
4.0670529
20
37.5747267
11
4.0670529
21
37.7174898
0
LINE
8
DEFAULT_255_1_388
10
4.0670529
20
37.7174898
11
4.9841708
21
37.7174898
0
LINE
8
DEFAULT_255_1_388
10
4.9841708
20
37.7174898
11
4.9841708
21
37.5900873
0
LINE
8
DEFAULT_255_1_388
10
5.5597414
20
37.0289737
11
5.5597414
21
36.8925355
0
LINE
8
DEFAULT_255_1_388
10
5.5597414
20
36.8925355
11
5.1188019
21
36.8925355
0
LINE
8
DEFAULT_255_1_388
10
5.1188019
20
36.8925355
11
5.1188019
21
37.0289737
0
LINE
8
DEFAULT_255_1_388
10
5.1188019
20
37.0289737
11
5.5597414
21
37.0289737
0
LINE
8
DEFAULT_255_1_388
10
4.8476708
20
45.5275873
11
4.1239157
21
44.4812596
0
LINE
8
DEFAULT_255_1_388
10
4.1239157
20
44.4812596
11
4.8765849
21
44.4812596
0
LINE
8
DEFAULT_255_1_388
10
4.8765849
20
44.4812596
11
4.8765849
21
44.3394
0
LINE
8
DEFAULT_255_1_388
10
4.8765849
20
44.3394
11
3.9188065
21
44.3394
0
LINE
8
DEFAULT_255_1_388
10
3.9188065
20
44.3394
11
3.9188065
21
44.4695133
0
LINE
8
DEFAULT_255_1_388
10
3.9188065
20
44.4695133
11
4.639851
21
45.5122267
0
LINE
8
DEFAULT_255_1_388
10
4.639851
20
45.5122267
11
3.9305529
21
45.5122267
0
LINE
8
DEFAULT_255_1_388
10
3.9305529
20
45.5122267
11
3.9305529
21
45.6549898
0
LINE
8
DEFAULT_255_1_388
10
3.9305529
20
45.6549898
11
4.8476708
21
45.6549898
0
LINE
8
DEFAULT_255_1_388
10
4.8476708
20
45.6549898
11
4.8476708
21
45.5275873
0
LINE
8
DEFAULT_255_1_388
10
5.5542582
20
45.4290987
11
5.5542582
21
45.0450838
0
LINE
8
DEFAULT_255_1_388
10
5.5542582
20
45.0450838
11
5.9211054
21
45.0450838
0
LINE
8
DEFAULT_255_1_388
10
5.9211054
20
45.0450838
11
5.9211054
21
44.8869601
0
LINE
8
DEFAULT_255_1_388
10
5.9211054
20
44.8869601
11
5.5542582
21
44.8869601
0
LINE
8
DEFAULT_255_1_388
10
5.5542582
20
44.8869601
11
5.5542582
21
44.4713204
0
LINE
8
DEFAULT_255_1_388
10
5.5542582
20
44.4713204
11
5.3861952
21
44.4713204
0
LINE
8
DEFAULT_255_1_388
10
5.3861952
20
44.4713204
11
5.3861952
21
44.8869601
0
LINE
8
DEFAULT_255_1_388
10
5.3861952
20
44.8869601
11
5.019348
21
44.8869601
0
LINE
8
DEFAULT_255_1_388
10
5.019348
20
44.8869601
11
5.019348
21
45.0450838
0
LINE
8
DEFAULT_255_1_388
10
5.019348
20
45.0450838
11
5.3861952
21
45.0450838
0
LINE
8
DEFAULT_255_1_388
10
5.3861952
20
45.0450838
11
5.3861952
21
45.4290987
0
LINE
8
DEFAULT_255_1_388
10
5.3861952
20
45.4290987
11
5.5542582
21
45.4290987
0
LINE
8
DEFAULT_255_1_388
10
5.1161637
20
52.2769
11
4.9905682
21
52.6202545
0
LINE
8
DEFAULT_255_1_388
10
4.9905682
20
52.6202545
11
4.4393939
21
52.6202545
0
LINE
8
DEFAULT_255_1_388
10
4.4393939
20
52.6202545
11
4.3156056
21
52.2769
0
LINE
8
DEFAULT_255_1_388
10
4.3156056
20
52.2769
11
4.1366998
21
52.2769
0
LINE
8
DEFAULT_255_1_388
10
4.1366998
20
52.2769
11
4.6390816
21
53.5924898
0
LINE
8
DEFAULT_255_1_388
10
4.6390816
20
53.5924898
11
4.7908805
21
53.5924898
0
LINE
8
DEFAULT_255_1_388
10
4.7908805
20
53.5924898
11
5.2941659
21
52.2769
0
LINE
8
DEFAULT_255_1_388
10
5.2941659
20
52.2769
11
5.1161637
21
52.2769
0
LINE
8
DEFAULT_255_1_388
10
4.7149811
20
53.3783451
11
4.4918006
21
52.7630177
0
LINE
8
DEFAULT_255_1_388
10
4.4918006
20
52.7630177
11
4.939065
21
52.7630177
0
LINE
8
DEFAULT_255_1_388
10
4.939065
20
52.7630177
11
4.7149811
21
53.3783451
0
LINE
8
DEFAULT_255_1_388
10
5.7929334
20
52.9039737
11
5.7929334
21
52.7675355
0
LINE
8
DEFAULT_255_1_388
10
5.7929334
20
52.7675355
11
5.351994
21
52.7675355
0
LINE
8
DEFAULT_255_1_388
10
5.351994
20
52.7675355
11
5.351994
21
52.9039737
0
LINE
8
DEFAULT_255_1_388
10
5.351994
20
52.9039737
11
5.7929334
21
52.9039737
0
LINE
8
DEFAULT_255_1_388
10
4.9796637
20
60.2144
11
4.8540682
21
60.5577545
0
LINE
8
DEFAULT_255_1_388
10
4.8540682
20
60.5577545
11
4.3028939
21
60.5577545
0
LINE
8
DEFAULT_255_1_388
10
4.3028939
20
60.5577545
11
4.1791056
21
60.2144
0
LINE
8
DEFAULT_255_1_388
10
4.1791056
20
60.2144
11
4.0001998
21
60.2144
0
LINE
8
DEFAULT_255_1_388
10
4.0001998
20
60.2144
11
4.5025816
21
61.5299898
0
LINE
8
DEFAULT_255_1_388
10
4.5025816
20
61.5299898
11
4.6543805
21
61.5299898
0
LINE
8
DEFAULT_255_1_388
10
4.6543805
20
61.5299898
11
5.1576659
21
60.2144
0
LINE
8
DEFAULT_255_1_388
10
5.1576659
20
60.2144
11
4.9796637
21
60.2144
0
LINE
8
DEFAULT_255_1_388
10
4.5784811
20
61.3158451
11
4.3553006
21
60.7005177
0
LINE
8
DEFAULT_255_1_388
10
4.3553006
20
60.7005177
11
4.802565
21
60.7005177
0
LINE
8
DEFAULT_255_1_388
10
4.802565
20
60.7005177
11
4.5784811
21
61.3158451
0
LINE
8
DEFAULT_255_1_388
10
5.7874503
20
61.3040987
11
5.7874503
21
60.9200838
0
LINE
8
DEFAULT_255_1_388
10
5.7874503
20
60.9200838
11
6.1542975
21
60.9200838
0
LINE
8
DEFAULT_255_1_388
10
6.1542975
20
60.9200838
11
6.1542975
21
60.7619601
0
LINE
8
DEFAULT_255_1_388
10
6.1542975
20
60.7619601
11
5.7874503
21
60.7619601
0
LINE
8
DEFAULT_255_1_388
10
5.7874503
20
60.7619601
11
5.7874503
21
60.3463204
0
LINE
8
DEFAULT_255_1_388
10
5.7874503
20
60.3463204
11
5.6193873
21
60.3463204
0
LINE
8
DEFAULT_255_1_388
10
5.6193873
20
60.3463204
11
5.6193873
21
60.7619601
0
LINE
8
DEFAULT_255_1_388
10
5.6193873
20
60.7619601
11
5.2525401
21
60.7619601
0
LINE
8
DEFAULT_255_1_388
10
5.2525401
20
60.7619601
11
5.2525401
21
60.9200838
0
LINE
8
DEFAULT_255_1_388
10
5.2525401
20
60.9200838
11
5.6193873
21
60.9200838
0
LINE
8
DEFAULT_255_1_388
10
5.6193873
20
60.9200838
11
5.6193873
21
61.3040987
0
LINE
8
DEFAULT_255_1_388
10
5.6193873
20
61.3040987
11
5.7874503
21
61.3040987
0
LINE
8
DEFAULT_255_1_388
10
4.2089367
20
69.4674898
11
4.2089367
21
68.1519
0
LINE
8
DEFAULT_255_1_388
10
4.2089367
20
68.1519
11
4.0354523
21
68.1519
0
LINE
8
DEFAULT_255_1_388
10
4.0354523
20
68.1519
11
4.0354523
21
69.4674898
0
LINE
8
DEFAULT_255_1_388
10
4.0354523
20
69.4674898
11
4.2089367
21
69.4674898
0
LINE
8
DEFAULT_255_1_388
10
5.53808
20
68.8503553
11
5.53808
21
68.7672274
0
LINE
8
DEFAULT_255_1_388
10
4.480006
20
68.7554811
11
4.480006
21
68.8503553
0
LINE
8
DEFAULT_255_1_388
10
5.3654992
20
68.7545775
11
5.3654992
21
68.8521625
0
LINE
8
DEFAULT_255_1_388
10
4.6525868
20
68.8639088
11
4.6525868
21
68.7672274
0
ARC
8
DEFAULT_255_1_388
10
4.5658538
20
68.7627726
40
0.9722364
50
350.4878118
51
0.2625322
0
ARC
8
DEFAULT_255_1_388
10
4.8238498
20
68.7183994
40
0.7104556
50
336.0277991
51
350.5787241
0
ARC
8
DEFAULT_255_1_388
10
4.9751605
20
68.6500243
40
0.544417
50
319.887443
51
336.1331163
0
ARC
8
DEFAULT_255_1_388
10
5.0429417
20
68.5957733
40
0.4576311
50
302.4806296
51
319.6144102
0
ARC
8
DEFAULT_255_1_388
10
5.0300038
20
68.6207067
40
0.4856183
50
275.8196423
51
302.1885521
0
ARC
8
DEFAULT_255_1_388
10
5.01129
20
68.7492466
40
0.6154183
50
269.9169897
51
276.339506
0
ARC
8
DEFAULT_255_1_388
10
5.00625
20
68.672068
40
0.5382553
50
252.5221437
51
270.441579
0
ARC
8
DEFAULT_255_1_388
10
4.9900751
20
68.6114046
40
0.4755426
50
237.5349961
51
252.1858334
0
ARC
8
DEFAULT_255_1_388
10
5.0001127
20
68.624212
40
0.4917393
50
209.0632754
51
237.3492577
0
ARC
8
DEFAULT_255_1_388
10
5.0980453
20
68.6857104
40
0.6072464
50
205.118533
51
209.6465345
0
ARC
8
DEFAULT_255_1_388
10
5.1876455
20
68.7237174
40
0.7045164
50
188.7216633
51
204.8239753
0
ARC
8
DEFAULT_255_1_388
10
5.412323
20
68.7615387
40
0.9323368
50
180.3722704
51
188.9253909
0
ARC
8
DEFAULT_255_1_388
10
5.4092792
20
68.8548416
40
0.929284
50
169.5253055
51
180.2766048
0
ARC
8
DEFAULT_255_1_388
10
5.1952591
20
68.8942024
40
0.7116745
50
155.8314601
51
169.5088611
0
ARC
8
DEFAULT_255_1_388
10
5.0512054
20
68.9610312
40
0.5528904
50
139.6259579
51
156.0379072
0
ARC
8
DEFAULT_255_1_388
10
4.9848588
20
69.0144143
40
0.4677708
50
122.6414784
51
139.3431662
0
ARC
8
DEFAULT_255_1_388
10
4.9961842
20
68.9937787
40
0.4912586
50
93.0224537
51
122.4556091
0
ARC
8
DEFAULT_255_1_388
10
5.0083363
20
68.8851776
40
0.6003837
50
89.9756766
51
93.6340839
0
ARC
8
DEFAULT_255_1_388
10
5.0126961
20
68.9300879
40
0.5554884
50
73.7463329
51
90.4234008
0
ARC
8
DEFAULT_255_1_388
10
5.0324434
20
69.0065772
40
0.4765353
50
57.663051
51
73.4516911
0
ARC
8
DEFAULT_255_1_388
10
5.0315472
20
69.0090108
40
0.4749629
50
29.1441355
51
57.4146687
0
ARC
8
DEFAULT_255_1_388
10
4.9263283
20
68.9433046
40
0.5988917
50
24.0985653
51
29.732054
0
ARC
8
DEFAULT_255_1_388
10
4.8100915
20
68.8951154
40
0.7246823
50
8.6654943
51
23.8241215
0
ARC
8
DEFAULT_255_1_388
10
4.5587333
20
68.8541037
40
0.9793537
50
359.7807044
51
8.8218476
0
ARC
8
DEFAULT_255_1_388
10
4.4297038
20
68.8569731
40
0.9358078
50
359.7054632
51
8.0359751
0
ARC
8
DEFAULT_255_1_388
10
4.7672089
20
68.9061252
40
0.5947474
50
7.8926278
51
20.2962188
0
ARC
8
DEFAULT_255_1_388
10
4.9502939
20
68.9736367
40
0.3996117
50
20.3231056
51
36.4990255
0
ARC
8
DEFAULT_255_1_388
10
5.0274237
20
69.0330399
40
0.3022818
50
36.1436715
51
85.6627846
0
ARC
8
DEFAULT_255_1_388
10
5.0091492
20
68.9160881
40
0.4203853
50
84.3845912
51
90.076054
0
ARC
8
DEFAULT_255_1_388
10
5.0043847
20
68.9903416
40
0.346157
50
89.3037228
51
109.9046209
0
ARC
8
DEFAULT_255_1_388
10
4.993968
20
69.0333379
40
0.3022217
50
110.8229774
51
143.917961
0
ARC
8
DEFAULT_255_1_388
10
5.0990039
20
68.9531455
40
0.434348
50
143.5289166
51
163.2980252
0
ARC
8
DEFAULT_255_1_388
10
5.3136326
20
68.8856685
40
0.659321
50
163.0418884
51
174.3139873
0
ARC
8
DEFAULT_255_1_388
10
5.5841291
20
68.8544378
40
0.9315905
50
174.050934
51
179.4174954
0
ARC
8
DEFAULT_255_1_388
10
5.5273235
20
68.7625382
40
0.8747493
50
179.6928582
51
188.7908948
0
ARC
8
DEFAULT_255_1_388
10
5.2277035
20
68.7146086
40
0.5713262
50
188.6328449
51
202.5630732
0
ARC
8
DEFAULT_255_1_388
10
5.0865872
20
68.6579142
40
0.4192612
50
202.8078931
51
216.1195888
0
ARC
8
DEFAULT_255_1_388
10
4.9955389
20
68.5846479
40
0.3025752
50
215.0755613
51
264.6379773
0
ARC
8
DEFAULT_255_1_388
10
5.0098226
20
68.6781376
40
0.3970284
50
263.8464302
51
270.0830805
0
ARC
8
DEFAULT_255_1_388
10
5.0144771
20
68.6490808
40
0.3679937
50
269.3649295
51
287.5149684
0
ARC
8
DEFAULT_255_1_388
10
5.0345212
20
68.5762714
40
0.2925408
50
288.0629019
51
323.8115617
0
ARC
8
DEFAULT_255_1_388
10
4.9365188
20
68.6493754
40
0.4148018
50
323.6546541
51
342.6591359
0
ARC
8
DEFAULT_255_1_388
10
4.7079846
20
68.723728
40
0.6551163
50
342.4092446
51
353.6451501
0
ARC
8
DEFAULT_255_1_388
10
4.3894639
20
68.7633565
40
0.9760748
50
353.4027553
51
359.4846611
0
LINE
8
DEFAULT_255_1_388
10
6.7696383
20
68.8069842
11
6.7696383
21
68.3244808
0
LINE
8
DEFAULT_255_1_388
10
5.755839
20
68.7464454
11
5.755839
21
68.8611981
0
LINE
8
DEFAULT_255_1_388
10
6.7696383
20
69.0816678
11
6.596154
21
69.0816678
0
LINE
8
DEFAULT_255_1_388
10
5.930227
20
68.8657159
11
5.930227
21
68.7581917
0
LINE
8
DEFAULT_255_1_388
10
6.5970575
20
68.3705626
11
6.5970575
21
68.6660282
0
LINE
8
DEFAULT_255_1_388
10
6.5970575
20
68.6660282
11
6.2925563
21
68.6660282
0
LINE
8
DEFAULT_255_1_388
10
6.2925563
20
68.6660282
11
6.2925563
21
68.8069842
0
LINE
8
DEFAULT_255_1_388
10
6.2925563
20
68.8069842
11
6.7696383
21
68.8069842
0
ARC
8
DEFAULT_255_1_388
10
6.4510984
20
68.5487284
40
0.3895571
50
295.8437277
51
324.8549962
0
ARC
8
DEFAULT_255_1_388
10
6.4043366
20
68.6333619
40
0.4861381
50
291.5691164
51
296.4556269
0
ARC
8
DEFAULT_255_1_388
10
6.3468369
20
68.7869801
40
0.6501442
50
278.6622213
51
291.3047061
0
ARC
8
DEFAULT_255_1_388
10
6.3086401
20
69.0286557
40
0.8948168
50
270.0200506
51
278.7494673
0
ARC
8
DEFAULT_255_1_388
10
6.3042605
20
69.2132453
40
1.0794166
50
270.0022372
51
270.2490917
0
ARC
8
DEFAULT_255_1_388
10
6.3000497
20
68.7173827
40
0.5835695
50
253.5785313
51
270.4175629
0
ARC
8
DEFAULT_255_1_388
10
6.2805493
20
68.6418625
40
0.5056241
50
238.8203954
51
253.2788387
0
ARC
8
DEFAULT_255_1_388
10
6.2783409
20
68.6361224
40
0.4995712
50
206.7883476
51
238.696262
0
ARC
8
DEFAULT_255_1_388
10
6.3658805
20
68.6885847
40
0.6014056
50
206.1137778
51
207.4912776
0
ARC
8
DEFAULT_255_1_388
10
6.4325641
20
68.7169284
40
0.6737692
50
188.6922336
51
205.782076
0
ARC
8
DEFAULT_255_1_388
10
6.6414
20
68.7524455
40
0.8855812
50
180.3881972
51
188.9218085
0
ARC
8
DEFAULT_255_1_388
10
6.7795157
20
68.8675622
40
1.0236965
50
170.2024645
51
180.3561986
0
ARC
8
DEFAULT_255_1_388
10
6.4236307
20
68.9312101
40
0.6621746
50
154.2856519
51
170.3893388
0
ARC
8
DEFAULT_255_1_388
10
6.2794271
20
68.9972192
40
0.5036209
50
139.8400879
51
153.9334639
0
ARC
8
DEFAULT_255_1_388
10
6.2390175
20
69.0295716
40
0.4518751
50
98.4190017
51
139.6707015
0
ARC
8
DEFAULT_255_1_388
10
6.2817142
20
68.8219755
40
0.6635912
50
89.7660128
51
99.4415389
0
ARC
8
DEFAULT_255_1_388
10
6.2890539
20
68.8293517
40
0.6562258
50
78.0552044
51
90.4042252
0
ARC
8
DEFAULT_255_1_388
10
6.3345602
20
69.0339661
40
0.4466287
50
54.6380186
51
78.3338577
0
ARC
8
DEFAULT_255_1_388
10
6.3559901
20
69.0700444
40
0.4048184
50
50.0313964
51
54.1562739
0
ARC
8
DEFAULT_255_1_388
10
6.3438794
20
69.0591798
40
0.4209308
50
18.1092229
51
49.7179911
0
ARC
8
DEFAULT_255_1_388
10
6.1799875
20
68.9991399
40
0.5953982
50
7.967396
51
18.698492
0
ARC
8
DEFAULT_255_1_388
10
6.1969136
20
69.0130236
40
0.4050986
50
9.7558763
51
27.3214087
0
ARC
8
DEFAULT_255_1_388
10
6.32376
20
69.0764087
40
0.2633168
50
27.736147
51
84.5257861
0
ARC
8
DEFAULT_255_1_388
10
6.286901
20
68.8914988
40
0.4513019
50
82.1064239
51
90.1997295
0
ARC
8
DEFAULT_255_1_388
10
6.2813026
20
68.9486501
40
0.3941684
50
89.4148952
51
105.5824837
0
ARC
8
DEFAULT_255_1_388
10
6.2523907
20
69.0539043
40
0.2850167
50
105.6678541
51
144.2649156
0
ARC
8
DEFAULT_255_1_388
10
6.3528799
20
68.9824024
40
0.4083468
50
144.3560675
51
162.8564185
0
ARC
8
DEFAULT_255_1_388
10
6.5873242
20
68.9071083
40
0.6545749
50
162.6076338
51
173.6779811
0
ARC
8
DEFAULT_255_1_388
10
6.9317357
20
68.8652422
40
1.0015089
50
173.4670996
51
179.9729015
0
ARC
8
DEFAULT_255_1_388
10
6.7170228
20
68.7534636
40
0.78681
50
179.6556955
51
190.007958
0
ARC
8
DEFAULT_255_1_388
10
6.4564509
20
68.705666
40
0.5218997
50
189.8117884
51
206.6795375
0
ARC
8
DEFAULT_255_1_388
10
6.3613955
20
68.6613514
40
0.4170788
50
207.1031171
51
217.7074698
0
ARC
8
DEFAULT_255_1_388
10
6.2900386
20
68.5992596
40
0.3226945
50
216.7345117
51
265.6812141
0
ARC
8
DEFAULT_255_1_388
10
6.3047528
20
68.701003
40
0.4253149
50
264.7367524
51
270.0610826
0
ARC
8
DEFAULT_255_1_388
10
6.3073713
20
69.0205173
40
0.7448321
50
269.8334494
51
276.0538364
0
ARC
8
DEFAULT_255_1_388
10
6.3306576
20
68.8065924
40
0.5296446
50
275.9894423
51
284.4615914
0
ARC
8
DEFAULT_255_1_388
10
6.3528089
20
68.713357
40
0.4338353
50
284.7038488
51
286.4938196
0
ARC
8
DEFAULT_255_1_388
10
6.3987238
20
68.5654371
40
0.2789738
50
286.0770429
51
304.2629628
0
ARC
8
DEFAULT_255_1_388
10
6.4137396
20
68.540868
40
0.2502188
50
304.5886247
51
317.1074126
0
LINE
8
DEFAULT_255_1_388
10
4.2472367
20
77.4049898
11
4.2472367
21
76.0894
0
LINE
8
DEFAULT_255_1_388
10
4.2472367
20
76.0894
11
4.0737523
21
76.0894
0
LINE
8
DEFAULT_255_1_388
10
4.0737523
20
76.0894
11
4.0737523
21
77.4049898
0
LINE
8
DEFAULT_255_1_388
10
4.0737523
20
77.4049898
11
4.2472367
21
77.4049898
0
LINE
8
DEFAULT_255_1_388
10
5.57638
20
76.7878553
11
5.57638
21
76.7047274
0
LINE
8
DEFAULT_255_1_388
10
4.518306
20
76.6929811
11
4.518306
21
76.7878553
0
LINE
8
DEFAULT_255_1_388
10
5.4037992
20
76.6920775
11
5.4037992
21
76.7896625
0
LINE
8
DEFAULT_255_1_388
10
4.6908868
20
76.8014088
11
4.6908868
21
76.7047274
0
ARC
8
DEFAULT_255_1_388
10
4.6041538
20
76.7002726
40
0.9722364
50
350.4878118
51
0.2625322
0
ARC
8
DEFAULT_255_1_388
10
4.8621498
20
76.6558994
40
0.7104556
50
336.0277991
51
350.5787241
0
ARC
8
DEFAULT_255_1_388
10
5.0134605
20
76.5875243
40
0.544417
50
319.887443
51
336.1331163
0
ARC
8
DEFAULT_255_1_388
10
5.0812417
20
76.5332733
40
0.4576311
50
302.4806296
51
319.6144102
0
ARC
8
DEFAULT_255_1_388
10
5.0683038
20
76.5582067
40
0.4856183
50
275.8196423
51
302.1885521
0
ARC
8
DEFAULT_255_1_388
10
5.04959
20
76.6867466
40
0.6154183
50
269.9169897
51
276.339506
0
ARC
8
DEFAULT_255_1_388
10
5.04455
20
76.609568
40
0.5382553
50
252.5221437
51
270.441579
0
ARC
8
DEFAULT_255_1_388
10
5.0283751
20
76.5489046
40
0.4755426
50
237.5349961
51
252.1858334
0
ARC
8
DEFAULT_255_1_388
10
5.0384127
20
76.561712
40
0.4917393
50
209.0632754
51
237.3492577
0
ARC
8
DEFAULT_255_1_388
10
5.1363453
20
76.6232104
40
0.6072464
50
205.118533
51
209.6465345
0
ARC
8
DEFAULT_255_1_388
10
5.2259455
20
76.6612174
40
0.7045164
50
188.7216633
51
204.8239753
0
ARC
8
DEFAULT_255_1_388
10
5.450623
20
76.6990387
40
0.9323368
50
180.3722704
51
188.9253909
0
ARC
8
DEFAULT_255_1_388
10
5.4475792
20
76.7923416
40
0.929284
50
169.5253055
51
180.2766048
0
ARC
8
DEFAULT_255_1_388
10
5.2335591
20
76.8317024
40
0.7116745
50
155.8314601
51
169.5088611
0
ARC
8
DEFAULT_255_1_388
10
5.0895054
20
76.8985312
40
0.5528904
50
139.6259579
51
156.0379072
0
ARC
8
DEFAULT_255_1_388
10
5.0231588
20
76.9519143
40
0.4677708
50
122.6414784
51
139.3431662
0
ARC
8
DEFAULT_255_1_388
10
5.0344842
20
76.9312787
40
0.4912586
50
93.0224537
51
122.4556091
0
ARC
8
DEFAULT_255_1_388
10
5.0466363
20
76.8226776
40
0.6003837
50
89.9756766
51
93.6340839
0
ARC
8
DEFAULT_255_1_388
10
5.0509961
20
76.8675879
40
0.5554884
50
73.7463329
51
90.4234008
0
ARC
8
DEFAULT_255_1_388
10
5.0707434
20
76.9440772
40
0.4765353
50
57.663051
51
73.4516911
0
ARC
8
DEFAULT_255_1_388
10
5.0698472
20
76.9465108
40
0.4749629
50
29.1441355
51
57.4146687
0
ARC
8
DEFAULT_255_1_388
10
4.9646283
20
76.8808046
40
0.5988917
50
24.0985653
51
29.732054
0
ARC
8
DEFAULT_255_1_388
10
4.8483915
20
76.8326154
40
0.7246823
50
8.6654943
51
23.8241215
0
ARC
8
DEFAULT_255_1_388
10
4.5970333
20
76.7916037
40
0.9793537
50
359.7807044
51
8.8218476
0
ARC
8
DEFAULT_255_1_388
10
4.4680038
20
76.7944731
40
0.9358078
50
359.7054632
51
8.0359751
0
ARC
8
DEFAULT_255_1_388
10
4.8055089
20
76.8436252
40
0.5947474
50
7.8926278
51
20.2962188
0
ARC
8
DEFAULT_255_1_388
10
4.9885939
20
76.9111367
40
0.3996117
50
20.3231056
51
36.4990255
0
ARC
8
DEFAULT_255_1_388
10
5.0657237
20
76.9705399
40
0.3022818
50
36.1436715
51
85.6627846
0
ARC
8
DEFAULT_255_1_388
10
5.0474492
20
76.8535881
40
0.4203853
50
84.3845912
51
90.076054
0
ARC
8
DEFAULT_255_1_388
10
5.0426847
20
76.9278416
40
0.346157
50
89.3037228
51
109.9046209
0
ARC
8
DEFAULT_255_1_388
10
5.032268
20
76.9708379
40
0.3022217
50
110.8229774
51
143.917961
0
ARC
8
DEFAULT_255_1_388
10
5.1373039
20
76.8906455
40
0.434348
50
143.5289166
51
163.2980252
0
ARC
8
DEFAULT_255_1_388
10
5.3519326
20
76.8231685
40
0.659321
50
163.0418884
51
174.3139873
0
ARC
8
DEFAULT_255_1_388
10
5.6224291
20
76.7919378
40
0.9315905
50
174.050934
51
179.4174954
0
ARC
8
DEFAULT_255_1_388
10
5.5656235
20
76.7000382
40
0.8747493
50
179.6928582
51
188.7908948
0
ARC
8
DEFAULT_255_1_388
10
5.2660035
20
76.6521086
40
0.5713262
50
188.6328449
51
202.5630732
0
ARC
8
DEFAULT_255_1_388
10
5.1248872
20
76.5954142
40
0.4192612
50
202.8078931
51
216.1195888
0
ARC
8
DEFAULT_255_1_388
10
5.0338389
20
76.5221479
40
0.3025752
50
215.0755613
51
264.6379773
0
ARC
8
DEFAULT_255_1_388
10
5.0481226
20
76.6156376
40
0.3970284
50
263.8464302
51
270.0830805
0
ARC
8
DEFAULT_255_1_388
10
5.0527771
20
76.5865808
40
0.3679937
50
269.3649295
51
287.5149684
0
ARC
8
DEFAULT_255_1_388
10
5.0728212
20
76.5137714
40
0.2925408
50
288.0629019
51
323.8115617
0
ARC
8
DEFAULT_255_1_388
10
4.9748188
20
76.5868754
40
0.4148018
50
323.6546541
51
342.6591359
0
ARC
8
DEFAULT_255_1_388
10
4.7462846
20
76.661228
40
0.6551163
50
342.4092446
51
353.6451501
0
ARC
8
DEFAULT_255_1_388
10
4.4277639
20
76.7008565
40
0.9760748
50
353.4027553
51
359.4846611
0
LINE
8
DEFAULT_255_1_388
10
5.8781705
20
77.4049898
11
6.2522462
21
76.3198089
0
LINE
8
DEFAULT_255_1_388
10
6.2522462
20
76.3198089
11
6.628129
21
77.4049898
0
LINE
8
DEFAULT_255_1_388
10
6.628129
20
77.4049898
11
6.8178775
21
77.4049898
0
LINE
8
DEFAULT_255_1_388
10
6.8178775
20
77.4049898
11
6.3299527
21
76.0894
0
LINE
8
DEFAULT_255_1_388
10
6.3299527
20
76.0894
11
6.1763468
21
76.0894
0
LINE
8
DEFAULT_255_1_388
10
6.1763468
20
76.0894
11
5.6893255
21
77.4049898
0
LINE
8
DEFAULT_255_1_388
10
5.6893255
20
77.4049898
11
5.8781705
21
77.4049898
0
LINE
8
DEFAULT_255_1_388
10
4.1841367
20
85.3424898
11
4.1841367
21
84.0269
0
LINE
8
DEFAULT_255_1_388
10
4.1841367
20
84.0269
11
4.0106523
21
84.0269
0
LINE
8
DEFAULT_255_1_388
10
4.0106523
20
84.0269
11
4.0106523
21
85.3424898
0
LINE
8
DEFAULT_255_1_388
10
4.0106523
20
85.3424898
11
4.1841367
21
85.3424898
0
LINE
8
DEFAULT_255_1_388
10
5.3199172
20
84.1633382
11
5.3199172
21
84.0269
0
LINE
8
DEFAULT_255_1_388
10
5.3199172
20
84.0269
11
4.4579167
21
84.0269
0
LINE
8
DEFAULT_255_1_388
10
4.4579167
20
84.0269
11
4.4579167
21
84.1470741
0
LINE
8
DEFAULT_255_1_388
10
4.4579167
20
84.1470741
11
4.9133132
21
84.6530702
0
LINE
8
DEFAULT_255_1_388
10
4.5997763
20
84.9548607
11
4.4326169
21
84.9548607
0
LINE
8
DEFAULT_255_1_388
10
5.0118017
20
84.545546
11
4.6594116
21
84.1633382
0
LINE
8
DEFAULT_255_1_388
10
4.6594116
20
84.1633382
11
5.3199172
21
84.1633382
0
ARC
8
DEFAULT_255_1_388
10
3.3957191
20
85.9950983
40
2.0258655
50
318.5132526
51
320.7829045
0
ARC
8
DEFAULT_255_1_388
10
3.9905148
20
85.5109929
40
1.2589638
50
320.7372878
51
323.9739031
0
ARC
8
DEFAULT_255_1_388
10
4.431408
20
85.1915554
40
0.7145141
50
323.8962701
51
328.64194
0
ARC
8
DEFAULT_255_1_388
10
4.6616338
20
85.0495545
40
0.4440242
50
328.8294576
51
331.7891185
0
ARC
8
DEFAULT_255_1_388
10
4.7738658
20
84.9916374
40
0.3177517
50
331.4254512
51
352.9365785
0
ARC
8
DEFAULT_255_1_388
10
4.7891658
20
84.988205
40
0.3021496
50
353.2257659
51
0.0166158
0
ARC
8
DEFAULT_255_1_388
10
4.8128418
20
84.9907894
40
0.2784847
50
359.486299
51
15.9343185
0
ARC
8
DEFAULT_255_1_388
10
4.8698685
20
85.0061269
40
0.2194403
50
16.1712913
51
43.5286088
0
ARC
8
DEFAULT_255_1_388
10
4.878563
20
85.0148191
40
0.2071504
50
43.4417391
51
83.1661095
0
ARC
8
DEFAULT_255_1_388
10
4.8634791
20
84.9319316
40
0.2912888
50
82.160179
51
90.1505708
0
ARC
8
DEFAULT_255_1_388
10
4.8599272
20
84.8715279
40
0.3517025
50
89.5460741
51
102.5418361
0
ARC
8
DEFAULT_255_1_388
10
4.8325992
20
84.9874933
40
0.2325748
50
102.1738499
51
129.206123
0
ARC
8
DEFAULT_255_1_388
10
4.8237446
20
85.0014664
40
0.2161591
50
129.72865
51
135.753947
0
ARC
8
DEFAULT_255_1_388
10
4.8373928
20
84.9905728
40
0.2335433
50
136.1757367
51
166.3673339
0
ARC
8
DEFAULT_255_1_388
10
4.9506616
20
84.9602148
40
0.3507873
50
165.9090694
51
178.8684636
0
ARC
8
DEFAULT_255_1_388
10
5.0482388
20
84.9549263
40
0.4484624
50
178.4391136
51
180.0083808
0
ARC
8
DEFAULT_255_1_388
10
4.8903089
20
84.9593197
40
0.4577138
50
163.2878482
51
180.5581842
0
ARC
8
DEFAULT_255_1_388
10
4.800113
20
84.9841393
40
0.3641968
50
133.4540601
51
162.947111
0
ARC
8
DEFAULT_255_1_388
10
4.8202012
20
84.9627789
40
0.3935189
50
100.7869829
51
133.4382499
0
ARC
8
DEFAULT_255_1_388
10
4.8593257
20
84.7885399
40
0.5720313
50
89.660664
51
101.3702276
0
ARC
8
DEFAULT_255_1_388
10
4.8667866
20
84.7954263
40
0.5651495
50
78.2172678
51
90.412935
0
ARC
8
DEFAULT_255_1_388
10
4.9067332
20
84.9781511
40
0.378122
50
55.9269121
51
78.4888449
0
ARC
8
DEFAULT_255_1_388
10
4.9288047
20
85.0162187
40
0.3342379
50
47.929771
51
55.4049217
0
ARC
8
DEFAULT_255_1_388
10
4.9402577
20
85.0278618
40
0.3179217
50
4.334829
51
48.0560205
0
ARC
8
DEFAULT_255_1_388
10
4.8170379
20
85.0087487
40
0.442341
50
359.9251713
51
5.5971671
0
ARC
8
DEFAULT_255_1_388
10
4.8652534
20
85.0150728
40
0.3941854
50
337.8914027
51
358.9967534
0
ARC
8
DEFAULT_255_1_388
10
4.5600104
20
85.1328295
40
0.7213271
50
326.9132501
51
338.3508308
0
ARC
8
DEFAULT_255_1_388
10
4.1116216
20
85.4202105
40
1.2538973
50
319.6471833
51
327.0959558
0
ARC
8
DEFAULT_255_1_388
10
3.6802874
20
85.776005
40
1.8129975
50
317.2588228
51
319.9045804
0
LINE
8
DEFAULT_255_1_388
10
4.2089367
20
93.2799898
11
4.2089367
21
91.9644
0
LINE
8
DEFAULT_255_1_388
10
4.2089367
20
91.9644
11
4.0354523
21
91.9644
0
LINE
8
DEFAULT_255_1_388
10
4.0354523
20
91.9644
11
4.0354523
21
93.2799898
0
LINE
8
DEFAULT_255_1_388
10
4.0354523
20
93.2799898
11
4.2089367
21
93.2799898
0
LINE
8
DEFAULT_255_1_388
10
5.53808
20
92.6628553
11
5.53808
21
92.5797274
0
LINE
8
DEFAULT_255_1_388
10
4.480006
20
92.5679811
11
4.480006
21
92.6628553
0
LINE
8
DEFAULT_255_1_388
10
5.3654992
20
92.5670775
11
5.3654992
21
92.6646625
0
LINE
8
DEFAULT_255_1_388
10
4.6525868
20
92.6764088
11
4.6525868
21
92.5797274
0
ARC
8
DEFAULT_255_1_388
10
4.5658538
20
92.5752726
40
0.9722364
50
350.4878118
51
0.2625322
0
ARC
8
DEFAULT_255_1_388
10
4.8238498
20
92.5308994
40
0.7104556
50
336.0277991
51
350.5787241
0
ARC
8
DEFAULT_255_1_388
10
4.9751605
20
92.4625243
40
0.544417
50
319.887443
51
336.1331163
0
ARC
8
DEFAULT_255_1_388
10
5.0429417
20
92.4082733
40
0.4576311
50
302.4806296
51
319.6144102
0
ARC
8
DEFAULT_255_1_388
10
5.0300038
20
92.4332067
40
0.4856183
50
275.8196423
51
302.1885521
0
ARC
8
DEFAULT_255_1_388
10
5.01129
20
92.5617466
40
0.6154183
50
269.9169897
51
276.339506
0
ARC
8
DEFAULT_255_1_388
10
5.00625
20
92.484568
40
0.5382553
50
252.5221437
51
270.441579
0
ARC
8
DEFAULT_255_1_388
10
4.9900751
20
92.4239046
40
0.4755426
50
237.5349961
51
252.1858334
0
ARC
8
DEFAULT_255_1_388
10
5.0001127
20
92.436712
40
0.4917393
50
209.0632754
51
237.3492577
0
ARC
8
DEFAULT_255_1_388
10
5.0980453
20
92.4982104
40
0.6072464
50
205.118533
51
209.6465345
0
ARC
8
DEFAULT_255_1_388
10
5.1876455
20
92.5362174
40
0.7045164
50
188.7216633
51
204.8239753
0
ARC
8
DEFAULT_255_1_388
10
5.412323
20
92.5740387
40
0.9323368
50
180.3722704
51
188.9253909
0
ARC
8
DEFAULT_255_1_388
10
5.4092792
20
92.6673416
40
0.929284
50
169.5253055
51
180.2766048
0
ARC
8
DEFAULT_255_1_388
10
5.1952591
20
92.7067024
40
0.7116745
50
155.8314601
51
169.5088611
0
ARC
8
DEFAULT_255_1_388
10
5.0512054
20
92.7735312
40
0.5528904
50
139.6259579
51
156.0379072
0
ARC
8
DEFAULT_255_1_388
10
4.9848588
20
92.8269143
40
0.4677708
50
122.6414784
51
139.3431662
0
ARC
8
DEFAULT_255_1_388
10
4.9961842
20
92.8062787
40
0.4912586
50
93.0224537
51
122.4556091
0
ARC
8
DEFAULT_255_1_388
10
5.0083363
20
92.6976776
40
0.6003837
50
89.9756766
51
93.6340839
0
ARC
8
DEFAULT_255_1_388
10
5.0126961
20
92.7425879
40
0.5554884
50
73.7463329
51
90.4234008
0
ARC
8
DEFAULT_255_1_388
10
5.0324434
20
92.8190772
40
0.4765353
50
57.663051
51
73.4516911
0
ARC
8
DEFAULT_255_1_388
10
5.0315472
20
92.8215108
40
0.4749629
50
29.1441355
51
57.4146687
0
ARC
8
DEFAULT_255_1_388
10
4.9263283
20
92.7558046
40
0.5988917
50
24.0985653
51
29.732054
0
ARC
8
DEFAULT_255_1_388
10
4.8100915
20
92.7076154
40
0.7246823
50
8.6654943
51
23.8241215
0
ARC
8
DEFAULT_255_1_388
10
4.5587333
20
92.6666037
40
0.9793537
50
359.7807044
51
8.8218476
0
ARC
8
DEFAULT_255_1_388
10
4.4297038
20
92.6694731
40
0.9358078
50
359.7054632
51
8.0359751
0
ARC
8
DEFAULT_255_1_388
10
4.7672089
20
92.7186252
40
0.5947474
50
7.8926278
51
20.2962188
0
ARC
8
DEFAULT_255_1_388
10
4.9502939
20
92.7861367
40
0.3996117
50
20.3231056
51
36.4990255
0
ARC
8
DEFAULT_255_1_388
10
5.0274237
20
92.8455399
40
0.3022818
50
36.1436715
51
85.6627846
0
ARC
8
DEFAULT_255_1_388
10
5.0091492
20
92.7285881
40
0.4203853
50
84.3845912
51
90.076054
0
ARC
8
DEFAULT_255_1_388
10
5.0043847
20
92.8028416
40
0.346157
50
89.3037228
51
109.9046209
0
ARC
8
DEFAULT_255_1_388
10
4.993968
20
92.8458379
40
0.3022217
50
110.8229774
51
143.917961
0
ARC
8
DEFAULT_255_1_388
10
5.0990039
20
92.7656455
40
0.434348
50
143.5289166
51
163.2980252
0
ARC
8
DEFAULT_255_1_388
10
5.3136326
20
92.6981685
40
0.659321
50
163.0418884
51
174.3139873
0
ARC
8
DEFAULT_255_1_388
10
5.5841291
20
92.6669378
40
0.9315905
50
174.050934
51
179.4174954
0
ARC
8
DEFAULT_255_1_388
10
5.5273235
20
92.5750382
40
0.8747493
50
179.6928582
51
188.7908948
0
ARC
8
DEFAULT_255_1_388
10
5.2277035
20
92.5271086
40
0.5713262
50
188.6328449
51
202.5630732
0
ARC
8
DEFAULT_255_1_388
10
5.0865872
20
92.4704142
40
0.4192612
50
202.8078931
51
216.1195888
0
ARC
8
DEFAULT_255_1_388
10
4.9955389
20
92.3971479
40
0.3025752
50
215.0755613
51
264.6379773
0
ARC
8
DEFAULT_255_1_388
10
5.0098226
20
92.4906376
40
0.3970284
50
263.8464302
51
270.0830805
0
ARC
8
DEFAULT_255_1_388
10
5.0144771
20
92.4615808
40
0.3679937
50
269.3649295
51
287.5149684
0
ARC
8
DEFAULT_255_1_388
10
5.0345212
20
92.3887714
40
0.2925408
50
288.0629019
51
323.8115617
0
ARC
8
DEFAULT_255_1_388
10
4.9365188
20
92.4618754
40
0.4148018
50
323.6546541
51
342.6591359
0
ARC
8
DEFAULT_255_1_388
10
4.7079846
20
92.536228
40
0.6551163
50
342.4092446
51
353.6451501
0
ARC
8
DEFAULT_255_1_388
10
4.3894639
20
92.5758565
40
0.9760748
50
353.4027553
51
359.4846611
0
LINE
8
DEFAULT_255_1_388
10
6.7696383
20
92.6194842
11
6.7696383
21
92.1369808
0
LINE
8
DEFAULT_255_1_388
10
5.755839
20
92.5589454
11
5.755839
21
92.6736981
0
LINE
8
DEFAULT_255_1_388
10
6.7696383
20
92.8941678
11
6.596154
21
92.8941678
0
LINE
8
DEFAULT_255_1_388
10
5.930227
20
92.6782159
11
5.930227
21
92.5706917
0
LINE
8
DEFAULT_255_1_388
10
6.5970575
20
92.1830626
11
6.5970575
21
92.4785282
0
LINE
8
DEFAULT_255_1_388
10
6.5970575
20
92.4785282
11
6.2925563
21
92.4785282
0
LINE
8
DEFAULT_255_1_388
10
6.2925563
20
92.4785282
11
6.2925563
21
92.6194842
0
LINE
8
DEFAULT_255_1_388
10
6.2925563
20
92.6194842
11
6.7696383
21
92.6194842
0
ARC
8
DEFAULT_255_1_388
10
6.4510984
20
92.3612284
40
0.3895571
50
295.8437277
51
324.8549962
0
ARC
8
DEFAULT_255_1_388
10
6.4043366
20
92.4458619
40
0.4861381
50
291.5691164
51
296.4556269
0
ARC
8
DEFAULT_255_1_388
10
6.3468369
20
92.5994801
40
0.6501442
50
278.6622213
51
291.3047061
0
ARC
8
DEFAULT_255_1_388
10
6.3086401
20
92.8411557
40
0.8948168
50
270.0200506
51
278.7494673
0
ARC
8
DEFAULT_255_1_388
10
6.3042605
20
93.0257453
40
1.0794166
50
270.0022372
51
270.2490917
0
ARC
8
DEFAULT_255_1_388
10
6.3000497
20
92.5298827
40
0.5835695
50
253.5785313
51
270.4175629
0
ARC
8
DEFAULT_255_1_388
10
6.2805493
20
92.4543625
40
0.5056241
50
238.8203954
51
253.2788387
0
ARC
8
DEFAULT_255_1_388
10
6.2783409
20
92.4486224
40
0.4995712
50
206.7883476
51
238.696262
0
ARC
8
DEFAULT_255_1_388
10
6.3658805
20
92.5010847
40
0.6014056
50
206.1137778
51
207.4912776
0
ARC
8
DEFAULT_255_1_388
10
6.4325641
20
92.5294284
40
0.6737692
50
188.6922336
51
205.782076
0
ARC
8
DEFAULT_255_1_388
10
6.6414
20
92.5649455
40
0.8855812
50
180.3881972
51
188.9218085
0
ARC
8
DEFAULT_255_1_388
10
6.7795157
20
92.6800622
40
1.0236965
50
170.2024645
51
180.3561986
0
ARC
8
DEFAULT_255_1_388
10
6.4236307
20
92.7437101
40
0.6621746
50
154.2856519
51
170.3893388
0
ARC
8
DEFAULT_255_1_388
10
6.2794271
20
92.8097192
40
0.5036209
50
139.8400879
51
153.9334639
0
ARC
8
DEFAULT_255_1_388
10
6.2390175
20
92.8420716
40
0.4518751
50
98.4190017
51
139.6707015
0
ARC
8
DEFAULT_255_1_388
10
6.2817142
20
92.6344755
40
0.6635912
50
89.7660128
51
99.4415389
0
ARC
8
DEFAULT_255_1_388
10
6.2890539
20
92.6418517
40
0.6562258
50
78.0552044
51
90.4042252
0
ARC
8
DEFAULT_255_1_388
10
6.3345602
20
92.8464661
40
0.4466287
50
54.6380186
51
78.3338577
0
ARC
8
DEFAULT_255_1_388
10
6.3559901
20
92.8825444
40
0.4048184
50
50.0313964
51
54.1562739
0
ARC
8
DEFAULT_255_1_388
10
6.3438794
20
92.8716798
40
0.4209308
50
18.1092229
51
49.7179911
0
ARC
8
DEFAULT_255_1_388
10
6.1799875
20
92.8116399
40
0.5953982
50
7.967396
51
18.698492
0
ARC
8
DEFAULT_255_1_388
10
6.1969136
20
92.8255236
40
0.4050986
50
9.7558763
51
27.3214087
0
ARC
8
DEFAULT_255_1_388
10
6.32376
20
92.8889087
40
0.2633168
50
27.736147
51
84.5257861
0
ARC
8
DEFAULT_255_1_388
10
6.286901
20
92.7039988
40
0.4513019
50
82.1064239
51
90.1997295
0
ARC
8
DEFAULT_255_1_388
10
6.2813026
20
92.7611501
40
0.3941684
50
89.4148952
51
105.5824837
0
ARC
8
DEFAULT_255_1_388
10
6.2523907
20
92.8664043
40
0.2850167
50
105.6678541
51
144.2649156
0
ARC
8
DEFAULT_255_1_388
10
6.3528799
20
92.7949024
40
0.4083468
50
144.3560675
51
162.8564185
0
ARC
8
DEFAULT_255_1_388
10
6.5873242
20
92.7196083
40
0.6545749
50
162.6076338
51
173.6779811
0
ARC
8
DEFAULT_255_1_388
10
6.9317357
20
92.6777422
40
1.0015089
50
173.4670996
51
179.9729015
0
ARC
8
DEFAULT_255_1_388
10
6.7170228
20
92.5659636
40
0.78681
50
179.6556955
51
190.007958
0
ARC
8
DEFAULT_255_1_388
10
6.4564509
20
92.518166
40
0.5218997
50
189.8117884
51
206.6795375
0
ARC
8
DEFAULT_255_1_388
10
6.3613955
20
92.4738514
40
0.4170788
50
207.1031171
51
217.7074698
0
ARC
8
DEFAULT_255_1_388
10
6.2900386
20
92.4117596
40
0.3226945
50
216.7345117
51
265.6812141
0
ARC
8
DEFAULT_255_1_388
10
6.3047528
20
92.513503
40
0.4253149
50
264.7367524
51
270.0610826
0
ARC
8
DEFAULT_255_1_388
10
6.3073713
20
92.8330173
40
0.7448321
50
269.8334494
51
276.0538364
0
ARC
8
DEFAULT_255_1_388
10
6.3306576
20
92.6190924
40
0.5296446
50
275.9894423
51
284.4615914
0
ARC
8
DEFAULT_255_1_388
10
6.3528089
20
92.525857
40
0.4338353
50
284.7038488
51
286.4938196
0
ARC
8
DEFAULT_255_1_388
10
6.3987238
20
92.3779371
40
0.2789738
50
286.0770429
51
304.2629628
0
ARC
8
DEFAULT_255_1_388
10
6.4137396
20
92.353368
40
0.2502188
50
304.5886247
51
317.1074126
0
LINE
8
DEFAULT_255_1_388
10
4.2472367
20
101.2174898
11
4.2472367
21
99.9019
0
LINE
8
DEFAULT_255_1_388
10
4.2472367
20
99.9019
11
4.0737523
21
99.9019
0
LINE
8
DEFAULT_255_1_388
10
4.0737523
20
99.9019
11
4.0737523
21
101.2174898
0
LINE
8
DEFAULT_255_1_388
10
4.0737523
20
101.2174898
11
4.2472367
21
101.2174898
0
LINE
8
DEFAULT_255_1_388
10
5.57638
20
100.6003553
11
5.57638
21
100.5172274
0
LINE
8
DEFAULT_255_1_388
10
4.518306
20
100.5054811
11
4.518306
21
100.6003553
0
LINE
8
DEFAULT_255_1_388
10
5.4037992
20
100.5045775
11
5.4037992
21
100.6021625
0
LINE
8
DEFAULT_255_1_388
10
4.6908868
20
100.6139088
11
4.6908868
21
100.5172274
0
ARC
8
DEFAULT_255_1_388
10
4.6041538
20
100.5127726
40
0.9722364
50
350.4878118
51
0.2625322
0
ARC
8
DEFAULT_255_1_388
10
4.8621498
20
100.4683994
40
0.7104556
50
336.0277991
51
350.5787241
0
ARC
8
DEFAULT_255_1_388
10
5.0134605
20
100.4000243
40
0.544417
50
319.887443
51
336.1331163
0
ARC
8
DEFAULT_255_1_388
10
5.0812417
20
100.3457733
40
0.4576311
50
302.4806296
51
319.6144102
0
ARC
8
DEFAULT_255_1_388
10
5.0683038
20
100.3707067
40
0.4856183
50
275.8196423
51
302.1885521
0
ARC
8
DEFAULT_255_1_388
10
5.04959
20
100.4992466
40
0.6154183
50
269.9169897
51
276.339506
0
ARC
8
DEFAULT_255_1_388
10
5.04455
20
100.422068
40
0.5382553
50
252.5221437
51
270.441579
0
ARC
8
DEFAULT_255_1_388
10
5.0283751
20
100.3614046
40
0.4755426
50
237.5349961
51
252.1858334
0
ARC
8
DEFAULT_255_1_388
10
5.0384127
20
100.374212
40
0.4917393
50
209.0632754
51
237.3492577
0
ARC
8
DEFAULT_255_1_388
10
5.1363453
20
100.4357104
40
0.6072464
50
205.118533
51
209.6465345
0
ARC
8
DEFAULT_255_1_388
10
5.2259455
20
100.4737174
40
0.7045164
50
188.7216633
51
204.8239753
0
ARC
8
DEFAULT_255_1_388
10
5.450623
20
100.5115387
40
0.9323368
50
180.3722704
51
188.9253909
0
ARC
8
DEFAULT_255_1_388
10
5.4475792
20
100.6048416
40
0.929284
50
169.5253055
51
180.2766048
0
ARC
8
DEFAULT_255_1_388
10
5.2335591
20
100.6442024
40
0.7116745
50
155.8314601
51
169.5088611
0
ARC
8
DEFAULT_255_1_388
10
5.0895054
20
100.7110312
40
0.5528904
50
139.6259579
51
156.0379072
0
ARC
8
DEFAULT_255_1_388
10
5.0231588
20
100.7644143
40
0.4677708
50
122.6414784
51
139.3431662
0
ARC
8
DEFAULT_255_1_388
10
5.0344842
20
100.7437787
40
0.4912586
50
93.0224537
51
122.4556091
0
ARC
8
DEFAULT_255_1_388
10
5.0466363
20
100.6351776
40
0.6003837
50
89.9756766
51
93.6340839
0
ARC
8
DEFAULT_255_1_388
10
5.0509961
20
100.6800879
40
0.5554884
50
73.7463329
51
90.4234008
0
ARC
8
DEFAULT_255_1_388
10
5.0707434
20
100.7565772
40
0.4765353
50
57.663051
51
73.4516911
0
ARC
8
DEFAULT_255_1_388
10
5.0698472
20
100.7590108
40
0.4749629
50
29.1441355
51
57.4146687
0
ARC
8
DEFAULT_255_1_388
10
4.9646283
20
100.6933046
40
0.5988917
50
24.0985653
51
29.732054
0
ARC
8
DEFAULT_255_1_388
10
4.8483915
20
100.6451154
40
0.7246823
50
8.6654943
51
23.8241215
0
ARC
8
DEFAULT_255_1_388
10
4.5970333
20
100.6041037
40
0.9793537
50
359.7807044
51
8.8218476
0
ARC
8
DEFAULT_255_1_388
10
4.4680038
20
100.6069731
40
0.9358078
50
359.7054632
51
8.0359751
0
ARC
8
DEFAULT_255_1_388
10
4.8055089
20
100.6561252
40
0.5947474
50
7.8926278
51
20.2962188
0
ARC
8
DEFAULT_255_1_388
10
4.9885939
20
100.7236367
40
0.3996117
50
20.3231056
51
36.4990255
0
ARC
8
DEFAULT_255_1_388
10
5.0657237
20
100.7830399
40
0.3022818
50
36.1436715
51
85.6627846
0
ARC
8
DEFAULT_255_1_388
10
5.0474492
20
100.6660881
40
0.4203853
50
84.3845912
51
90.076054
0
ARC
8
DEFAULT_255_1_388
10
5.0426847
20
100.7403416
40
0.346157
50
89.3037228
51
109.9046209
0
ARC
8
DEFAULT_255_1_388
10
5.032268
20
100.7833379
40
0.3022217
50
110.8229774
51
143.917961
0
ARC
8
DEFAULT_255_1_388
10
5.1373039
20
100.7031455
40
0.434348
50
143.5289166
51
163.2980252
0
ARC
8
DEFAULT_255_1_388
10
5.3519326
20
100.6356685
40
0.659321
50
163.0418884
51
174.3139873
0
ARC
8
DEFAULT_255_1_388
10
5.6224291
20
100.6044378
40
0.9315905
50
174.050934
51
179.4174954
0
ARC
8
DEFAULT_255_1_388
10
5.5656235
20
100.5125382
40
0.8747493
50
179.6928582
51
188.7908948
0
ARC
8
DEFAULT_255_1_388
10
5.2660035
20
100.4646086
40
0.5713262
50
188.6328449
51
202.5630732
0
ARC
8
DEFAULT_255_1_388
10
5.1248872
20
100.4079142
40
0.4192612
50
202.8078931
51
216.1195888
0
ARC
8
DEFAULT_255_1_388
10
5.0338389
20
100.3346479
40
0.3025752
50
215.0755613
51
264.6379773
0
ARC
8
DEFAULT_255_1_388
10
5.0481226
20
100.4281376
40
0.3970284
50
263.8464302
51
270.0830805
0
ARC
8
DEFAULT_255_1_388
10
5.0527771
20
100.3990808
40
0.3679937
50
269.3649295
51
287.5149684
0
ARC
8
DEFAULT_255_1_388
10
5.0728212
20
100.3262714
40
0.2925408
50
288.0629019
51
323.8115617
0
ARC
8
DEFAULT_255_1_388
10
4.9748188
20
100.3993754
40
0.4148018
50
323.6546541
51
342.6591359
0
ARC
8
DEFAULT_255_1_388
10
4.7462846
20
100.473728
40
0.6551163
50
342.4092446
51
353.6451501
0
ARC
8
DEFAULT_255_1_388
10
4.4277639
20
100.5133565
40
0.9760748
50
353.4027553
51
359.4846611
0
LINE
8
DEFAULT_255_1_388
10
5.8781705
20
101.2174898
11
6.2522462
21
100.1323089
0
LINE
8
DEFAULT_255_1_388
10
6.2522462
20
100.1323089
11
6.628129
21
101.2174898
0
LINE
8
DEFAULT_255_1_388
10
6.628129
20
101.2174898
11
6.8178775
21
101.2174898
0
LINE
8
DEFAULT_255_1_388
10
6.8178775
20
101.2174898
11
6.3299527
21
99.9019
0
LINE
8
DEFAULT_255_1_388
10
6.3299527
20
99.9019
11
6.1763468
21
99.9019
0
LINE
8
DEFAULT_255_1_388
10
6.1763468
20
99.9019
11
5.6893255
21
101.2174898
0
LINE
8
DEFAULT_255_1_388
10
5.6893255
20
101.2174898
11
5.8781705
21
101.2174898
0
LINE
8
DEFAULT_255_1_388
10
4.1761367
20
109.1549898
11
4.1761367
21
107.8394
0
LINE
8
DEFAULT_255_1_388
10
4.1761367
20
107.8394
11
4.0026523
21
107.8394
0
LINE
8
DEFAULT_255_1_388
10
4.0026523
20
107.8394
11
4.0026523
21
109.1549898
0
LINE
8
DEFAULT_255_1_388
10
4.0026523
20
109.1549898
11
4.1761367
21
109.1549898
0
LINE
8
DEFAULT_255_1_388
10
4.9992839
20
109.1613148
11
4.9992839
21
107.8394
0
LINE
8
DEFAULT_255_1_388
10
4.9992839
20
107.8394
11
4.8312209
21
107.8394
0
LINE
8
DEFAULT_255_1_388
10
4.8312209
20
107.8394
11
4.8312209
21
108.953495
0
LINE
8
DEFAULT_255_1_388
10
4.8312209
20
108.953495
11
4.4941914
21
108.8297066
0
LINE
8
DEFAULT_255_1_388
10
4.4941914
20
108.8297066
11
4.4941914
21
108.9815055
0
LINE
8
DEFAULT_255_1_388
10
4.4941914
20
108.9815055
11
4.9730805
21
109.1613148
0
LINE
8
DEFAULT_255_1_388
10
4.9730805
20
109.1613148
11
4.9992839
21
109.1613148
0
LINE
8
DEFAULT_255_1_388
10
4.2089367
20
117.0924898
11
4.2089367
21
115.7769
0
LINE
8
DEFAULT_255_1_388
10
4.2089367
20
115.7769
11
4.0354523
21
115.7769
0
LINE
8
DEFAULT_255_1_388
10
4.0354523
20
115.7769
11
4.0354523
21
117.0924898
0
LINE
8
DEFAULT_255_1_388
10
4.0354523
20
117.0924898
11
4.2089367
21
117.0924898
0
LINE
8
DEFAULT_255_1_388
10
5.53808
20
116.4753553
11
5.53808
21
116.3922274
0
LINE
8
DEFAULT_255_1_388
10
4.480006
20
116.3804811
11
4.480006
21
116.4753553
0
LINE
8
DEFAULT_255_1_388
10
5.3654992
20
116.3795775
11
5.3654992
21
116.4771625
0
LINE
8
DEFAULT_255_1_388
10
4.6525868
20
116.4889088
11
4.6525868
21
116.3922274
0
ARC
8
DEFAULT_255_1_388
10
4.5658538
20
116.3877726
40
0.9722364
50
350.4878118
51
0.2625322
0
ARC
8
DEFAULT_255_1_388
10
4.8238498
20
116.3433994
40
0.7104556
50
336.0277991
51
350.5787241
0
ARC
8
DEFAULT_255_1_388
10
4.9751605
20
116.2750243
40
0.544417
50
319.887443
51
336.1331163
0
ARC
8
DEFAULT_255_1_388
10
5.0429417
20
116.2207733
40
0.4576311
50
302.4806296
51
319.6144102
0
ARC
8
DEFAULT_255_1_388
10
5.0300038
20
116.2457067
40
0.4856183
50
275.8196423
51
302.1885521
0
ARC
8
DEFAULT_255_1_388
10
5.01129
20
116.3742466
40
0.6154183
50
269.9169897
51
276.339506
0
ARC
8
DEFAULT_255_1_388
10
5.00625
20
116.297068
40
0.5382553
50
252.5221437
51
270.441579
0
ARC
8
DEFAULT_255_1_388
10
4.9900751
20
116.2364046
40
0.4755426
50
237.5349961
51
252.1858334
0
ARC
8
DEFAULT_255_1_388
10
5.0001127
20
116.249212
40
0.4917393
50
209.0632754
51
237.3492577
0
ARC
8
DEFAULT_255_1_388
10
5.0980453
20
116.3107104
40
0.6072464
50
205.118533
51
209.6465345
0
ARC
8
DEFAULT_255_1_388
10
5.1876455
20
116.3487174
40
0.7045164
50
188.7216633
51
204.8239753
0
ARC
8
DEFAULT_255_1_388
10
5.412323
20
116.3865387
40
0.9323368
50
180.3722704
51
188.9253909
0
ARC
8
DEFAULT_255_1_388
10
5.4092792
20
116.4798416
40
0.929284
50
169.5253055
51
180.2766048
0
ARC
8
DEFAULT_255_1_388
10
5.1952591
20
116.5192024
40
0.7116745
50
155.8314601
51
169.5088611
0
ARC
8
DEFAULT_255_1_388
10
5.0512054
20
116.5860312
40
0.5528904
50
139.6259579
51
156.0379072
0
ARC
8
DEFAULT_255_1_388
10
4.9848588
20
116.6394143
40
0.4677708
50
122.6414784
51
139.3431662
0
ARC
8
DEFAULT_255_1_388
10
4.9961842
20
116.6187787
40
0.4912586
50
93.0224537
51
122.4556091
0
ARC
8
DEFAULT_255_1_388
10
5.0083363
20
116.5101776
40
0.6003837
50
89.9756766
51
93.6340839
0
ARC
8
DEFAULT_255_1_388
10
5.0126961
20
116.5550879
40
0.5554884
50
73.7463329
51
90.4234008
0
ARC
8
DEFAULT_255_1_388
10
5.0324434
20
116.6315772
40
0.4765353
50
57.663051
51
73.4516911
0
ARC
8
DEFAULT_255_1_388
10
5.0315472
20
116.6340108
40
0.4749629
50
29.1441355
51
57.4146687
0
ARC
8
DEFAULT_255_1_388
10
4.9263283
20
116.5683046
40
0.5988917
50
24.0985653
51
29.732054
0
ARC
8
DEFAULT_255_1_388
10
4.8100915
20
116.5201154
40
0.7246823
50
8.6654943
51
23.8241215
0
ARC
8
DEFAULT_255_1_388
10
4.5587333
20
116.4791037
40
0.9793537
50
359.7807044
51
8.8218476
0
ARC
8
DEFAULT_255_1_388
10
4.4297038
20
116.4819731
40
0.9358078
50
359.7054632
51
8.0359751
0
ARC
8
DEFAULT_255_1_388
10
4.7672089
20
116.5311252
40
0.5947474
50
7.8926278
51
20.2962188
0
ARC
8
DEFAULT_255_1_388
10
4.9502939
20
116.5986367
40
0.3996117
50
20.3231056
51
36.4990255
0
ARC
8
DEFAULT_255_1_388
10
5.0274237
20
116.6580399
40
0.3022818
50
36.1436715
51
85.6627846
0
ARC
8
DEFAULT_255_1_388
10
5.0091492
20
116.5410881
40
0.4203853
50
84.3845912
51
90.076054
0
ARC
8
DEFAULT_255_1_388
10
5.0043847
20
116.6153416
40
0.346157
50
89.3037228
51
109.9046209
0
ARC
8
DEFAULT_255_1_388
10
4.993968
20
116.6583379
40
0.3022217
50
110.8229774
51
143.917961
0
ARC
8
DEFAULT_255_1_388
10
5.0990039
20
116.5781455
40
0.434348
50
143.5289166
51
163.2980252
0
ARC
8
DEFAULT_255_1_388
10
5.3136326
20
116.5106685
40
0.659321
50
163.0418884
51
174.3139873
0
ARC
8
DEFAULT_255_1_388
10
5.5841291
20
116.4794378
40
0.9315905
50
174.050934
51
179.4174954
0
ARC
8
DEFAULT_255_1_388
10
5.5273235
20
116.3875382
40
0.8747493
50
179.6928582
51
188.7908948
0
ARC
8
DEFAULT_255_1_388
10
5.2277035
20
116.3396086
40
0.5713262
50
188.6328449
51
202.5630732
0
ARC
8
DEFAULT_255_1_388
10
5.0865872
20
116.2829142
40
0.4192612
50
202.8078931
51
216.1195888
0
ARC
8
DEFAULT_255_1_388
10
4.9955389
20
116.2096479
40
0.3025752
50
215.0755613
51
264.6379773
0
ARC
8
DEFAULT_255_1_388
10
5.0098226
20
116.3031376
40
0.3970284
50
263.8464302
51
270.0830805
0
ARC
8
DEFAULT_255_1_388
10
5.0144771
20
116.2740808
40
0.3679937
50
269.3649295
51
287.5149684
0
ARC
8
DEFAULT_255_1_388
10
5.0345212
20
116.2012714
40
0.2925408
50
288.0629019
51
323.8115617
0
ARC
8
DEFAULT_255_1_388
10
4.9365188
20
116.2743754
40
0.4148018
50
323.6546541
51
342.6591359
0
ARC
8
DEFAULT_255_1_388
10
4.7079846
20
116.348728
40
0.6551163
50
342.4092446
51
353.6451501
0
ARC
8
DEFAULT_255_1_388
10
4.3894639
20
116.3883565
40
0.9760748
50
353.4027553
51
359.4846611
0
LINE
8
DEFAULT_255_1_388
10
6.7696383
20
116.4319842
11
6.7696383
21
115.9494808
0
LINE
8
DEFAULT_255_1_388
10
5.755839
20
116.3714454
11
5.755839
21
116.4861981
0
LINE
8
DEFAULT_255_1_388
10
6.7696383
20
116.7066678
11
6.596154
21
116.7066678
0
LINE
8
DEFAULT_255_1_388
10
5.930227
20
116.4907159
11
5.930227
21
116.3831917
0
LINE
8
DEFAULT_255_1_388
10
6.5970575
20
115.9955626
11
6.5970575
21
116.2910282
0
LINE
8
DEFAULT_255_1_388
10
6.5970575
20
116.2910282
11
6.2925563
21
116.2910282
0
LINE
8
DEFAULT_255_1_388
10
6.2925563
20
116.2910282
11
6.2925563
21
116.4319842
0
LINE
8
DEFAULT_255_1_388
10
6.2925563
20
116.4319842
11
6.7696383
21
116.4319842
0
ARC
8
DEFAULT_255_1_388
10
6.4510984
20
116.1737284
40
0.3895571
50
295.8437277
51
324.8549962
0
ARC
8
DEFAULT_255_1_388
10
6.4043366
20
116.2583619
40
0.4861381
50
291.5691164
51
296.4556269
0
ARC
8
DEFAULT_255_1_388
10
6.3468369
20
116.4119801
40
0.6501442
50
278.6622213
51
291.3047061
0
ARC
8
DEFAULT_255_1_388
10
6.3086401
20
116.6536557
40
0.8948168
50
270.0200506
51
278.7494673
0
ARC
8
DEFAULT_255_1_388
10
6.3042605
20
116.8382453
40
1.0794166
50
270.0022372
51
270.2490917
0
ARC
8
DEFAULT_255_1_388
10
6.3000497
20
116.3423827
40
0.5835695
50
253.5785313
51
270.4175629
0
ARC
8
DEFAULT_255_1_388
10
6.2805493
20
116.2668625
40
0.5056241
50
238.8203954
51
253.2788387
0
ARC
8
DEFAULT_255_1_388
10
6.2783409
20
116.2611224
40
0.4995712
50
206.7883476
51
238.696262
0
ARC
8
DEFAULT_255_1_388
10
6.3658805
20
116.3135847
40
0.6014056
50
206.1137778
51
207.4912776
0
ARC
8
DEFAULT_255_1_388
10
6.4325641
20
116.3419284
40
0.6737692
50
188.6922336
51
205.782076
0
ARC
8
DEFAULT_255_1_388
10
6.6414
20
116.3774455
40
0.8855812
50
180.3881972
51
188.9218085
0
ARC
8
DEFAULT_255_1_388
10
6.7795157
20
116.4925622
40
1.0236965
50
170.2024645
51
180.3561986
0
ARC
8
DEFAULT_255_1_388
10
6.4236307
20
116.5562101
40
0.6621746
50
154.2856519
51
170.3893388
0
ARC
8
DEFAULT_255_1_388
10
6.2794271
20
116.6222192
40
0.5036209
50
139.8400879
51
153.9334639
0
ARC
8
DEFAULT_255_1_388
10
6.2390175
20
116.6545716
40
0.4518751
50
98.4190017
51
139.6707015
0
ARC
8
DEFAULT_255_1_388
10
6.2817142
20
116.4469755
40
0.6635912
50
89.7660128
51
99.4415389
0
ARC
8
DEFAULT_255_1_388
10
6.2890539
20
116.4543517
40
0.6562258
50
78.0552044
51
90.4042252
0
ARC
8
DEFAULT_255_1_388
10
6.3345602
20
116.6589661
40
0.4466287
50
54.6380186
51
78.3338577
0
ARC
8
DEFAULT_255_1_388
10
6.3559901
20
116.6950444
40
0.4048184
50
50.0313964
51
54.1562739
0
ARC
8
DEFAULT_255_1_388
10
6.3438794
20
116.6841798
40
0.4209308
50
18.1092229
51
49.7179911
0
ARC
8
DEFAULT_255_1_388
10
6.1799875
20
116.6241399
40
0.5953982
50
7.967396
51
18.698492
0
ARC
8
DEFAULT_255_1_388
10
6.1969136
20
116.6380236
40
0.4050986
50
9.7558763
51
27.3214087
0
ARC
8
DEFAULT_255_1_388
10
6.32376
20
116.7014087
40
0.2633168
50
27.736147
51
84.5257861
0
ARC
8
DEFAULT_255_1_388
10
6.286901
20
116.5164988
40
0.4513019
50
82.1064239
51
90.1997295
0
ARC
8
DEFAULT_255_1_388
10
6.2813026
20
116.5736501
40
0.3941684
50
89.4148952
51
105.5824837
0
ARC
8
DEFAULT_255_1_388
10
6.2523907
20
116.6789043
40
0.2850167
50
105.6678541
51
144.2649156
0
ARC
8
DEFAULT_255_1_388
10
6.3528799
20
116.6074024
40
0.4083468
50
144.3560675
51
162.8564185
0
ARC
8
DEFAULT_255_1_388
10
6.5873242
20
116.5321083
40
0.6545749
50
162.6076338
51
173.6779811
0
ARC
8
DEFAULT_255_1_388
10
6.9317357
20
116.4902422
40
1.0015089
50
173.4670996
51
179.9729015
0
ARC
8
DEFAULT_255_1_388
10
6.7170228
20
116.3784636
40
0.78681
50
179.6556955
51
190.007958
0
ARC
8
DEFAULT_255_1_388
10
6.4564509
20
116.330666
40
0.5218997
50
189.8117884
51
206.6795375
0
ARC
8
DEFAULT_255_1_388
10
6.3613955
20
116.2863514
40
0.4170788
50
207.1031171
51
217.7074698
0
ARC
8
DEFAULT_255_1_388
10
6.2900386
20
116.2242596
40
0.3226945
50
216.7345117
51
265.6812141
0
ARC
8
DEFAULT_255_1_388
10
6.3047528
20
116.326003
40
0.4253149
50
264.7367524
51
270.0610826
0
ARC
8
DEFAULT_255_1_388
10
6.3073713
20
116.6455173
40
0.7448321
50
269.8334494
51
276.0538364
0
ARC
8
DEFAULT_255_1_388
10
6.3306576
20
116.4315924
40
0.5296446
50
275.9894423
51
284.4615914
0
ARC
8
DEFAULT_255_1_388
10
6.3528089
20
116.338357
40
0.4338353
50
284.7038488
51
286.4938196
0
ARC
8
DEFAULT_255_1_388
10
6.3987238
20
116.1904371
40
0.2789738
50
286.0770429
51
304.2629628
0
ARC
8
DEFAULT_255_1_388
10
6.4137396
20
116.165868
40
0.2502188
50
304.5886247
51
317.1074126
0
LINE
8
DEFAULT_255_1_388
10
4.2472367
20
125.0299898
11
4.2472367
21
123.7144
0
LINE
8
DEFAULT_255_1_388
10
4.2472367
20
123.7144
11
4.0737523
21
123.7144
0
LINE
8
DEFAULT_255_1_388
10
4.0737523
20
123.7144
11
4.0737523
21
125.0299898
0
LINE
8
DEFAULT_255_1_388
10
4.0737523
20
125.0299898
11
4.2472367
21
125.0299898
0
LINE
8
DEFAULT_255_1_388
10
5.57638
20
124.4128553
11
5.57638
21
124.3297274
0
LINE
8
DEFAULT_255_1_388
10
4.518306
20
124.3179811
11
4.518306
21
124.4128553
0
LINE
8
DEFAULT_255_1_388
10
5.4037992
20
124.3170775
11
5.4037992
21
124.4146625
0
LINE
8
DEFAULT_255_1_388
10
4.6908868
20
124.4264088
11
4.6908868
21
124.3297274
0
ARC
8
DEFAULT_255_1_388
10
4.6041538
20
124.3252726
40
0.9722364
50
350.4878118
51
0.2625322
0
ARC
8
DEFAULT_255_1_388
10
4.8621498
20
124.2808994
40
0.7104556
50
336.0277991
51
350.5787241
0
ARC
8
DEFAULT_255_1_388
10
5.0134605
20
124.2125243
40
0.544417
50
319.887443
51
336.1331163
0
ARC
8
DEFAULT_255_1_388
10
5.0812417
20
124.1582733
40
0.4576311
50
302.4806296
51
319.6144102
0
ARC
8
DEFAULT_255_1_388
10
5.0683038
20
124.1832067
40
0.4856183
50
275.8196423
51
302.1885521
0
ARC
8
DEFAULT_255_1_388
10
5.04959
20
124.3117466
40
0.6154183
50
269.9169897
51
276.339506
0
ARC
8
DEFAULT_255_1_388
10
5.04455
20
124.234568
40
0.5382553
50
252.5221437
51
270.441579
0
ARC
8
DEFAULT_255_1_388
10
5.0283751
20
124.1739046
40
0.4755426
50
237.5349961
51
252.1858334
0
ARC
8
DEFAULT_255_1_388
10
5.0384127
20
124.186712
40
0.4917393
50
209.0632754
51
237.3492577
0
ARC
8
DEFAULT_255_1_388
10
5.1363453
20
124.2482104
40
0.6072464
50
205.118533
51
209.6465345
0
ARC
8
DEFAULT_255_1_388
10
5.2259455
20
124.2862174
40
0.7045164
50
188.7216633
51
204.8239753
0
ARC
8
DEFAULT_255_1_388
10
5.450623
20
124.3240387
40
0.9323368
50
180.3722704
51
188.9253909
0
ARC
8
DEFAULT_255_1_388
10
5.4475792
20
124.4173416
40
0.929284
50
169.5253055
51
180.2766048
0
ARC
8
DEFAULT_255_1_388
10
5.2335591
20
124.4567024
40
0.7116745
50
155.8314601
51
169.5088611
0
ARC
8
DEFAULT_255_1_388
10
5.0895054
20
124.5235312
40
0.5528904
50
139.6259579
51
156.0379072
0
ARC
8
DEFAULT_255_1_388
10
5.0231588
20
124.5769143
40
0.4677708
50
122.6414784
51
139.3431662
0
ARC
8
DEFAULT_255_1_388
10
5.0344842
20
124.5562787
40
0.4912586
50
93.0224537
51
122.4556091
0
ARC
8
DEFAULT_255_1_388
10
5.0466363
20
124.4476776
40
0.6003837
50
89.9756766
51
93.6340839
0
ARC
8
DEFAULT_255_1_388
10
5.0509961
20
124.4925879
40
0.5554884
50
73.7463329
51
90.4234008
0
ARC
8
DEFAULT_255_1_388
10
5.0707434
20
124.5690772
40
0.4765353
50
57.663051
51
73.4516911
0
ARC
8
DEFAULT_255_1_388
10
5.0698472
20
124.5715108
40
0.4749629
50
29.1441355
51
57.4146687
0
ARC
8
DEFAULT_255_1_388
10
4.9646283
20
124.5058046
40
0.5988917
50
24.0985653
51
29.732054
0
ARC
8
DEFAULT_255_1_388
10
4.8483915
20
124.4576154
40
0.7246823
50
8.6654943
51
23.8241215
0
ARC
8
DEFAULT_255_1_388
10
4.5970333
20
124.4166037
40
0.9793537
50
359.7807044
51
8.8218476
0
ARC
8
DEFAULT_255_1_388
10
4.4680038
20
124.4194731
40
0.9358078
50
359.7054632
51
8.0359751
0
ARC
8
DEFAULT_255_1_388
10
4.8055089
20
124.4686252
40
0.5947474
50
7.8926278
51
20.2962188
0
ARC
8
DEFAULT_255_1_388
10
4.9885939
20
124.5361367
40
0.3996117
50
20.3231056
51
36.4990255
0
ARC
8
DEFAULT_255_1_388
10
5.0657237
20
124.5955399
40
0.3022818
50
36.1436715
51
85.6627846
0
ARC
8
DEFAULT_255_1_388
10
5.0474492
20
124.4785881
40
0.4203853
50
84.3845912
51
90.076054
0
ARC
8
DEFAULT_255_1_388
10
5.0426847
20
124.5528416
40
0.346157
50
89.3037228
51
109.9046209
0
ARC
8
DEFAULT_255_1_388
10
5.032268
20
124.5958379
40
0.3022217
50
110.8229774
51
143.917961
0
ARC
8
DEFAULT_255_1_388
10
5.1373039
20
124.5156455
40
0.434348
50
143.5289166
51
163.2980252
0
ARC
8
DEFAULT_255_1_388
10
5.3519326
20
124.4481685
40
0.659321
50
163.0418884
51
174.3139873
0
ARC
8
DEFAULT_255_1_388
10
5.6224291
20
124.4169378
40
0.9315905
50
174.050934
51
179.4174954
0
ARC
8
DEFAULT_255_1_388
10
5.5656235
20
124.3250382
40
0.8747493
50
179.6928582
51
188.7908948
0
ARC
8
DEFAULT_255_1_388
10
5.2660035
20
124.2771086
40
0.5713262
50
188.6328449
51
202.5630732
0
ARC
8
DEFAULT_255_1_388
10
5.1248872
20
124.2204142
40
0.4192612
50
202.8078931
51
216.1195888
0
ARC
8
DEFAULT_255_1_388
10
5.0338389
20
124.1471479
40
0.3025752
50
215.0755613
51
264.6379773
0
ARC
8
DEFAULT_255_1_388
10
5.0481226
20
124.2406376
40
0.3970284
50
263.8464302
51
270.0830805
0
ARC
8
DEFAULT_255_1_388
10
5.0527771
20
124.2115808
40
0.3679937
50
269.3649295
51
287.5149684
0
ARC
8
DEFAULT_255_1_388
10
5.0728212
20
124.1387714
40
0.2925408
50
288.0629019
51
323.8115617
0
ARC
8
DEFAULT_255_1_388
10
4.9748188
20
124.2118754
40
0.4148018
50
323.6546541
51
342.6591359
0
ARC
8
DEFAULT_255_1_388
10
4.7462846
20
124.286228
40
0.6551163
50
342.4092446
51
353.6451501
0
ARC
8
DEFAULT_255_1_388
10
4.4277639
20
124.3258565
40
0.9760748
50
353.4027553
51
359.4846611
0
LINE
8
DEFAULT_255_1_388
10
5.8781705
20
125.0299898
11
6.2522462
21
123.9448089
0
LINE
8
DEFAULT_255_1_388
10
6.2522462
20
123.9448089
11
6.628129
21
125.0299898
0
LINE
8
DEFAULT_255_1_388
10
6.628129
20
125.0299898
11
6.8178775
21
125.0299898
0
LINE
8
DEFAULT_255_1_388
10
6.8178775
20
125.0299898
11
6.3299527
21
123.7144
0
LINE
8
DEFAULT_255_1_388
10
6.3299527
20
123.7144
11
6.1763468
21
123.7144
0
LINE
8
DEFAULT_255_1_388
10
6.1763468
20
123.7144
11
5.6893255
21
125.0299898
0
LINE
8
DEFAULT_255_1_388
10
5.6893255
20
125.0299898
11
5.8781705
21
125.0299898
0
LINE
8
DEFAULT_255_1_388
10
4.1841367
20
132.9674898
11
4.1841367
21
131.6519
0
LINE
8
DEFAULT_255_1_388
10
4.1841367
20
131.6519
11
4.0106523
21
131.6519
0
LINE
8
DEFAULT_255_1_388
10
4.0106523
20
131.6519
11
4.0106523
21
132.9674898
0
LINE
8
DEFAULT_255_1_388
10
4.0106523
20
132.9674898
11
4.1841367
21
132.9674898
0
LINE
8
DEFAULT_255_1_388
10
5.282871
20
132.429869
11
5.282871
21
132.2130135
0
LINE
8
DEFAULT_255_1_388
10
4.4524953
20
132.1904244
11
4.4524953
21
132.4136048
0
LINE
8
DEFAULT_255_1_388
10
5.1157116
20
132.1678353
11
5.1157116
21
132.4416153
0
LINE
8
DEFAULT_255_1_388
10
4.6196547
20
132.4542652
11
4.6196547
21
132.1868102
0
ARC
8
DEFAULT_255_1_388
10
3.9051044
20
132.2075118
40
1.3777776
50
353.8440855
51
0.2287917
0
ARC
8
DEFAULT_255_1_388
10
4.4270062
20
132.1492414
40
0.852639
50
344.4934746
51
353.9763743
0
ARC
8
DEFAULT_255_1_388
10
4.7636869
20
132.0535191
40
0.5026273
50
329.2803599
51
344.7473406
0
ARC
8
DEFAULT_255_1_388
10
4.8752365
20
131.9923038
40
0.3754848
50
324.9361395
51
328.6153007
0
ARC
8
DEFAULT_255_1_388
10
4.9178015
20
131.9625586
40
0.3235566
50
280.5801797
51
324.9173226
0
ARC
8
DEFAULT_255_1_388
10
4.8726643
20
132.1505236
40
0.5167077
50
269.5979457
51
281.6732777
0
ARC
8
DEFAULT_255_1_388
10
4.8645547
20
132.1370113
40
0.5032026
50
256.6228565
51
270.5105488
0
ARC
8
DEFAULT_255_1_388
10
4.8193289
20
131.9628345
40
0.3233092
50
215.8618351
51
257.2787793
0
ARC
8
DEFAULT_255_1_388
10
4.9341996
20
132.0399106
40
0.4615831
50
197.9695203
51
215.2622745
0
ARC
8
DEFAULT_255_1_388
10
5.2137672
20
132.1342641
40
0.7566307
50
187.8816486
51
198.2346584
0
ARC
8
DEFAULT_255_1_388
10
5.659091
20
132.1985453
40
1.2065653
50
180.8977266
51
188.0054894
0
ARC
8
DEFAULT_255_1_388
10
5.9641124
20
132.21004
40
1.5117443
50
180.7434591
51
181.152202
0
ARC
8
DEFAULT_255_1_388
10
5.796612
20
132.4190371
40
1.3441277
50
173.7674302
51
180.2315596
0
ARC
8
DEFAULT_255_1_388
10
5.2883989
20
132.4764779
40
0.8326847
50
164.3058537
51
173.9000553
0
ARC
8
DEFAULT_255_1_388
10
4.9607989
20
132.5708652
40
0.4917711
50
148.7922028
51
164.5682288
0
ARC
8
DEFAULT_255_1_388
10
4.8538726
20
132.6305457
40
0.3694204
50
144.5883979
51
148.1161588
0
ARC
8
DEFAULT_255_1_388
10
4.8151472
20
132.6575667
40
0.322202
50
101.6440149
51
144.5142619
0
ARC
8
DEFAULT_255_1_388
10
4.8629664
20
132.4675337
40
0.5180451
50
89.528284
51
102.5820197
0
ARC
8
DEFAULT_255_1_388
10
4.8718656
20
132.4631376
40
0.5224441
50
77.0437914
51
90.508231
0
ARC
8
DEFAULT_255_1_388
10
4.9170909
20
132.6479272
40
0.3322297
50
48.2777708
51
77.4996087
0
ARC
8
DEFAULT_255_1_388
10
4.9252649
20
132.6624557
40
0.315966
50
36.3141586
51
47.6307332
0
ARC
8
DEFAULT_255_1_388
10
4.8275372
20
132.5966159
40
0.4337313
50
18.2931065
51
35.6770203
0
ARC
8
DEFAULT_255_1_388
10
4.5414212
20
132.4984107
40
0.7362203
50
8.0246996
51
18.5605636
0
ARC
8
DEFAULT_255_1_388
10
4.0730568
20
132.4292432
40
1.2096583
50
1.127539
51
8.1718423
0
ARC
8
DEFAULT_255_1_388
10
3.7081701
20
132.4149374
40
1.5747719
50
0.5432713
51
1.38669
0
ARC
8
DEFAULT_255_1_388
10
3.913908
20
132.4456163
40
1.2018103
50
359.8092569
51
4.9408001
0
ARC
8
DEFAULT_255_1_388
10
4.3875661
20
132.48789
40
0.7262727
50
4.8364937
51
12.2906017
0
ARC
8
DEFAULT_255_1_388
10
4.6975126
20
132.5569485
40
0.4087324
50
12.0806994
51
23.8171225
0
ARC
8
DEFAULT_255_1_388
10
4.8295522
20
132.6128508
40
0.2653719
50
24.2874621
51
31.3934353
0
ARC
8
DEFAULT_255_1_388
10
4.8885958
20
132.6514822
40
0.1948607
50
30.7407708
51
82.4658033
0
ARC
8
DEFAULT_255_1_388
10
4.8683619
20
132.5521017
40
0.2961198
50
81.1057101
51
90.2187368
0
ARC
8
DEFAULT_255_1_388
10
4.8643431
20
132.5811421
40
0.2670929
50
89.380395
51
105.6763916
0
ARC
8
DEFAULT_255_1_388
10
4.8437153
20
132.656132
40
0.1893189
50
105.7980655
51
149.7387869
0
ARC
8
DEFAULT_255_1_388
10
4.9634293
20
132.5841719
40
0.3289892
50
149.4208441
51
163.628295
0
ARC
8
DEFAULT_255_1_388
10
5.1986522
20
132.5124345
40
0.5749004
50
163.3764549
51
172.141138
0
ARC
8
DEFAULT_255_1_388
10
5.5699244
20
132.4592582
40
0.9499585
50
172.0258462
51
178.0705453
0
ARC
8
DEFAULT_255_1_388
10
5.9120797
20
132.4430682
40
1.2924734
50
177.8639301
51
179.5036263
0
ARC
8
DEFAULT_255_1_388
10
5.7901815
20
132.1827151
40
1.170534
50
179.7995545
51
185.246089
0
ARC
8
DEFAULT_255_1_388
10
5.3353408
20
132.1396404
40
0.7136613
50
185.1411911
51
193.0082205
0
ARC
8
DEFAULT_255_1_388
10
5.0379669
20
132.0693441
40
0.4080987
50
192.7897338
51
205.2507384
0
ARC
8
DEFAULT_255_1_388
10
4.9201879
20
132.0167538
40
0.2791522
50
205.8001921
51
211.2545876
0
ARC
8
DEFAULT_255_1_388
10
4.8613418
20
131.9773132
40
0.2084074
50
210.3789935
51
238.4007996
0
ARC
8
DEFAULT_255_1_388
10
4.8591504
20
131.9825786
40
0.2117943
50
239.6521916
51
265.9793852
0
ARC
8
DEFAULT_255_1_388
10
4.8687353
20
132.0582358
40
0.2879689
50
265.1324455
51
270.0603288
0
ARC
8
DEFAULT_255_1_388
10
4.871973
20
132.0217418
40
0.2514919
50
269.3314378
51
287.2180039
0
ARC
8
DEFAULT_255_1_388
10
4.8874812
20
131.9651291
40
0.1928357
50
287.7957942
51
329.0808983
0
ARC
8
DEFAULT_255_1_388
10
4.7797569
20
132.0323651
40
0.319808
50
328.6635261
51
343.3325043
0
ARC
8
DEFAULT_255_1_388
10
4.5353028
20
132.1085195
40
0.5758408
50
343.0498092
51
351.9392499
0
ARC
8
DEFAULT_255_1_388
10
4.145235
20
132.1660205
40
0.9701202
50
351.8071632
51
357.7957897
0
ARC
8
DEFAULT_255_1_388
10
3.7817827
20
132.1848724
40
1.3340376
50
357.5870923
51
359.2682493
0
LINE
8
DEFAULT_255_1_388
10
23.1190856
20
140.367369
11
23.1190856
21
140.1505135
0
LINE
8
DEFAULT_255_1_388
10
22.2887099
20
140.1279244
11
22.2887099
21
140.3511048
0
LINE
8
DEFAULT_255_1_388
10
22.9519262
20
140.1053353
11
22.9519262
21
140.3791153
0
LINE
8
DEFAULT_255_1_388
10
22.4558693
20
140.3917652
11
22.4558693
21
140.1243102
0
ARC
8
DEFAULT_255_1_388
10
21.741319
20
140.1450118
40
1.3777776
50
353.8440855
51
0.2287917
0
ARC
8
DEFAULT_255_1_388
10
22.2632208
20
140.0867414
40
0.852639
50
344.4934746
51
353.9763743
0
ARC
8
DEFAULT_255_1_388
10
22.5999015
20
139.9910191
40
0.5026273
50
329.2803599
51
344.7473406
0
ARC
8
DEFAULT_255_1_388
10
22.7114511
20
139.9298038
40
0.3754848
50
324.9361395
51
328.6153007
0
ARC
8
DEFAULT_255_1_388
10
22.7540161
20
139.9000586
40
0.3235566
50
280.5801797
51
324.9173226
0
ARC
8
DEFAULT_255_1_388
10
22.7088789
20
140.0880236
40
0.5167077
50
269.5979457
51
281.6732777
0
ARC
8
DEFAULT_255_1_388
10
22.7007693
20
140.0745113
40
0.5032026
50
256.6228565
51
270.5105488
0
ARC
8
DEFAULT_255_1_388
10
22.6555435
20
139.9003345
40
0.3233092
50
215.8618351
51
257.2787793
0
ARC
8
DEFAULT_255_1_388
10
22.7704142
20
139.9774106
40
0.4615831
50
197.9695203
51
215.2622745
0
ARC
8
DEFAULT_255_1_388
10
23.0499818
20
140.0717641
40
0.7566307
50
187.8816486
51
198.2346584
0
ARC
8
DEFAULT_255_1_388
10
23.4953056
20
140.1360453
40
1.2065653
50
180.8977266
51
188.0054894
0
ARC
8
DEFAULT_255_1_388
10
23.800327
20
140.14754
40
1.5117443
50
180.7434591
51
181.152202
0
ARC
8
DEFAULT_255_1_388
10
23.6328266
20
140.3565371
40
1.3441277
50
173.7674302
51
180.2315596
0
ARC
8
DEFAULT_255_1_388
10
23.1246135
20
140.4139779
40
0.8326847
50
164.3058537
51
173.9000553
0
ARC
8
DEFAULT_255_1_388
10
22.7970135
20
140.5083652
40
0.4917711
50
148.7922028
51
164.5682288
0
ARC
8
DEFAULT_255_1_388
10
22.6900872
20
140.5680457
40
0.3694204
50
144.5883979
51
148.1161588
0
ARC
8
DEFAULT_255_1_388
10
22.6513618
20
140.5950667
40
0.322202
50
101.6440149
51
144.5142619
0
ARC
8
DEFAULT_255_1_388
10
22.699181
20
140.4050337
40
0.5180451
50
89.528284
51
102.5820197
0
ARC
8
DEFAULT_255_1_388
10
22.7080802
20
140.4006376
40
0.5224441
50
77.0437914
51
90.508231
0
ARC
8
DEFAULT_255_1_388
10
22.7533055
20
140.5854272
40
0.3322297
50
48.2777708
51
77.4996087
0
ARC
8
DEFAULT_255_1_388
10
22.7614795
20
140.5999557
40
0.315966
50
36.3141586
51
47.6307332
0
ARC
8
DEFAULT_255_1_388
10
22.6637518
20
140.5341159
40
0.4337313
50
18.2931065
51
35.6770203
0
ARC
8
DEFAULT_255_1_388
10
22.3776358
20
140.4359107
40
0.7362203
50
8.0246996
51
18.5605636
0
ARC
8
DEFAULT_255_1_388
10
21.9092714
20
140.3667432
40
1.2096583
50
1.127539
51
8.1718423
0
ARC
8
DEFAULT_255_1_388
10
21.5443847
20
140.3524374
40
1.5747719
50
0.5432713
51
1.38669
0
ARC
8
DEFAULT_255_1_388
10
21.7501226
20
140.3831163
40
1.2018103
50
359.8092569
51
4.9408001
0
ARC
8
DEFAULT_255_1_388
10
22.2237807
20
140.42539
40
0.7262727
50
4.8364937
51
12.2906017
0
ARC
8
DEFAULT_255_1_388
10
22.5337272
20
140.4944485
40
0.4087324
50
12.0806994
51
23.8171225
0
ARC
8
DEFAULT_255_1_388
10
22.6657668
20
140.5503508
40
0.2653719
50
24.2874621
51
31.3934353
0
ARC
8
DEFAULT_255_1_388
10
22.7248104
20
140.5889822
40
0.1948607
50
30.7407708
51
82.4658033
0
ARC
8
DEFAULT_255_1_388
10
22.7045765
20
140.4896017
40
0.2961198
50
81.1057101
51
90.2187368
0
ARC
8
DEFAULT_255_1_388
10
22.7005577
20
140.5186421
40
0.2670929
50
89.380395
51
105.6763916
0
ARC
8
DEFAULT_255_1_388
10
22.6799299
20
140.593632
40
0.1893189
50
105.7980655
51
149.7387869
0
ARC
8
DEFAULT_255_1_388
10
22.7996439
20
140.5216719
40
0.3289892
50
149.4208441
51
163.628295
0
ARC
8
DEFAULT_255_1_388
10
23.0348668
20
140.4499345
40
0.5749004
50
163.3764549
51
172.141138
0
ARC
8
DEFAULT_255_1_388
10
23.406139
20
140.3967582
40
0.9499585
50
172.0258462
51
178.0705453
0
ARC
8
DEFAULT_255_1_388
10
23.7482943
20
140.3805682
40
1.2924734
50
177.8639301
51
179.5036263
0
ARC
8
DEFAULT_255_1_388
10
23.6263961
20
140.1202151
40
1.170534
50
179.7995545
51
185.246089
0
ARC
8
DEFAULT_255_1_388
10
23.1715554
20
140.0771404
40
0.7136613
50
185.1411911
51
193.0082205
0
ARC
8
DEFAULT_255_1_388
10
22.8741815
20
140.0068441
40
0.4080987
50
192.7897338
51
205.2507384
0
ARC
8
DEFAULT_255_1_388
10
22.7564025
20
139.9542538
40
0.2791522
50
205.8001921
51
211.2545876
0
ARC
8
DEFAULT_255_1_388
10
22.6975564
20
139.9148132
40
0.2084074
50
210.3789935
51
238.4007996
0
ARC
8
DEFAULT_255_1_388
10
22.695365
20
139.9200786
40
0.2117943
50
239.6521916
51
265.9793852
0
ARC
8
DEFAULT_255_1_388
10
22.7049499
20
139.9957358
40
0.2879689
50
265.1324455
51
270.0603288
0
ARC
8
DEFAULT_255_1_388
10
22.7081876
20
139.9592418
40
0.2514919
50
269.3314378
51
287.2180039
0
ARC
8
DEFAULT_255_1_388
10
22.7236958
20
139.9026291
40
0.1928357
50
287.7957942
51
329.0808983
0
ARC
8
DEFAULT_255_1_388
10
22.6159715
20
139.9698651
40
0.319808
50
328.6635261
51
343.3325043
0
ARC
8
DEFAULT_255_1_388
10
22.3715174
20
140.0460195
40
0.5758408
50
343.0498092
51
351.9392499
0
ARC
8
DEFAULT_255_1_388
10
21.9814496
20
140.1035205
40
0.9701202
50
351.8071632
51
357.7957897
0
ARC
8
DEFAULT_255_1_388
10
21.6179973
20
140.1223724
40
1.3340376
50
357.5870923
51
359.2682493
0
LINE
8
DEFAULT_255_1_388
10
23.4380439
20
140.9049898
11
23.8121196
21
139.8198089
0
LINE
8
DEFAULT_255_1_388
10
23.8121196
20
139.8198089
11
24.1880024
21
140.9049898
0
LINE
8
DEFAULT_255_1_388
10
24.1880024
20
140.9049898
11
24.3777509
21
140.9049898
0
LINE
8
DEFAULT_255_1_388
10
24.3777509
20
140.9049898
11
23.8898261
21
139.5894
0
LINE
8
DEFAULT_255_1_388
10
23.8898261
20
139.5894
11
23.7362202
21
139.5894
0
LINE
8
DEFAULT_255_1_388
10
23.7362202
20
139.5894
11
23.2491989
21
140.9049898
0
LINE
8
DEFAULT_255_1_388
10
23.2491989
20
140.9049898
11
23.4380439
21
140.9049898
0
ENDSEC
0
EOF