0
SECTION
2
HEADER
9
$MEASUREMENT
70
1
0
ENDSEC
0
SECTION
2
TABLES
0
TABLE
2
LTYPE
0
LTYPE
72
65
70
64
2
CONTINUOUS
3
______
73
0
40
0
0
ENDTAB
0
TABLE
2
LAYER
0
LAYER
2
DEFAULT_255_2_778
70
0
62
255
6
CONTINUOUS
0
LAYER
2
DEFAULT_255_1_388
70
0
62
255
6
CONTINUOUS
0
ENDTAB
0
ENDSEC
0
SECTION
2
ENTITIES
0
ARC
8
DEFAULT_255_2_778
10
3.5700693
20
99.6176527
40
0.7914215
50
129.1312896
51
180.1450914
0
ARC
8
DEFAULT_255_2_778
10
3.5703345
20
99.6181398
40
0.7912112
50
89.854026
51
129.1684493
0
ARC
8
DEFAULT_255_2_778
10
25.7993937
20
99.6178263
40
0.7915249
50
39.4792447
51
90.147911
0
ARC
8
DEFAULT_255_2_778
10
25.7999935
20
99.617673
40
0.7911595
50
359.8533901
51
39.5154338
0
ARC
8
DEFAULT_255_2_778
10
25.7996693
20
-1.9863996
40
0.7914836
50
309.4761667
51
0.1482649
0
ARC
8
DEFAULT_255_2_778
10
25.799398
20
-1.9868307
40
0.7913235
50
269.8517415
51
309.511178
0
ARC
8
DEFAULT_255_2_778
10
3.570342
20
-1.9867725
40
0.7913815
50
219.1282118
51
270.1454017
0
ARC
8
DEFAULT_255_2_778
10
3.5700247
20
-1.98639
40
0.7913769
50
179.8524075
51
219.1641908
0
LINE
8
DEFAULT_255_2_778
10
3.5723503
20
100.4093486
11
25.7973503
21
100.4093486
0
LINE
8
DEFAULT_255_2_778
10
26.5911503
20
99.6156486
11
26.5911503
21
-1.9843514
0
LINE
8
DEFAULT_255_2_778
10
25.7973503
20
-2.7781514
11
3.5723503
21
-2.7781514
0
LINE
8
DEFAULT_255_2_778
10
2.7786503
20
-1.9843514
11
2.7786503
21
99.6156486
0
LINE
8
DEFAULT_255_1_388
10
10.633491
20
0.6757898
11
10.633491
21
-0.6398
0
LINE
8
DEFAULT_255_1_388
10
10.633491
20
-0.6398
11
10.4591031
21
-0.6398
0
LINE
8
DEFAULT_255_1_388
10
10.4591031
20
-0.6398
11
9.7967903
21
0.3739993
0
LINE
8
DEFAULT_255_1_388
10
9.7967903
20
0.3739993
11
9.7967903
21
-0.6398
0
LINE
8
DEFAULT_255_1_388
10
9.7967903
20
-0.6398
11
9.6224024
21
-0.6398
0
LINE
8
DEFAULT_255_1_388
10
9.6224024
20
-0.6398
11
9.6224024
21
0.6757898
0
LINE
8
DEFAULT_255_1_388
10
9.6224024
20
0.6757898
11
9.7967903
21
0.6757898
0
LINE
8
DEFAULT_255_1_388
10
9.7967903
20
0.6757898
11
10.4609102
21
-0.3425273
0
LINE
8
DEFAULT_255_1_388
10
10.4609102
20
-0.3425273
11
10.4609102
21
0.6757898
0
LINE
8
DEFAULT_255_1_388
10
10.4609102
20
0.6757898
11
10.633491
21
0.6757898
0
LINE
8
DEFAULT_255_1_388
10
11.0690091
20
0.6757898
11
11.3861602
21
0.1716009
0
LINE
8
DEFAULT_255_1_388
10
11.3861602
20
0.1716009
11
11.7015042
21
0.6757898
0
LINE
8
DEFAULT_255_1_388
10
11.7015042
20
0.6757898
11
11.9057098
21
0.6757898
0
LINE
8
DEFAULT_255_1_388
10
11.9057098
20
0.6757898
11
11.4900701
21
0.0234163
0
LINE
8
DEFAULT_255_1_388
10
11.4900701
20
0.0234163
11
11.915649
21
-0.6398
0
LINE
8
DEFAULT_255_1_388
10
11.915649
20
-0.6398
11
11.7096363
21
-0.6398
0
LINE
8
DEFAULT_255_1_388
10
11.7096363
20
-0.6398
11
11.3861602
21
-0.1265754
0
LINE
8
DEFAULT_255_1_388
10
11.3861602
20
-0.1265754
11
11.060877
21
-0.6398
0
LINE
8
DEFAULT_255_1_388
10
11.060877
20
-0.6398
11
10.8557679
21
-0.6398
0
LINE
8
DEFAULT_255_1_388
10
10.8557679
20
-0.6398
11
11.2822503
21
0.0234163
0
LINE
8
DEFAULT_255_1_388
10
11.2822503
20
0.0234163
11
10.8657071
21
0.6757898
0
LINE
8
DEFAULT_255_1_388
10
10.8657071
20
0.6757898
11
11.0690091
21
0.6757898
0
LINE
8
DEFAULT_255_1_388
10
12.3972488
20
-0.0127263
11
12.3972488
21
-0.1491645
0
LINE
8
DEFAULT_255_1_388
10
12.3972488
20
-0.1491645
11
11.9563094
21
-0.1491645
0
LINE
8
DEFAULT_255_1_388
10
11.9563094
20
-0.1491645
11
11.9563094
21
-0.0127263
0
LINE
8
DEFAULT_255_1_388
10
11.9563094
20
-0.0127263
11
12.3972488
21
-0.0127263
0
LINE
8
DEFAULT_255_1_388
10
13.3297273
20
0.1101585
11
13.3297273
21
-0.0317011
0
LINE
8
DEFAULT_255_1_388
10
13.3297273
20
-0.0317011
11
12.7595782
21
-0.0317011
0
LINE
8
DEFAULT_255_1_388
10
12.7595782
20
-0.0317011
11
12.7595782
21
-0.4979404
0
LINE
8
DEFAULT_255_1_388
10
12.7595782
20
-0.4979404
11
13.4218909
21
-0.4979404
0
LINE
8
DEFAULT_255_1_388
10
13.4218909
20
-0.4979404
11
13.4218909
21
-0.6398
0
LINE
8
DEFAULT_255_1_388
10
13.4218909
20
-0.6398
11
12.5860938
21
-0.6398
0
LINE
8
DEFAULT_255_1_388
10
12.5860938
20
-0.6398
11
12.5860938
21
0.6757898
0
LINE
8
DEFAULT_255_1_388
10
12.5860938
20
0.6757898
11
13.4128553
21
0.6757898
0
LINE
8
DEFAULT_255_1_388
10
13.4128553
20
0.6757898
11
13.4128553
21
0.5330267
0
LINE
8
DEFAULT_255_1_388
10
13.4128553
20
0.5330267
11
12.7595782
21
0.5330267
0
LINE
8
DEFAULT_255_1_388
10
12.7595782
20
0.5330267
11
12.7595782
21
0.1101585
0
LINE
8
DEFAULT_255_1_388
10
12.7595782
20
0.1101585
11
13.3297273
21
0.1101585
0
LINE
8
DEFAULT_255_1_388
10
14.4311724
20
-0.2223532
11
14.6055604
21
-0.2223532
0
LINE
8
DEFAULT_255_1_388
10
13.5926646
20
-0.0434475
11
13.5926646
21
0.0830516
0
LINE
8
DEFAULT_255_1_388
10
14.6055604
20
0.2529217
11
14.4311724
21
0.2529217
0
LINE
8
DEFAULT_255_1_388
10
13.7670525
20
0.0785337
11
13.7670525
21
-0.0488688
0
ARC
8
DEFAULT_255_1_388
10
13.9889837
20
-0.1551671
40
0.6202263
50
340.1774904
51
353.7812217
0
ARC
8
DEFAULT_255_1_388
10
14.165769
20
-0.2210107
40
0.4315926
50
311.4560052
51
340.4420756
0
ARC
8
DEFAULT_255_1_388
10
14.162023
20
-0.2085335
40
0.4434573
50
282.4332229
51
310.7514507
0
ARC
8
DEFAULT_255_1_388
10
14.1126048
20
-0.0043297
40
0.6535262
50
269.9358869
51
282.8096729
0
ARC
8
DEFAULT_255_1_388
10
14.1067987
20
0.1469329
40
0.8048043
50
269.9995752
51
270.3612856
0
ARC
8
DEFAULT_255_1_388
10
14.1008477
20
-0.1329219
40
0.5249831
50
250.7885263
51
270.6488451
0
ARC
8
DEFAULT_255_1_388
10
14.0819302
20
-0.2046147
40
0.4510942
50
219.3628377
51
250.0611024
0
ARC
8
DEFAULT_255_1_388
10
14.1752176
20
-0.1253347
40
0.5735046
50
193.5480293
51
219.5755675
0
ARC
8
DEFAULT_255_1_388
10
14.4420385
20
-0.056048
40
0.849146
50
181.1220183
51
193.8754971
0
ARC
8
DEFAULT_255_1_388
10
14.6743619
20
-0.0436086
40
1.0816971
50
179.9914644
51
181.5398227
0
ARC
8
DEFAULT_255_1_388
10
14.4666929
20
0.0872586
40
0.8740384
50
169.5837606
51
180.275782
0
ARC
8
DEFAULT_255_1_388
10
14.2600277
20
0.1254439
40
0.6638751
50
155.0367033
51
169.6002779
0
ARC
8
DEFAULT_255_1_388
10
14.1322735
20
0.1870336
40
0.5220662
50
136.7831557
51
155.2472983
0
ARC
8
DEFAULT_255_1_388
10
14.0884526
20
0.2242577
40
0.4646502
50
121.7633063
51
136.4281161
0
ARC
8
DEFAULT_255_1_388
10
14.1036366
20
0.1962049
40
0.4964979
50
95.6460018
51
121.5489589
0
ARC
8
DEFAULT_255_1_388
10
14.121334
20
0.0714704
40
0.6223912
50
89.9245727
51
96.1375919
0
ARC
8
DEFAULT_255_1_388
10
14.1270045
20
0.0848721
40
0.6090084
50
76.6779212
51
90.456405
0
ARC
8
DEFAULT_255_1_388
10
14.1712858
20
0.263806
40
0.42469
50
47.4858803
51
76.9287069
0
ARC
8
DEFAULT_255_1_388
10
14.1547472
20
0.2525623
40
0.4441778
50
16.5424081
51
46.8934505
0
ARC
8
DEFAULT_255_1_388
10
13.9738522
20
0.1931265
40
0.6345318
50
5.4072971
51
17.0363711
0
ARC
8
DEFAULT_255_1_388
10
13.8120247
20
0.1671304
40
0.6250632
50
7.8888693
51
15.9242022
0
ARC
8
DEFAULT_255_1_388
10
14.0355232
20
0.2320309
40
0.3923364
50
15.7650676
51
27.9410069
0
ARC
8
DEFAULT_255_1_388
10
14.1597402
20
0.2985317
40
0.2514401
50
27.8167196
51
46.4007942
0
ARC
8
DEFAULT_255_1_388
10
14.1653243
20
0.2978882
40
0.2480958
50
47.4372362
51
75.0695672
0
ARC
8
DEFAULT_255_1_388
10
14.1306079
20
0.1770277
40
0.3738281
50
74.7009379
51
87.8124314
0
ARC
8
DEFAULT_255_1_388
10
14.1223696
20
0.0586659
40
0.4924321
50
87.3802571
51
90.0251599
0
ARC
8
DEFAULT_255_1_388
10
14.1180343
20
0.1906997
40
0.3604218
50
89.3451886
51
108.5744412
0
ARC
8
DEFAULT_255_1_388
10
14.1026336
20
0.2484836
40
0.3007661
50
109.2998307
51
143.3037387
0
ARC
8
DEFAULT_255_1_388
10
14.1883625
20
0.1825584
40
0.4089031
50
143.075267
51
163.1918576
0
ARC
8
DEFAULT_255_1_388
10
14.407946
20
0.1132652
40
0.6391492
50
162.9375929
51
174.6208776
0
ARC
8
DEFAULT_255_1_388
10
14.7033841
20
0.0808711
40
0.9363344
50
174.342123
51
180.1430283
0
ARC
8
DEFAULT_255_1_388
10
14.5986383
20
-0.0534883
40
0.8315986
50
179.6817261
51
189.150555
0
ARC
8
DEFAULT_255_1_388
10
14.3173132
20
-0.1003441
40
0.5464044
50
188.9911061
51
203.5772363
0
ARC
8
DEFAULT_255_1_388
10
14.1958423
20
-0.1507461
40
0.4149206
50
203.9075402
51
215.1312435
0
ARC
8
DEFAULT_255_1_388
10
14.0920221
20
-0.2312093
40
0.2837747
50
213.9071511
51
263.8848919
0
ARC
8
DEFAULT_255_1_388
10
14.1061214
20
-0.1429481
40
0.3730641
50
263.1757928
51
270.1031044
0
ARC
8
DEFAULT_255_1_388
10
14.1097294
20
-0.0026489
40
0.5133712
50
269.6722503
51
279.0606936
0
ARC
8
DEFAULT_255_1_388
10
14.1397449
20
-0.184085
40
0.3294739
50
278.8749101
51
293.6349581
0
ARC
8
DEFAULT_255_1_388
10
14.1757653
20
-0.2686749
40
0.2375405
50
293.8553806
51
310.0518171
0
ARC
8
DEFAULT_255_1_388
10
14.1763162
20
-0.2756979
40
0.2318463
50
311.0644687
51
332.0111037
0
ARC
8
DEFAULT_255_1_388
10
14.0421835
20
-0.2017298
40
0.3850112
50
331.6586806
51
343.2877423
0
ARC
8
DEFAULT_255_1_388
10
13.8101301
20
-0.1304194
40
0.6277712
50
343.1446576
51
351.0103568
0
ARC
8
DEFAULT_255_1_388
10
13.6468624
20
-0.1004127
40
0.7937327
50
350.71248
51
351.1626997
0
LINE
8
DEFAULT_255_1_388
10
15.6238775
20
0.138169
11
15.6238775
21
-0.0786865
0
LINE
8
DEFAULT_255_1_388
10
14.7935018
20
-0.1012756
11
14.7935018
21
0.1219048
0
LINE
8
DEFAULT_255_1_388
10
15.4567181
20
-0.1238647
11
15.4567181
21
0.1499153
0
LINE
8
DEFAULT_255_1_388
10
14.9606612
20
0.1625652
11
14.9606612
21
-0.1048898
0
ARC
8
DEFAULT_255_1_388
10
14.2461109
20
-0.0841882
40
1.3777776
50
353.8440855
51
0.2287917
0
ARC
8
DEFAULT_255_1_388
10
14.7680126
20
-0.1424586
40
0.852639
50
344.4934746
51
353.9763743
0
ARC
8
DEFAULT_255_1_388
10
15.1046933
20
-0.2381809
40
0.5026273
50
329.2803599
51
344.7473406
0
ARC
8
DEFAULT_255_1_388
10
15.2162429
20
-0.2993962
40
0.3754848
50
324.9361395
51
328.6153007
0
ARC
8
DEFAULT_255_1_388
10
15.2588079
20
-0.3291414
40
0.3235566
50
280.5801797
51
324.9173226
0
ARC
8
DEFAULT_255_1_388
10
15.2136708
20
-0.1411764
40
0.5167077
50
269.5979457
51
281.6732777
0
ARC
8
DEFAULT_255_1_388
10
15.2055611
20
-0.1546887
40
0.5032026
50
256.6228565
51
270.5105488
0
ARC
8
DEFAULT_255_1_388
10
15.1603354
20
-0.3288655
40
0.3233092
50
215.8618351
51
257.2787793
0
ARC
8
DEFAULT_255_1_388
10
15.2752061
20
-0.2517894
40
0.4615831
50
197.9695203
51
215.2622745
0
ARC
8
DEFAULT_255_1_388
10
15.5547737
20
-0.1574359
40
0.7566307
50
187.8816486
51
198.2346584
0
ARC
8
DEFAULT_255_1_388
10
16.0000975
20
-0.0931547
40
1.2065653
50
180.8977266
51
188.0054894
0
ARC
8
DEFAULT_255_1_388
10
16.3051188
20
-0.08166
40
1.5117443
50
180.7434591
51
181.152202
0
ARC
8
DEFAULT_255_1_388
10
16.1376184
20
0.1273371
40
1.3441277
50
173.7674302
51
180.2315596
0
ARC
8
DEFAULT_255_1_388
10
15.6294053
20
0.1847779
40
0.8326847
50
164.3058537
51
173.9000553
0
ARC
8
DEFAULT_255_1_388
10
15.3018053
20
0.2791652
40
0.4917711
50
148.7922028
51
164.5682288
0
ARC
8
DEFAULT_255_1_388
10
15.1948791
20
0.3388457
40
0.3694204
50
144.5883979
51
148.1161588
0
ARC
8
DEFAULT_255_1_388
10
15.1561536
20
0.3658667
40
0.322202
50
101.6440149
51
144.5142619
0
ARC
8
DEFAULT_255_1_388
10
15.2039728
20
0.1758337
40
0.5180451
50
89.528284
51
102.5820197
0
ARC
8
DEFAULT_255_1_388
10
15.212872
20
0.1714376
40
0.5224441
50
77.0437914
51
90.508231
0
ARC
8
DEFAULT_255_1_388
10
15.2580974
20
0.3562272
40
0.3322297
50
48.2777708
51
77.4996087
0
ARC
8
DEFAULT_255_1_388
10
15.2662714
20
0.3707557
40
0.315966
50
36.3141586
51
47.6307332
0
ARC
8
DEFAULT_255_1_388
10
15.1685436
20
0.3049159
40
0.4337313
50
18.2931065
51
35.6770203
0
ARC
8
DEFAULT_255_1_388
10
14.8824277
20
0.2067107
40
0.7362203
50
8.0246996
51
18.5605636
0
ARC
8
DEFAULT_255_1_388
10
14.4140632
20
0.1375432
40
1.2096583
50
1.127539
51
8.1718423
0
ARC
8
DEFAULT_255_1_388
10
14.0491766
20
0.1232374
40
1.5747719
50
0.5432713
51
1.38669
0
ARC
8
DEFAULT_255_1_388
10
14.2549144
20
0.1539163
40
1.2018103
50
359.8092569
51
4.9408001
0
ARC
8
DEFAULT_255_1_388
10
14.7285726
20
0.19619
40
0.7262727
50
4.8364937
51
12.2906017
0
ARC
8
DEFAULT_255_1_388
10
15.0385191
20
0.2652485
40
0.4087324
50
12.0806994
51
23.8171225
0
ARC
8
DEFAULT_255_1_388
10
15.1705587
20
0.3211508
40
0.2653719
50
24.2874621
51
31.3934353
0
ARC
8
DEFAULT_255_1_388
10
15.2296022
20
0.3597822
40
0.1948607
50
30.7407708
51
82.4658033
0
ARC
8
DEFAULT_255_1_388
10
15.2093683
20
0.2604017
40
0.2961198
50
81.1057101
51
90.2187368
0
ARC
8
DEFAULT_255_1_388
10
15.2053495
20
0.2894421
40
0.2670929
50
89.380395
51
105.6763916
0
ARC
8
DEFAULT_255_1_388
10
15.1847217
20
0.364432
40
0.1893189
50
105.7980655
51
149.7387869
0
ARC
8
DEFAULT_255_1_388
10
15.3044357
20
0.2924719
40
0.3289892
50
149.4208441
51
163.628295
0
ARC
8
DEFAULT_255_1_388
10
15.5396587
20
0.2207345
40
0.5749004
50
163.3764549
51
172.141138
0
ARC
8
DEFAULT_255_1_388
10
15.9109308
20
0.1675582
40
0.9499585
50
172.0258462
51
178.0705453
0
ARC
8
DEFAULT_255_1_388
10
16.2530861
20
0.1513682
40
1.2924734
50
177.8639301
51
179.5036263
0
ARC
8
DEFAULT_255_1_388
10
16.131188
20
-0.1089849
40
1.170534
50
179.7995545
51
185.246089
0
ARC
8
DEFAULT_255_1_388
10
15.6763473
20
-0.1520596
40
0.7136613
50
185.1411911
51
193.0082205
0
ARC
8
DEFAULT_255_1_388
10
15.3789734
20
-0.2223559
40
0.4080987
50
192.7897338
51
205.2507384
0
ARC
8
DEFAULT_255_1_388
10
15.2611944
20
-0.2749462
40
0.2791522
50
205.8001921
51
211.2545876
0
ARC
8
DEFAULT_255_1_388
10
15.2023483
20
-0.3143868
40
0.2084074
50
210.3789935
51
238.4007996
0
ARC
8
DEFAULT_255_1_388
10
15.2001569
20
-0.3091214
40
0.2117943
50
239.6521916
51
265.9793852
0
ARC
8
DEFAULT_255_1_388
10
15.2097418
20
-0.2334642
40
0.2879689
50
265.1324455
51
270.0603288
0
ARC
8
DEFAULT_255_1_388
10
15.2129795
20
-0.2699582
40
0.2514919
50
269.3314378
51
287.2180039
0
ARC
8
DEFAULT_255_1_388
10
15.2284877
20
-0.3265709
40
0.1928357
50
287.7957942
51
329.0808983
0
ARC
8
DEFAULT_255_1_388
10
15.1207634
20
-0.2593349
40
0.319808
50
328.6635261
51
343.3325043
0
ARC
8
DEFAULT_255_1_388
10
14.8763093
20
-0.1831805
40
0.5758408
50
343.0498092
51
351.9392499
0
ARC
8
DEFAULT_255_1_388
10
14.4862414
20
-0.1256795
40
0.9701202
50
351.8071632
51
357.7957897
0
ARC
8
DEFAULT_255_1_388
10
14.1227891
20
-0.1068276
40
1.3340376
50
357.5870923
51
359.2682493
0
LINE
8
DEFAULT_255_1_388
10
16.7000228
20
-0.5033618
11
16.7000228
21
-0.6398
0
LINE
8
DEFAULT_255_1_388
10
16.7000228
20
-0.6398
11
15.8380223
21
-0.6398
0
LINE
8
DEFAULT_255_1_388
10
15.8380223
20
-0.6398
11
15.8380223
21
-0.5196259
0
LINE
8
DEFAULT_255_1_388
10
15.8380223
20
-0.5196259
11
16.2934188
21
-0.0136298
0
LINE
8
DEFAULT_255_1_388
10
15.9798819
20
0.2881607
11
15.8127225
21
0.2881607
0
LINE
8
DEFAULT_255_1_388
10
16.3919073
20
-0.121154
11
16.0395171
21
-0.5033618
0
LINE
8
DEFAULT_255_1_388
10
16.0395171
20
-0.5033618
11
16.7000228
21
-0.5033618
0
ARC
8
DEFAULT_255_1_388
10
14.7758247
20
1.3283983
40
2.0258655
50
318.5132526
51
320.7829045
0
ARC
8
DEFAULT_255_1_388
10
15.3706204
20
0.8442929
40
1.2589638
50
320.7372878
51
323.9739031
0
ARC
8
DEFAULT_255_1_388
10
15.8115136
20
0.5248554
40
0.7145141
50
323.8962701
51
328.64194
0
ARC
8
DEFAULT_255_1_388
10
16.0417393
20
0.3828545
40
0.4440242
50
328.8294576
51
331.7891185
0
ARC
8
DEFAULT_255_1_388
10
16.1539713
20
0.3249374
40
0.3177517
50
331.4254512
51
352.9365785
0
ARC
8
DEFAULT_255_1_388
10
16.1692713
20
0.321505
40
0.3021496
50
353.2257659
51
0.0166158
0
ARC
8
DEFAULT_255_1_388
10
16.1929474
20
0.3240894
40
0.2784847
50
359.486299
51
15.9343185
0
ARC
8
DEFAULT_255_1_388
10
16.2499741
20
0.3394269
40
0.2194403
50
16.1712913
51
43.5286088
0
ARC
8
DEFAULT_255_1_388
10
16.2586685
20
0.3481191
40
0.2071504
50
43.4417391
51
83.1661095
0
ARC
8
DEFAULT_255_1_388
10
16.2435846
20
0.2652316
40
0.2912888
50
82.160179
51
90.1505708
0
ARC
8
DEFAULT_255_1_388
10
16.2400328
20
0.2048279
40
0.3517025
50
89.5460741
51
102.5418361
0
ARC
8
DEFAULT_255_1_388
10
16.2127048
20
0.3207933
40
0.2325748
50
102.1738499
51
129.206123
0
ARC
8
DEFAULT_255_1_388
10
16.2038501
20
0.3347664
40
0.2161591
50
129.72865
51
135.753947
0
ARC
8
DEFAULT_255_1_388
10
16.2174983
20
0.3238728
40
0.2335433
50
136.1757367
51
166.3673339
0
ARC
8
DEFAULT_255_1_388
10
16.3307672
20
0.2935148
40
0.3507873
50
165.9090694
51
178.8684636
0
ARC
8
DEFAULT_255_1_388
10
16.4283443
20
0.2882263
40
0.4484624
50
178.4391136
51
180.0083808
0
ARC
8
DEFAULT_255_1_388
10
16.2704145
20
0.2926197
40
0.4577138
50
163.2878482
51
180.5581842
0
ARC
8
DEFAULT_255_1_388
10
16.1802186
20
0.3174393
40
0.3641968
50
133.4540601
51
162.947111
0
ARC
8
DEFAULT_255_1_388
10
16.2003068
20
0.2960789
40
0.3935189
50
100.7869829
51
133.4382499
0
ARC
8
DEFAULT_255_1_388
10
16.2394313
20
0.1218399
40
0.5720313
50
89.660664
51
101.3702276
0
ARC
8
DEFAULT_255_1_388
10
16.2468922
20
0.1287263
40
0.5651495
50
78.2172678
51
90.412935
0
ARC
8
DEFAULT_255_1_388
10
16.2868387
20
0.3114511
40
0.378122
50
55.9269121
51
78.4888449
0
ARC
8
DEFAULT_255_1_388
10
16.3089103
20
0.3495187
40
0.3342379
50
47.929771
51
55.4049217
0
ARC
8
DEFAULT_255_1_388
10
16.3203633
20
0.3611618
40
0.3179217
50
4.334829
51
48.0560205
0
ARC
8
DEFAULT_255_1_388
10
16.1971435
20
0.3420487
40
0.442341
50
359.9251713
51
5.5971671
0
ARC
8
DEFAULT_255_1_388
10
16.2453589
20
0.3483728
40
0.3941854
50
337.8914027
51
358.9967534
0
ARC
8
DEFAULT_255_1_388
10
15.9401159
20
0.4661295
40
0.7213271
50
326.9132501
51
338.3508308
0
ARC
8
DEFAULT_255_1_388
10
15.4917271
20
0.7535105
40
1.2538973
50
319.6471833
51
327.0959558
0
ARC
8
DEFAULT_255_1_388
10
15.060393
20
1.109305
40
1.8129975
50
317.2588228
51
319.9045804
0
LINE
8
DEFAULT_255_1_388
10
17.7391219
20
-0.5033618
11
17.7391219
21
-0.6398
0
LINE
8
DEFAULT_255_1_388
10
17.7391219
20
-0.6398
11
16.8771214
21
-0.6398
0
LINE
8
DEFAULT_255_1_388
10
16.8771214
20
-0.6398
11
16.8771214
21
-0.5196259
0
LINE
8
DEFAULT_255_1_388
10
16.8771214
20
-0.5196259
11
17.3325179
21
-0.0136298
0
LINE
8
DEFAULT_255_1_388
10
17.018981
20
0.2881607
11
16.8518216
21
0.2881607
0
LINE
8
DEFAULT_255_1_388
10
17.4310064
20
-0.121154
11
17.0786163
21
-0.5033618
0
LINE
8
DEFAULT_255_1_388
10
17.0786163
20
-0.5033618
11
17.7391219
21
-0.5033618
0
ARC
8
DEFAULT_255_1_388
10
15.8149238
20
1.3283983
40
2.0258655
50
318.5132526
51
320.7829045
0
ARC
8
DEFAULT_255_1_388
10
16.4097195
20
0.8442929
40
1.2589638
50
320.7372878
51
323.9739031
0
ARC
8
DEFAULT_255_1_388
10
16.8506127
20
0.5248554
40
0.7145141
50
323.8962701
51
328.64194
0
ARC
8
DEFAULT_255_1_388
10
17.0808384
20
0.3828545
40
0.4440242
50
328.8294576
51
331.7891185
0
ARC
8
DEFAULT_255_1_388
10
17.1930705
20
0.3249374
40
0.3177517
50
331.4254512
51
352.9365785
0
ARC
8
DEFAULT_255_1_388
10
17.2083704
20
0.321505
40
0.3021496
50
353.2257659
51
0.0166158
0
ARC
8
DEFAULT_255_1_388
10
17.2320465
20
0.3240894
40
0.2784847
50
359.486299
51
15.9343185
0
ARC
8
DEFAULT_255_1_388
10
17.2890732
20
0.3394269
40
0.2194403
50
16.1712913
51
43.5286088
0
ARC
8
DEFAULT_255_1_388
10
17.2977676
20
0.3481191
40
0.2071504
50
43.4417391
51
83.1661095
0
ARC
8
DEFAULT_255_1_388
10
17.2826838
20
0.2652316
40
0.2912888
50
82.160179
51
90.1505708
0
ARC
8
DEFAULT_255_1_388
10
17.2791319
20
0.2048279
40
0.3517025
50
89.5460741
51
102.5418361
0
ARC
8
DEFAULT_255_1_388
10
17.2518039
20
0.3207933
40
0.2325748
50
102.1738499
51
129.206123
0
ARC
8
DEFAULT_255_1_388
10
17.2429493
20
0.3347664
40
0.2161591
50
129.72865
51
135.753947
0
ARC
8
DEFAULT_255_1_388
10
17.2565975
20
0.3238728
40
0.2335433
50
136.1757367
51
166.3673339
0
ARC
8
DEFAULT_255_1_388
10
17.3698663
20
0.2935148
40
0.3507873
50
165.9090694
51
178.8684636
0
ARC
8
DEFAULT_255_1_388
10
17.4674435
20
0.2882263
40
0.4484624
50
178.4391136
51
180.0083808
0
ARC
8
DEFAULT_255_1_388
10
17.3095136
20
0.2926197
40
0.4577138
50
163.2878482
51
180.5581842
0
ARC
8
DEFAULT_255_1_388
10
17.2193177
20
0.3174393
40
0.3641968
50
133.4540601
51
162.947111
0
ARC
8
DEFAULT_255_1_388
10
17.2394059
20
0.2960789
40
0.3935189
50
100.7869829
51
133.4382499
0
ARC
8
DEFAULT_255_1_388
10
17.2785304
20
0.1218399
40
0.5720313
50
89.660664
51
101.3702276
0
ARC
8
DEFAULT_255_1_388
10
17.2859913
20
0.1287263
40
0.5651495
50
78.2172678
51
90.412935
0
ARC
8
DEFAULT_255_1_388
10
17.3259379
20
0.3114511
40
0.378122
50
55.9269121
51
78.4888449
0
ARC
8
DEFAULT_255_1_388
10
17.3480094
20
0.3495187
40
0.3342379
50
47.929771
51
55.4049217
0
ARC
8
DEFAULT_255_1_388
10
17.3594624
20
0.3611618
40
0.3179217
50
4.334829
51
48.0560205
0
ARC
8
DEFAULT_255_1_388
10
17.2362426
20
0.3420487
40
0.442341
50
359.9251713
51
5.5971671
0
ARC
8
DEFAULT_255_1_388
10
17.2844581
20
0.3483728
40
0.3941854
50
337.8914027
51
358.9967534
0
ARC
8
DEFAULT_255_1_388
10
16.9792151
20
0.4661295
40
0.7213271
50
326.9132501
51
338.3508308
0
ARC
8
DEFAULT_255_1_388
10
16.5308263
20
0.7535105
40
1.2538973
50
319.6471833
51
327.0959558
0
ARC
8
DEFAULT_255_1_388
10
16.0994921
20
1.109305
40
1.8129975
50
317.2588228
51
319.9045804
0
LINE
8
DEFAULT_255_1_388
10
18.778221
20
-0.5033618
11
18.778221
21
-0.6398
0
LINE
8
DEFAULT_255_1_388
10
18.778221
20
-0.6398
11
17.9162205
21
-0.6398
0
LINE
8
DEFAULT_255_1_388
10
17.9162205
20
-0.6398
11
17.9162205
21
-0.5196259
0
LINE
8
DEFAULT_255_1_388
10
17.9162205
20
-0.5196259
11
18.371617
21
-0.0136298
0
LINE
8
DEFAULT_255_1_388
10
18.0580801
20
0.2881607
11
17.8909207
21
0.2881607
0
LINE
8
DEFAULT_255_1_388
10
18.4701055
20
-0.121154
11
18.1177154
21
-0.5033618
0
LINE
8
DEFAULT_255_1_388
10
18.1177154
20
-0.5033618
11
18.778221
21
-0.5033618
0
ARC
8
DEFAULT_255_1_388
10
16.8540229
20
1.3283983
40
2.0258655
50
318.5132526
51
320.7829045
0
ARC
8
DEFAULT_255_1_388
10
17.4488186
20
0.8442929
40
1.2589638
50
320.7372878
51
323.9739031
0
ARC
8
DEFAULT_255_1_388
10
17.8897118
20
0.5248554
40
0.7145141
50
323.8962701
51
328.64194
0
ARC
8
DEFAULT_255_1_388
10
18.1199376
20
0.3828545
40
0.4440242
50
328.8294576
51
331.7891185
0
ARC
8
DEFAULT_255_1_388
10
18.2321696
20
0.3249374
40
0.3177517
50
331.4254512
51
352.9365785
0
ARC
8
DEFAULT_255_1_388
10
18.2474696
20
0.321505
40
0.3021496
50
353.2257659
51
0.0166158
0
ARC
8
DEFAULT_255_1_388
10
18.2711456
20
0.3240894
40
0.2784847
50
359.486299
51
15.9343185
0
ARC
8
DEFAULT_255_1_388
10
18.3281723
20
0.3394269
40
0.2194403
50
16.1712913
51
43.5286088
0
ARC
8
DEFAULT_255_1_388
10
18.3368668
20
0.3481191
40
0.2071504
50
43.4417391
51
83.1661095
0
ARC
8
DEFAULT_255_1_388
10
18.3217829
20
0.2652316
40
0.2912888
50
82.160179
51
90.1505708
0
ARC
8
DEFAULT_255_1_388
10
18.318231
20
0.2048279
40
0.3517025
50
89.5460741
51
102.5418361
0
ARC
8
DEFAULT_255_1_388
10
18.290903
20
0.3207933
40
0.2325748
50
102.1738499
51
129.206123
0
ARC
8
DEFAULT_255_1_388
10
18.2820484
20
0.3347664
40
0.2161591
50
129.72865
51
135.753947
0
ARC
8
DEFAULT_255_1_388
10
18.2956966
20
0.3238728
40
0.2335433
50
136.1757367
51
166.3673339
0
ARC
8
DEFAULT_255_1_388
10
18.4089654
20
0.2935148
40
0.3507873
50
165.9090694
51
178.8684636
0
ARC
8
DEFAULT_255_1_388
10
18.5065426
20
0.2882263
40
0.4484624
50
178.4391136
51
180.0083808
0
ARC
8
DEFAULT_255_1_388
10
18.3486127
20
0.2926197
40
0.4577138
50
163.2878482
51
180.5581842
0
ARC
8
DEFAULT_255_1_388
10
18.2584169
20
0.3174393
40
0.3641968
50
133.4540601
51
162.947111
0
ARC
8
DEFAULT_255_1_388
10
18.278505
20
0.2960789
40
0.3935189
50
100.7869829
51
133.4382499
0
ARC
8
DEFAULT_255_1_388
10
18.3176295
20
0.1218399
40
0.5720313
50
89.660664
51
101.3702276
0
ARC
8
DEFAULT_255_1_388
10
18.3250904
20
0.1287263
40
0.5651495
50
78.2172678
51
90.412935
0
ARC
8
DEFAULT_255_1_388
10
18.365037
20
0.3114511
40
0.378122
50
55.9269121
51
78.4888449
0
ARC
8
DEFAULT_255_1_388
10
18.3871085
20
0.3495187
40
0.3342379
50
47.929771
51
55.4049217
0
ARC
8
DEFAULT_255_1_388
10
18.3985615
20
0.3611618
40
0.3179217
50
4.334829
51
48.0560205
0
ARC
8
DEFAULT_255_1_388
10
18.2753417
20
0.3420487
40
0.442341
50
359.9251713
51
5.5971671
0
ARC
8
DEFAULT_255_1_388
10
18.3235572
20
0.3483728
40
0.3941854
50
337.8914027
51
358.9967534
0
ARC
8
DEFAULT_255_1_388
10
18.0183142
20
0.4661295
40
0.7213271
50
326.9132501
51
338.3508308
0
ARC
8
DEFAULT_255_1_388
10
17.5699254
20
0.7535105
40
1.2538973
50
319.6471833
51
327.0959558
0
ARC
8
DEFAULT_255_1_388
10
17.1385912
20
1.109305
40
1.8129975
50
317.2588228
51
319.9045804
0
ARC
8
DEFAULT_255_2_778
10
15.0734646
20
98.1741567
40
0.3782009
50
0.4397807
51
91.3045231
0
ARC
8
DEFAULT_255_2_778
10
15.0713202
20
98.1718741
40
0.3803695
50
269.0259909
51
0.7811192
0
ARC
8
DEFAULT_255_2_778
10
15.2304616
20
98.1594321
40
0.7639615
50
290.7362057
51
357.8000295
0
ARC
8
DEFAULT_255_2_778
10
15.1452354
20
98.1769912
40
0.8499188
50
356.8376875
51
0.0046095
0
ARC
8
DEFAULT_255_2_778
10
15.1438766
20
98.1770425
40
0.8512778
50
0.0011515
51
85.3589632
0
ARC
8
DEFAULT_255_2_778
10
15.1438694
20
98.1579769
40
0.8702827
50
85.4600549
51
90.0075769
0
ARC
8
DEFAULT_255_2_778
10
19.9750173
20
98.1677104
40
0.3845507
50
1.3931151
51
90.158378
0
ARC
8
DEFAULT_255_2_778
10
20.0342419
20
98.1613312
40
0.8684198
50
359.7643557
51
42.1181505
0
ARC
8
DEFAULT_255_2_778
10
20.0366479
20
98.1617609
40
0.866348
50
42.2037872
51
87.9292218
0
ARC
8
DEFAULT_255_2_778
10
20.0318949
20
98.1204775
40
0.9077821
50
87.7235759
51
90.0025578
0
ARC
8
DEFAULT_255_2_778
10
12.7284028
20
98.1745796
40
0.3777595
50
0.3761505
51
91.175317
0
ARC
8
DEFAULT_255_2_778
10
12.7825419
20
98.1613312
40
0.8684198
50
359.7643557
51
42.1181505
0
ARC
8
DEFAULT_255_2_778
10
12.7849479
20
98.1617609
40
0.866348
50
42.2037872
51
87.9292218
0
ARC
8
DEFAULT_255_2_778
10
12.7801949
20
98.1204775
40
0.9077821
50
87.7235759
51
90.0025578
0
ARC
8
DEFAULT_255_2_778
10
17.3606743
20
97.7695535
40
1.2841942
50
233.3100129
51
270.0348017
0
ARC
8
DEFAULT_255_2_778
10
17.3727456
20
97.7899299
40
1.3077482
50
187.7860459
51
233.4193197
0
ARC
8
DEFAULT_255_2_778
10
17.3909911
20
97.7914862
40
1.3260368
50
179.9838663
51
187.7458681
0
ARC
8
DEFAULT_255_2_778
10
17.3494846
20
97.7921052
40
1.2845303
50
143.7084173
51
180.0109545
0
ARC
8
DEFAULT_255_2_778
10
17.3645561
20
97.7870576
40
1.2996747
50
94.9692901
51
143.9223324
0
ARC
8
DEFAULT_255_2_778
10
17.3613355
20
97.7877024
40
1.2987573
50
89.9947559
51
94.8302073
0
ARC
8
DEFAULT_255_2_778
10
17.3636379
20
97.7816107
40
1.3048507
50
58.145411
51
90.0958788
0
ARC
8
DEFAULT_255_2_778
10
17.3721873
20
97.7879171
40
1.294988
50
3.2655211
51
58.3194462
0
ARC
8
DEFAULT_255_2_778
10
17.3727016
20
97.7919162
40
1.2942527
50
359.997494
51
3.0900664
0
ARC
8
DEFAULT_255_2_778
10
17.1842403
20
97.789816
40
1.4827154
50
0.006083
51
0.0789681
0
ARC
8
DEFAULT_255_2_778
10
17.3622257
20
97.7898976
40
1.30473
50
315.0276525
51
0.0033284
0
ARC
8
DEFAULT_255_2_778
10
17.36257
20
97.7897198
40
1.3043608
50
270.000667
51
315.0224921
0
LINE
8
DEFAULT_255_2_778
10
17.3625852
20
96.4853591
11
17.3614543
21
96.4853596
0
ARC
8
DEFAULT_255_2_778
10
17.3657135
20
97.7878789
40
0.7580313
50
269.6780691
51
315.5292436
0
ARC
8
DEFAULT_255_2_778
10
17.362643
20
97.7871555
40
0.7597205
50
315.7303962
51
0.2857903
0
ARC
8
DEFAULT_255_2_778
10
17.6503699
20
97.7914059
40
0.4719845
50
359.944048
51
0.0186519
0
ARC
8
DEFAULT_255_2_778
10
17.3704095
20
97.7904282
40
0.7519457
50
0.086204
51
85.4319233
0
ARC
8
DEFAULT_255_2_778
10
17.3615932
20
97.7480015
40
0.7949581
50
85.0420495
51
90.0100075
0
ARC
8
DEFAULT_255_2_778
10
17.3595718
20
97.8047196
40
0.7382424
50
89.8538973
51
89.9999976
0
ARC
8
DEFAULT_255_2_778
10
17.3597093
20
97.7917721
40
0.7511899
50
90.01048
51
134.9443097
0
ARC
8
DEFAULT_255_2_778
10
17.359927
20
97.7915899
40
0.7514726
50
134.9462486
51
180.0023145
0
ARC
8
DEFAULT_255_2_778
10
17.3724947
20
97.7876552
40
0.7640503
50
179.7072119
51
222.5790813
0
ARC
8
DEFAULT_255_2_778
10
17.3595619
20
97.7766152
40
0.7470579
50
222.6267201
51
270.1451401
0
ARC
8
DEFAULT_255_2_778
10
9.3660743
20
97.7695535
40
1.2841942
50
233.3100129
51
270.0348017
0
ARC
8
DEFAULT_255_2_778
10
9.3781456
20
97.7899299
40
1.3077482
50
187.7860459
51
233.4193197
0
ARC
8
DEFAULT_255_2_778
10
9.3963911
20
97.7914862
40
1.3260368
50
179.9838663
51
187.7458681
0
ARC
8
DEFAULT_255_2_778
10
9.3551452
20
97.7919638
40
1.2847909
50
143.1940819
51
180.0046489
0
ARC
8
DEFAULT_255_2_778
10
9.36994
20
97.7872683
40
1.2994598
50
94.9233187
51
143.4191345
0
ARC
8
DEFAULT_255_2_778
10
9.3667331
20
97.7879797
40
1.2984798
50
89.9946509
51
94.7850278
0
ARC
8
DEFAULT_255_2_778
10
9.3690225
20
97.7818118
40
1.3046496
50
58.1428905
51
90.0952196
0
ARC
8
DEFAULT_255_2_778
10
9.37745
20
97.787913
40
1.2950254
50
3.2656058
51
58.3171105
0
ARC
8
DEFAULT_255_2_778
10
9.3780016
20
97.7919162
40
1.2942527
50
359.997494
51
3.0900664
0
ARC
8
DEFAULT_255_2_778
10
9.3953041
20
97.7897125
40
1.276952
50
359.9949307
51
0.0963391
0
ARC
8
DEFAULT_255_2_778
10
9.3679416
20
97.7897263
40
1.3043147
50
315.0200668
51
359.994431
0
ARC
8
DEFAULT_255_2_778
10
9.3679661
20
97.7894877
40
1.3041287
50
270.0008363
51
315.026719
0
LINE
8
DEFAULT_255_2_778
10
9.3679852
20
96.4853591
11
9.3668543
21
96.4853596
0
ARC
8
DEFAULT_255_2_778
10
9.3710735
20
97.7878812
40
0.7580334
50
269.6810953
51
315.6152252
0
ARC
8
DEFAULT_255_2_778
10
9.3680162
20
97.7872058
40
0.7597504
50
315.8129036
51
0.3254485
0
ARC
8
DEFAULT_255_2_778
10
9.3754499
20
97.7901242
40
0.7523058
50
0.1093155
51
85.7820321
0
ARC
8
DEFAULT_255_2_778
10
9.3669704
20
97.748594
40
0.7943655
50
85.3923987
51
90.0083732
0
ARC
8
DEFAULT_255_2_778
10
9.3649708
20
97.8038025
40
0.7391595
50
89.8539942
51
89.9999859
0
ARC
8
DEFAULT_255_2_778
10
9.3650373
20
97.791946
40
0.7510159
50
90.0050654
51
134.9497993
0
ARC
8
DEFAULT_255_2_778
10
9.3649069
20
97.791764
40
0.7510526
50
134.9329452
51
180.0155944
0
ARC
8
DEFAULT_255_2_778
10
9.3779268
20
97.7876289
40
0.7640826
50
179.7052536
51
222.5741919
0
ARC
8
DEFAULT_255_2_778
10
9.3649128
20
97.776584
40
0.7470269
50
222.6256588
51
270.1489141
0
LINE
8
DEFAULT_255_2_778
10
13.8784543
20
99.0076596
11
13.8784543
21
96.5448596
0
LINE
8
DEFAULT_255_2_778
10
13.8784543
20
96.5448596
11
14.4219543
21
96.5448596
0
LINE
8
DEFAULT_255_2_778
10
14.4219543
20
96.5448596
11
14.4219543
21
98.5522596
0
LINE
8
DEFAULT_255_2_778
10
14.4219543
20
98.5522596
11
15.0648543
21
98.5522596
0
LINE
8
DEFAULT_255_2_778
10
15.0648543
20
97.7915596
11
14.6002543
21
97.7915596
0
LINE
8
DEFAULT_255_2_778
10
14.6002543
20
97.7915596
11
15.4413543
21
96.5445596
0
LINE
8
DEFAULT_255_2_778
10
15.4413543
20
96.5445596
11
16.1142543
21
96.5445596
0
LINE
8
DEFAULT_255_2_778
10
16.1142543
20
96.5445596
11
15.5009543
21
97.4449596
0
LINE
8
DEFAULT_255_2_778
10
15.1437543
20
99.0282596
11
14.4216543
21
99.0282596
0
LINE
8
DEFAULT_255_2_778
10
14.4216543
20
99.0282596
11
13.8782543
21
99.0076596
0
LINE
8
DEFAULT_255_2_778
10
13.8782543
20
99.0076596
11
13.8784543
21
99.0076596
0
LINE
8
DEFAULT_255_2_778
10
18.8158543
20
99.0076596
11
18.8158543
21
96.5448596
0
LINE
8
DEFAULT_255_2_778
10
18.8158543
20
96.5448596
11
19.3593543
21
96.5448596
0
LINE
8
DEFAULT_255_2_778
10
19.3593543
20
96.5448596
11
19.3593543
21
98.5522596
0
LINE
8
DEFAULT_255_2_778
10
19.3593543
20
98.5522596
11
19.9739543
21
98.5522596
0
LINE
8
DEFAULT_255_2_778
10
20.3594543
20
98.1770596
11
20.3594543
21
96.5448596
0
LINE
8
DEFAULT_255_2_778
10
20.3594543
20
96.5448596
11
20.9026543
21
96.5448596
0
LINE
8
DEFAULT_255_2_778
10
20.9026543
20
96.5448596
11
20.9026543
21
98.1577596
0
LINE
8
DEFAULT_255_2_778
10
20.0318543
20
99.0282596
11
19.3590543
21
99.0282596
0
LINE
8
DEFAULT_255_2_778
10
19.3590543
20
99.0282596
11
18.8156543
21
99.0076596
0
LINE
8
DEFAULT_255_2_778
10
18.8156543
20
99.0076596
11
18.8158543
21
99.0076596
0
LINE
8
DEFAULT_255_2_778
10
10.8212543
20
99.0076596
11
10.8212543
21
96.5448596
0
LINE
8
DEFAULT_255_2_778
10
10.8212543
20
96.5448596
11
11.3646543
21
96.5448596
0
LINE
8
DEFAULT_255_2_778
10
11.3646543
20
96.5448596
11
11.3646543
21
98.5522596
0
LINE
8
DEFAULT_255_2_778
10
11.3646543
20
98.5522596
11
11.9689543
21
98.5522596
0
LINE
8
DEFAULT_255_2_778
10
11.9689543
20
98.5522596
11
11.9689543
21
96.5448596
0
LINE
8
DEFAULT_255_2_778
10
11.9689543
20
96.5448596
11
12.5124543
21
96.5448596
0
LINE
8
DEFAULT_255_2_778
10
12.5124543
20
96.5448596
11
12.5124543
21
98.5522596
0
LINE
8
DEFAULT_255_2_778
10
12.5124543
20
98.5522596
11
12.7206543
21
98.5522596
0
LINE
8
DEFAULT_255_2_778
10
13.1061543
20
98.1770596
11
13.1061543
21
96.5448596
0
LINE
8
DEFAULT_255_2_778
10
13.1061543
20
96.5448596
11
13.6509543
21
96.5448596
0
LINE
8
DEFAULT_255_2_778
10
13.6509543
20
96.5448596
11
13.6509543
21
98.1577596
0
LINE
8
DEFAULT_255_2_778
10
12.7801543
20
99.0282596
11
11.3749543
21
99.0282596
0
LINE
8
DEFAULT_255_2_778
10
11.3749543
20
99.0282596
11
10.8212543
21
99.0076596
0
LINE
8
DEFAULT_255_2_778
10
10.8212543
20
99.0076596
11
10.8212543
21
99.0076596
0
LINE
8
DEFAULT_255_2_778
10
17.3614543
20
96.4853596
11
17.3614543
21
96.4853596
0
LINE
8
DEFAULT_255_2_778
10
9.3668543
20
96.4853596
11
9.3668543
21
96.4853596
0
LINE
8
DEFAULT_255_1_388
10
11.294991
20
95.2643898
11
11.294991
21
93.9488
0
LINE
8
DEFAULT_255_1_388
10
11.294991
20
93.9488
11
11.1206031
21
93.9488
0
LINE
8
DEFAULT_255_1_388
10
11.1206031
20
93.9488
11
10.4582903
21
94.9625993
0
LINE
8
DEFAULT_255_1_388
10
10.4582903
20
94.9625993
11
10.4582903
21
93.9488
0
LINE
8
DEFAULT_255_1_388
10
10.4582903
20
93.9488
11
10.2839024
21
93.9488
0
LINE
8
DEFAULT_255_1_388
10
10.2839024
20
93.9488
11
10.2839024
21
95.2643898
0
LINE
8
DEFAULT_255_1_388
10
10.2839024
20
95.2643898
11
10.4582903
21
95.2643898
0
LINE
8
DEFAULT_255_1_388
10
10.4582903
20
95.2643898
11
11.1224102
21
94.2460727
0
LINE
8
DEFAULT_255_1_388
10
11.1224102
20
94.2460727
11
11.1224102
21
95.2643898
0
LINE
8
DEFAULT_255_1_388
10
11.1224102
20
95.2643898
11
11.294991
21
95.2643898
0
LINE
8
DEFAULT_255_1_388
10
11.7305091
20
95.2643898
11
12.0476602
21
94.7602009
0
LINE
8
DEFAULT_255_1_388
10
12.0476602
20
94.7602009
11
12.3630042
21
95.2643898
0
LINE
8
DEFAULT_255_1_388
10
12.3630042
20
95.2643898
11
12.5672098
21
95.2643898
0
LINE
8
DEFAULT_255_1_388
10
12.5672098
20
95.2643898
11
12.1515701
21
94.6120163
0
LINE
8
DEFAULT_255_1_388
10
12.1515701
20
94.6120163
11
12.577149
21
93.9488
0
LINE
8
DEFAULT_255_1_388
10
12.577149
20
93.9488
11
12.3711363
21
93.9488
0
LINE
8
DEFAULT_255_1_388
10
12.3711363
20
93.9488
11
12.0476602
21
94.4620246
0
LINE
8
DEFAULT_255_1_388
10
12.0476602
20
94.4620246
11
11.722377
21
93.9488
0
LINE
8
DEFAULT_255_1_388
10
11.722377
20
93.9488
11
11.5172679
21
93.9488
0
LINE
8
DEFAULT_255_1_388
10
11.5172679
20
93.9488
11
11.9437503
21
94.6120163
0
LINE
8
DEFAULT_255_1_388
10
11.9437503
20
94.6120163
11
11.5272071
21
95.2643898
0
LINE
8
DEFAULT_255_1_388
10
11.5272071
20
95.2643898
11
11.7305091
21
95.2643898
0
LINE
8
DEFAULT_255_1_388
10
13.0587488
20
94.5758737
11
13.0587488
21
94.4394355
0
LINE
8
DEFAULT_255_1_388
10
13.0587488
20
94.4394355
11
12.6178094
21
94.4394355
0
LINE
8
DEFAULT_255_1_388
10
12.6178094
20
94.4394355
11
12.6178094
21
94.5758737
0
LINE
8
DEFAULT_255_1_388
10
12.6178094
20
94.5758737
11
13.0587488
21
94.5758737
0
LINE
8
DEFAULT_255_1_388
10
14.1204371
20
94.8839892
11
13.9460491
21
94.8839892
0
LINE
8
DEFAULT_255_1_388
10
13.1671766
20
94.3301042
11
13.3415645
21
94.3301042
0
ARC
8
DEFAULT_255_1_388
10
14.0201218
20
95.8903821
40
1.4087688
50
248.9196578
51
254.1442424
0
ARC
8
DEFAULT_255_1_388
10
13.8311098
20
95.4037805
40
0.8867498
50
241.6337352
51
249.0064643
0
ARC
8
DEFAULT_255_1_388
10
13.6591412
20
95.0886764
40
0.5277799
50
230.4982261
51
241.8087583
0
ARC
8
DEFAULT_255_1_388
10
13.5709183
20
94.9762686
40
0.3849419
50
227.4062979
51
229.9877433
0
ARC
8
DEFAULT_255_1_388
10
13.5160529
20
94.9227155
40
0.3084129
50
200.6782127
51
228.1765252
0
ARC
8
DEFAULT_255_1_388
10
13.5241898
20
94.9210277
40
0.315461
50
179.506278
51
199.8695278
0
ARC
8
DEFAULT_255_1_388
10
13.5231487
20
94.9293671
40
0.3144584
50
132.4834401
51
181.0242352
0
ARC
8
DEFAULT_255_1_388
10
13.5900691
20
94.8661788
40
0.4063094
50
129.2526113
51
133.4249077
0
ARC
8
DEFAULT_255_1_388
10
13.6066284
20
94.8413619
40
0.436014
50
101.9878945
51
128.8741833
0
ARC
8
DEFAULT_255_1_388
10
13.6514699
20
94.647736
40
0.6347415
50
89.5906376
51
102.3170567
0
ARC
8
DEFAULT_255_1_388
10
13.6594011
20
94.6835586
40
0.5989122
50
77.2359491
51
90.3248968
0
ARC
8
DEFAULT_255_1_388
10
13.6826942
20
94.7923554
40
0.4876594
50
63.8379856
51
77.0808925
0
ARC
8
DEFAULT_255_1_388
10
13.7139475
20
94.8505882
40
0.4216191
50
45.9863127
51
64.1608798
0
ARC
8
DEFAULT_255_1_388
10
13.7432869
20
94.884099
40
0.3771394
50
32.2747934
51
45.6544796
0
ARC
8
DEFAULT_255_1_388
10
13.7507675
20
94.8862426
40
0.3696765
50
359.6507495
51
32.6129943
0
ARC
8
DEFAULT_255_1_388
10
13.6446858
20
94.8867788
40
0.3013762
50
359.469654
51
14.983205
0
ARC
8
DEFAULT_255_1_388
10
13.724011
20
94.9080288
40
0.2192542
50
14.9781954
51
48.2004799
0
ARC
8
DEFAULT_255_1_388
10
13.7055221
20
94.8847937
40
0.2489048
50
48.5926661
51
74.1242559
0
ARC
8
DEFAULT_255_1_388
10
13.6680024
20
94.7609607
40
0.3782845
50
73.7889321
51
86.6653996
0
ARC
8
DEFAULT_255_1_388
10
13.6564838
20
94.6251955
40
0.5145025
50
86.2642725
51
90.0533288
0
ARC
8
DEFAULT_255_1_388
10
13.6532931
20
94.6696376
40
0.4700681
50
89.669455
51
99.2313411
0
ARC
8
DEFAULT_255_1_388
10
13.6260091
20
94.8321401
40
0.3052945
50
99.0695987
51
113.7659242
0
ARC
8
DEFAULT_255_1_388
10
13.5952085
20
94.9047772
40
0.226407
50
114.0402885
51
127.9848946
0
ARC
8
DEFAULT_255_1_388
10
13.5681561
20
94.9380884
40
0.1835045
50
127.7287217
51
176.7106493
0
ARC
8
DEFAULT_255_1_388
10
13.6445226
20
94.926721
40
0.2604907
50
175.1780759
51
180.0581213
0
ARC
8
DEFAULT_255_1_388
10
13.549657
20
94.9253411
40
0.1656287
50
179.6140658
51
228.124674
0
ARC
8
DEFAULT_255_1_388
10
13.5993927
20
94.971394
40
0.2332038
50
226.5785315
51
230.8792476
0
ARC
8
DEFAULT_255_1_388
10
13.6523414
20
95.0416908
40
0.3211664
50
231.4636401
51
241.9261664
0
ARC
8
DEFAULT_255_1_388
10
13.7870197
20
95.2895349
40
0.6032345
50
241.7177136
51
248.3259138
0
ARC
8
DEFAULT_255_1_388
10
13.9428792
20
95.6756771
40
1.0196417
50
248.2007377
51
252.4527713
0
ARC
8
DEFAULT_255_1_388
10
14.0782319
20
96.0941092
40
1.4594143
50
252.3388938
51
254.347037
0
ARC
8
DEFAULT_255_1_388
10
13.2297619
20
93.0593095
40
1.6917621
50
71.0197462
51
74.4085467
0
ARC
8
DEFAULT_255_1_388
10
13.4204707
20
93.6098144
40
1.1091618
50
66.1845203
51
71.086519
0
ARC
8
DEFAULT_255_1_388
10
13.5955256
20
94.0039439
40
0.6779073
50
59.3537334
51
66.269255
0
ARC
8
DEFAULT_255_1_388
10
13.6954982
20
94.1730777
40
0.4814366
50
49.1021732
51
59.3294421
0
ARC
8
DEFAULT_255_1_388
10
13.787597
20
94.2780575
40
0.3417875
50
32.7924183
51
49.2503526
0
ARC
8
DEFAULT_255_1_388
10
13.8225584
20
94.3030311
40
0.2988789
50
31.121225
51
32.3977355
0
ARC
8
DEFAULT_255_1_388
10
13.8137762
20
94.2997728
40
0.3080861
50
8.1116803
51
30.7958224
0
ARC
8
DEFAULT_255_1_388
10
13.7226108
20
94.2842437
40
0.4005385
50
359.8390945
51
8.4707348
0
ARC
8
DEFAULT_255_1_388
10
13.7930156
20
94.2787751
40
0.3301608
50
337.4732479
51
0.7538283
0
ARC
8
DEFAULT_255_1_388
10
13.8131181
20
94.2765554
40
0.3107929
50
307.5917028
51
336.4313755
0
ARC
8
DEFAULT_255_1_388
10
13.7620239
20
94.3333509
40
0.3870096
50
307.6560665
51
308.4561779
0
ARC
8
DEFAULT_255_1_388
10
13.7354455
20
94.3741832
40
0.435591
50
284.3733666
51
307.1426212
0
ARC
8
DEFAULT_255_1_388
10
13.6797349
20
94.5791391
40
0.6479685
50
272.4384566
51
284.6464689
0
ARC
8
DEFAULT_255_1_388
10
13.6654734
20
94.7815434
40
0.8508149
50
269.9708517
51
272.8180721
0
ARC
8
DEFAULT_255_1_388
10
13.6606417
20
94.5523283
40
0.6216151
50
248.2707343
51
270.4054609
0
ARC
8
DEFAULT_255_1_388
10
13.6545288
20
94.5308673
40
0.5994203
50
246.1380358
51
248.054058
0
ARC
8
DEFAULT_255_1_388
10
13.6074431
20
94.4319705
40
0.4899388
50
233.1671897
51
246.4951656
0
ARC
8
DEFAULT_255_1_388
10
13.5451066
20
94.3478137
40
0.3852115
50
215.3403381
51
233.084328
0
ARC
8
DEFAULT_255_1_388
10
13.514443
20
94.3255093
40
0.3472969
50
179.2419235
51
215.2648426
0
ARC
8
DEFAULT_255_1_388
10
13.6007981
20
94.3270979
40
0.259251
50
179.3355796
51
199.1045873
0
ARC
8
DEFAULT_255_1_388
10
13.5634123
20
94.3173223
40
0.2207454
50
199.8830064
51
232.7061328
0
ARC
8
DEFAULT_255_1_388
10
13.6165397
20
94.3841456
40
0.306101
50
232.3736206
51
255.5136621
0
ARC
8
DEFAULT_255_1_388
10
13.6548903
20
94.5241177
40
0.4512213
50
255.2447928
51
267.5318292
0
ARC
8
DEFAULT_255_1_388
10
13.664737
20
94.6627709
40
0.5901825
50
267.1564563
51
270.0294721
0
ARC
8
DEFAULT_255_1_388
10
13.6678695
20
94.6128623
40
0.5402814
50
269.6999944
51
278.1662446
0
ARC
8
DEFAULT_255_1_388
10
13.6966723
20
94.4181974
40
0.3435003
50
278.0229022
51
290.6255326
0
ARC
8
DEFAULT_255_1_388
10
13.7357889
20
94.3138547
40
0.2320666
50
290.6616368
51
307.0374127
0
ARC
8
DEFAULT_255_1_388
10
13.7695789
20
94.272404
40
0.1786372
50
306.3942078
51
355.303191
0
ARC
8
DEFAULT_255_1_388
10
13.7120082
20
94.2810186
40
0.2367516
50
354.3662092
51
0.0709489
0
ARC
8
DEFAULT_255_1_388
10
13.7279951
20
94.2835561
40
0.2207761
50
359.4175379
51
16.1975911
0
ARC
8
DEFAULT_255_1_388
10
13.7792069
20
94.2975954
40
0.1676828
50
16.4721294
51
52.6261798
0
ARC
8
DEFAULT_255_1_388
10
13.6868576
20
94.1756606
40
0.3206412
50
52.7381828
51
62.4979144
0
ARC
8
DEFAULT_255_1_388
10
13.5310329
20
93.8824236
40
0.6527035
50
62.2517425
51
68.1219454
0
ARC
8
DEFAULT_255_1_388
10
13.3375817
20
93.4069951
40
1.1659797
50
68.006043
51
71.8055127
0
ARC
8
DEFAULT_255_1_388
10
13.1355725
20
92.8011723
40
1.8045908
50
71.718361
51
73.9260743
0
LINE
8
DEFAULT_255_1_388
10
14.2767537
20
94.4105214
11
14.2767537
21
94.4412426
0
LINE
8
DEFAULT_255_1_388
10
15.1062259
20
94.4593139
11
15.1062259
21
94.3897395
0
LINE
8
DEFAULT_255_1_388
10
15.1062259
20
94.3897395
11
14.4439131
21
94.3897395
0
LINE
8
DEFAULT_255_1_388
10
14.9914732
20
94.1990874
11
15.093576
21
94.1195737
0
LINE
8
DEFAULT_255_1_388
10
14.4493345
20
94.5270813
11
14.9390665
21
94.5270813
0
LINE
8
DEFAULT_255_1_388
10
14.9390665
20
94.5270813
11
14.9390665
21
94.5397312
0
ARC
8
DEFAULT_255_1_388
10
14.7199298
20
94.423021
40
0.4923176
50
252.326534
51
270.5809615
0
ARC
8
DEFAULT_255_1_388
10
14.6968763
20
94.339694
40
0.4059384
50
223.3000488
51
251.8562489
0
ARC
8
DEFAULT_255_1_388
10
14.7206543
20
94.3627898
40
0.4390832
50
190.9374369
51
223.3654369
0
ARC
8
DEFAULT_255_1_388
10
14.914722
20
94.4066598
40
0.63798
50
179.6531919
51
191.4988561
0
ARC
8
DEFAULT_255_1_388
10
14.9284247
20
94.4448571
40
0.6516811
50
167.4005523
51
180.3177836
0
ARC
8
DEFAULT_255_1_388
10
14.8100919
20
94.4698853
40
0.5307402
50
154.1835149
51
167.2508278
0
ARC
8
DEFAULT_255_1_388
10
14.739051
20
94.5072925
40
0.4505076
50
134.3150225
51
154.5315008
0
ARC
8
DEFAULT_255_1_388
10
14.7145845
20
94.528755
40
0.4180662
50
122.8617482
51
133.9707159
0
ARC
8
DEFAULT_255_1_388
10
14.7029452
20
94.5537882
40
0.3907416
50
89.8248474
51
123.4199325
0
ARC
8
DEFAULT_255_1_388
10
14.708575
20
94.4810352
40
0.4635141
50
74.7874349
51
90.5482648
0
ARC
8
DEFAULT_255_1_388
10
14.7416214
20
94.6030987
40
0.3370565
50
39.8178888
51
74.7634383
0
ARC
8
DEFAULT_255_1_388
10
14.6839456
20
94.5581356
40
0.4101553
50
16.8990848
51
39.4830125
0
ARC
8
DEFAULT_255_1_388
10
14.470807
20
94.4898711
40
0.6339427
50
4.9634768
51
17.2027767
0
ARC
8
DEFAULT_255_1_388
10
14.1987475
20
94.46116
40
0.9074803
50
359.8834402
51
5.2832409
0
ARC
8
DEFAULT_255_1_388
10
14.8779833
20
94.3971981
40
0.4341343
50
180.9844233
51
194.9402766
0
ARC
8
DEFAULT_255_1_388
10
14.7598999
20
94.364917
40
0.3117211
50
194.8030557
51
222.0412897
0
ARC
8
DEFAULT_255_1_388
10
14.7256871
20
94.3309715
40
0.2635903
50
221.541578
51
268.8616004
0
ARC
8
DEFAULT_255_1_388
10
14.7338991
20
94.407028
40
0.3398611
50
267.7321071
51
270.009808
0
ARC
8
DEFAULT_255_1_388
10
14.7359055
20
94.4297178
40
0.3625561
50
269.6921218
51
280.4122297
0
ARC
8
DEFAULT_255_1_388
10
14.7557466
20
94.3263767
40
0.2573323
50
280.2257165
51
298.633539
0
ARC
8
DEFAULT_255_1_388
10
14.768288
20
94.2999578
40
0.2281403
50
299.0485543
51
300.4624141
0
ARC
8
DEFAULT_255_1_388
10
14.692386
20
94.4264796
40
0.3756797
50
300.6578578
51
322.037749
0
ARC
8
DEFAULT_255_1_388
10
14.6553382
20
94.4588266
40
0.4247956
50
321.671786
51
322.3059078
0
ARC
8
DEFAULT_255_1_388
10
14.7576945
20
94.3294267
40
0.3960488
50
276.9729088
51
328.0035579
0
ARC
8
DEFAULT_255_1_388
10
14.7265415
20
94.4959609
40
0.5652345
50
269.8358003
51
278.0581296
0
ARC
8
DEFAULT_255_1_388
10
14.7009714
20
94.579782
40
0.2274263
50
89.2017936
51
117.2852353
0
ARC
8
DEFAULT_255_1_388
10
14.7069465
20
94.5750637
40
0.2343798
50
118.0546404
51
137.4544511
0
ARC
8
DEFAULT_255_1_388
10
14.7491109
20
94.5367556
40
0.2913471
50
137.5109688
51
158.8516701
0
ARC
8
DEFAULT_255_1_388
10
14.8771209
20
94.4850902
40
0.4293804
50
158.5845496
51
170.1719753
0
ARC
8
DEFAULT_255_1_388
10
15.0087545
20
94.4589519
40
0.5635533
50
169.8378964
51
173.0563877
0
ARC
8
DEFAULT_255_1_388
10
14.4802829
20
94.5164187
40
0.4593755
50
2.9089079
51
12.88469
0
ARC
8
DEFAULT_255_1_388
10
14.6344748
20
94.5527082
40
0.3009753
50
12.6957404
51
28.6405841
0
ARC
8
DEFAULT_255_1_388
10
14.6954245
20
94.5842577
40
0.232366
50
29.016559
51
41.1492981
0
ARC
8
DEFAULT_255_1_388
10
14.7182224
20
94.604108
40
0.2021373
50
41.1646967
51
85.001362
0
ARC
8
DEFAULT_255_1_388
10
14.7046228
20
94.5214775
40
0.2857091
50
83.728216
51
90.0968824
0
LINE
8
DEFAULT_255_1_388
10
15.7721529
20
94.9318781
11
15.7721529
21
94.776465
0
LINE
8
DEFAULT_255_1_388
10
15.4667481
20
94.6427375
11
15.4667481
21
93.9488
0
LINE
8
DEFAULT_255_1_388
10
15.4667481
20
93.9488
11
15.2995887
21
93.9488
0
LINE
8
DEFAULT_255_1_388
10
15.2995887
20
93.9488
11
15.2995887
21
94.9264567
0
LINE
8
DEFAULT_255_1_388
10
15.2995887
20
94.9264567
11
15.4622303
21
94.9264567
0
LINE
8
DEFAULT_255_1_388
10
15.4622303
20
94.9264567
11
15.464941
21
94.8135112
0
ARC
8
DEFAULT_255_1_388
10
15.6971689
20
94.3198068
40
0.4627735
50
80.6751522
51
86.893806
0
ARC
8
DEFAULT_255_1_388
10
15.6903518
20
94.2106103
40
0.5721798
50
86.8046851
51
90.0423898
0
ARC
8
DEFAULT_255_1_388
10
15.6861938
20
94.4873197
40
0.2954939
50
89.2758283
51
106.6212906
0
ARC
8
DEFAULT_255_1_388
10
15.6631963
20
94.5709009
40
0.2088351
50
107.1347109
51
157.6456887
0
ARC
8
DEFAULT_255_1_388
10
15.7400025
20
94.5281908
40
0.296292
50
155.6557383
51
157.256838
0
ARC
8
DEFAULT_255_1_388
10
15.7179639
20
94.6592472
40
0.296341
50
127.8167201
51
148.6300223
0
ARC
8
DEFAULT_255_1_388
10
15.6894386
20
94.6885066
40
0.2557782
50
91.3329934
51
126.7875218
0
ARC
8
DEFAULT_255_1_388
10
15.6979774
20
94.6081718
40
0.3363561
50
89.9858247
51
92.4688453
0
ARC
8
DEFAULT_255_1_388
10
15.6989267
20
94.6390114
40
0.3055179
50
85.3587643
51
90.1624243
0
ARC
8
DEFAULT_255_1_388
10
15.7084332
20
94.7519458
40
0.1921848
50
78.4019195
51
85.4592653
0
ARC
8
DEFAULT_255_1_388
10
15.7247393
20
94.8297142
40
0.1127267
50
67.7849217
51
78.573798
0
ARC
8
DEFAULT_255_1_388
10
15.7369027
20
94.8612374
40
0.0789473
50
63.4805074
51
67.3074739
0
LINE
8
DEFAULT_255_1_388
10
16.1073753
20
94.9264567
11
16.1073753
21
93.9488
0
LINE
8
DEFAULT_255_1_388
10
16.1073753
20
93.9488
11
15.9402159
21
93.9488
0
LINE
8
DEFAULT_255_1_388
10
15.9402159
20
93.9488
11
15.9402159
21
94.9264567
0
LINE
8
DEFAULT_255_1_388
10
15.9402159
20
94.9264567
11
16.1073753
21
94.9264567
0
ARC
8
DEFAULT_255_1_388
10
16.0367521
20
95.1868428
40
0.1100948
50
161.4148232
51
180.5532607
0
ARC
8
DEFAULT_255_1_388
10
16.0227831
20
95.1906875
40
0.0956324
50
138.1830164
51
160.9307633
0
ARC
8
DEFAULT_255_1_388
10
16.0104018
20
95.2014313
40
0.0792417
50
104.6371663
51
138.0036136
0
ARC
8
DEFAULT_255_1_388
10
16.0224557
20
95.1601963
40
0.1221906
50
92.0601206
51
105.2198859
0
ARC
8
DEFAULT_255_1_388
10
16.0250921
20
95.1213583
40
0.161103
50
89.9790681
51
92.5006086
0
ARC
8
DEFAULT_255_1_388
10
16.0262097
20
95.1469998
40
0.1354654
50
78.0234649
51
90.4478111
0
ARC
8
DEFAULT_255_1_388
10
16.0365681
20
95.1935203
40
0.0878096
50
55.0521508
51
78.336297
0
ARC
8
DEFAULT_255_1_388
10
16.0422216
20
95.2030168
40
0.0767913
50
42.0506198
51
54.4508489
0
ARC
8
DEFAULT_255_1_388
10
16.0270248
20
95.1890821
40
0.0974091
50
1.7493657
51
42.1498724
0
ARC
8
DEFAULT_255_1_388
10
15.9984154
20
95.1858166
40
0.1261276
50
359.9832635
51
2.8353994
0
ARC
8
DEFAULT_255_1_388
10
16.0170564
20
95.1847412
40
0.1074916
50
342.1062453
51
0.5535864
0
ARC
8
DEFAULT_255_1_388
10
16.0330988
20
95.1803197
40
0.0908695
50
316.7110111
51
341.6513114
0
ARC
8
DEFAULT_255_1_388
10
16.040642
20
95.1735607
40
0.0807447
50
285.4398289
51
316.5320129
0
ARC
8
DEFAULT_255_1_388
10
16.0282591
20
95.2147023
40
0.1237022
50
272.3543902
51
285.8951677
0
ARC
8
DEFAULT_255_1_388
10
16.0252301
20
95.2562742
40
0.1653687
50
269.9725761
51
272.8112722
0
ARC
8
DEFAULT_255_1_388
10
16.0241353
20
95.2311727
40
0.1402709
50
258.8433431
51
270.4148607
0
ARC
8
DEFAULT_255_1_388
10
16.0140133
20
95.1821739
40
0.0902407
50
238.54281
51
259.1289544
0
ARC
8
DEFAULT_255_1_388
10
16.0063454
20
95.1682694
40
0.0743817
50
222.5056676
51
237.9918132
0
ARC
8
DEFAULT_255_1_388
10
16.0207048
20
95.1813295
40
0.0937918
50
184.1070774
51
222.4604165
0
ARC
8
DEFAULT_255_1_388
10
16.0509461
20
95.1856538
40
0.1242838
50
179.9419581
51
185.0970785
0
LINE
8
DEFAULT_255_1_388
10
16.3323628
20
94.4105214
11
16.3323628
21
94.4412426
0
LINE
8
DEFAULT_255_1_388
10
17.161835
20
94.4593139
11
17.161835
21
94.3897395
0
LINE
8
DEFAULT_255_1_388
10
17.161835
20
94.3897395
11
16.4995223
21
94.3897395
0
LINE
8
DEFAULT_255_1_388
10
17.0470823
20
94.1990874
11
17.1491851
21
94.1195737
0
LINE
8
DEFAULT_255_1_388
10
16.5049437
20
94.5270813
11
16.9946756
21
94.5270813
0
LINE
8
DEFAULT_255_1_388
10
16.9946756
20
94.5270813
11
16.9946756
21
94.5397312
0
ARC
8
DEFAULT_255_1_388
10
16.7755389
20
94.423021
40
0.4923176
50
252.326534
51
270.5809615
0
ARC
8
DEFAULT_255_1_388
10
16.7524854
20
94.339694
40
0.4059384
50
223.3000488
51
251.8562489
0
ARC
8
DEFAULT_255_1_388
10
16.7762634
20
94.3627898
40
0.4390832
50
190.9374369
51
223.3654369
0
ARC
8
DEFAULT_255_1_388
10
16.9703312
20
94.4066598
40
0.63798
50
179.6531919
51
191.4988561
0
ARC
8
DEFAULT_255_1_388
10
16.9840339
20
94.4448571
40
0.6516811
50
167.4005523
51
180.3177836
0
ARC
8
DEFAULT_255_1_388
10
16.865701
20
94.4698853
40
0.5307402
50
154.1835149
51
167.2508278
0
ARC
8
DEFAULT_255_1_388
10
16.7946601
20
94.5072925
40
0.4505076
50
134.3150225
51
154.5315008
0
ARC
8
DEFAULT_255_1_388
10
16.7701936
20
94.528755
40
0.4180662
50
122.8617482
51
133.9707159
0
ARC
8
DEFAULT_255_1_388
10
16.7585543
20
94.5537882
40
0.3907416
50
89.8248474
51
123.4199325
0
ARC
8
DEFAULT_255_1_388
10
16.7641841
20
94.4810352
40
0.4635141
50
74.7874349
51
90.5482648
0
ARC
8
DEFAULT_255_1_388
10
16.7972305
20
94.6030987
40
0.3370565
50
39.8178888
51
74.7634383
0
ARC
8
DEFAULT_255_1_388
10
16.7395547
20
94.5581356
40
0.4101553
50
16.8990848
51
39.4830125
0
ARC
8
DEFAULT_255_1_388
10
16.5264162
20
94.4898711
40
0.6339427
50
4.9634768
51
17.2027767
0
ARC
8
DEFAULT_255_1_388
10
16.2543567
20
94.46116
40
0.9074803
50
359.8834402
51
5.2832409
0
ARC
8
DEFAULT_255_1_388
10
16.9335924
20
94.3971981
40
0.4341343
50
180.9844233
51
194.9402766
0
ARC
8
DEFAULT_255_1_388
10
16.815509
20
94.364917
40
0.3117211
50
194.8030557
51
222.0412897
0
ARC
8
DEFAULT_255_1_388
10
16.7812962
20
94.3309715
40
0.2635903
50
221.541578
51
268.8616004
0
ARC
8
DEFAULT_255_1_388
10
16.7895083
20
94.407028
40
0.3398611
50
267.7321071
51
270.009808
0
ARC
8
DEFAULT_255_1_388
10
16.7915146
20
94.4297178
40
0.3625561
50
269.6921218
51
280.4122297
0
ARC
8
DEFAULT_255_1_388
10
16.8113558
20
94.3263767
40
0.2573323
50
280.2257165
51
298.633539
0
ARC
8
DEFAULT_255_1_388
10
16.8238972
20
94.2999578
40
0.2281403
50
299.0485543
51
300.4624141
0
ARC
8
DEFAULT_255_1_388
10
16.7479952
20
94.4264796
40
0.3756797
50
300.6578578
51
322.037749
0
ARC
8
DEFAULT_255_1_388
10
16.7109473
20
94.4588266
40
0.4247956
50
321.671786
51
322.3059078
0
ARC
8
DEFAULT_255_1_388
10
16.8133036
20
94.3294267
40
0.3960488
50
276.9729088
51
328.0035579
0
ARC
8
DEFAULT_255_1_388
10
16.7821507
20
94.4959609
40
0.5652345
50
269.8358003
51
278.0581296
0
ARC
8
DEFAULT_255_1_388
10
16.7565806
20
94.579782
40
0.2274263
50
89.2017936
51
117.2852353
0
ARC
8
DEFAULT_255_1_388
10
16.7625556
20
94.5750637
40
0.2343798
50
118.0546404
51
137.4544511
0
ARC
8
DEFAULT_255_1_388
10
16.80472
20
94.5367556
40
0.2913471
50
137.5109688
51
158.8516701
0
ARC
8
DEFAULT_255_1_388
10
16.9327301
20
94.4850902
40
0.4293804
50
158.5845496
51
170.1719753
0
ARC
8
DEFAULT_255_1_388
10
17.0643636
20
94.4589519
40
0.5635533
50
169.8378964
51
173.0563877
0
ARC
8
DEFAULT_255_1_388
10
16.535892
20
94.5164187
40
0.4593755
50
2.9089079
51
12.88469
0
ARC
8
DEFAULT_255_1_388
10
16.6900839
20
94.5527082
40
0.3009753
50
12.6957404
51
28.6405841
0
ARC
8
DEFAULT_255_1_388
10
16.7510336
20
94.5842577
40
0.232366
50
29.016559
51
41.1492981
0
ARC
8
DEFAULT_255_1_388
10
16.7738315
20
94.604108
40
0.2021373
50
41.1646967
51
85.001362
0
ARC
8
DEFAULT_255_1_388
10
16.7602319
20
94.5214775
40
0.2857091
50
83.728216
51
90.0968824
0
LINE
8
DEFAULT_255_1_388
10
18.0825672
20
94.6391232
11
17.9145042
21
94.6391232
0
LINE
8
DEFAULT_255_1_388
10
17.3145374
20
94.249687
11
17.4816968
21
94.249687
0
ARC
8
DEFAULT_255_1_388
10
17.7808333
20
94.2097935
40
0.1436198
50
359.3335374
51
18.5869869
0
ARC
8
DEFAULT_255_1_388
10
17.8043072
20
94.2160015
40
0.1194022
50
19.3538149
51
54.6486387
0
ARC
8
DEFAULT_255_1_388
10
17.747606
20
94.1378077
40
0.2159877
50
54.3821575
51
65.0627557
0
ARC
8
DEFAULT_255_1_388
10
17.6611407
20
93.9559032
40
0.4173927
50
64.8282172
51
71.4204388
0
ARC
8
DEFAULT_255_1_388
10
17.5596302
20
93.6580782
40
0.7320403
50
71.3166092
51
75.8005927
0
ARC
8
DEFAULT_255_1_388
10
17.4650188
20
93.2935881
40
1.108605
50
75.6810806
51
78.0063886
0
ARC
8
DEFAULT_255_1_388
10
17.9654777
20
95.653753
40
1.3040363
50
254.69024
51
258.0465557
0
ARC
8
DEFAULT_255_1_388
10
17.8486646
20
95.2307742
40
0.8652254
50
249.9010634
51
254.7555005
0
ARC
8
DEFAULT_255_1_388
10
17.7357698
20
94.924168
40
0.5384962
50
243.3097375
51
249.970939
0
ARC
8
DEFAULT_255_1_388
10
17.6650112
20
94.7830721
40
0.380652
50
234.4047808
51
243.2861752
0
ARC
8
DEFAULT_255_1_388
10
17.5949748
20
94.6863645
40
0.2612502
50
220.8665526
51
234.5497192
0
ARC
8
DEFAULT_255_1_388
10
17.5564746
20
94.6513203
40
0.2092097
50
214.3063391
51
220.5075055
0
ARC
8
DEFAULT_255_1_388
10
17.553586
20
94.6478577
40
0.2048755
50
186.9131438
51
213.9617385
0
ARC
8
DEFAULT_255_1_388
10
17.613425
20
94.6575431
40
0.2654563
50
179.8802037
51
187.4338578
0
ARC
8
DEFAULT_255_1_388
10
17.5960215
20
94.6598049
40
0.2480581
50
132.0053393
51
180.3942351
0
ARC
8
DEFAULT_255_1_388
10
17.6699128
20
94.5915997
40
0.3483116
50
129.2317021
51
133.5294826
0
ARC
8
DEFAULT_255_1_388
10
17.6759097
20
94.5810383
40
0.360291
50
100.440976
51
128.9081567
0
ARC
8
DEFAULT_255_1_388
10
17.7067214
20
94.4364357
40
0.5080996
50
89.6985063
51
100.9029043
0
ARC
8
DEFAULT_255_1_388
10
17.7131369
20
94.4183739
40
0.5261675
50
77.6967144
51
90.4074623
0
ARC
8
DEFAULT_255_1_388
10
17.7503721
20
94.5789503
40
0.3613511
50
50.7278431
51
78.0397473
0
ARC
8
DEFAULT_255_1_388
10
17.8003764
20
94.6372173
40
0.2845966
50
25.754382
51
51.0957456
0
ARC
8
DEFAULT_255_1_388
10
17.8005131
20
94.6428311
40
0.2820785
50
359.2468358
51
24.7393861
0
ARC
8
DEFAULT_255_1_388
10
17.7685019
20
94.6396204
40
0.1460032
50
359.8048924
51
45.1543866
0
ARC
8
DEFAULT_255_1_388
10
17.7226752
20
94.6004291
40
0.2061641
50
43.8053172
51
49.625485
0
ARC
8
DEFAULT_255_1_388
10
17.7236195
20
94.6005849
40
0.2054344
50
49.7979696
51
82.121802
0
ARC
8
DEFAULT_255_1_388
10
17.7102278
20
94.5278473
40
0.2793404
50
81.4458692
51
90.1707936
0
ARC
8
DEFAULT_255_1_388
10
17.7074854
20
94.4686478
40
0.3385438
50
89.6768097
51
99.1267111
0
ARC
8
DEFAULT_255_1_388
10
17.6881836
20
94.5849405
40
0.2206627
50
98.9679878
51
113.4573418
0
ARC
8
DEFAULT_255_1_388
10
17.6661517
20
94.6376193
40
0.1635691
50
113.7230234
51
127.4758155
0
ARC
8
DEFAULT_255_1_388
10
17.6472099
20
94.6601433
40
0.1341757
50
126.9086647
51
150.3160891
0
ARC
8
DEFAULT_255_1_388
10
17.641843
20
94.665868
40
0.1266992
50
151.363328
51
180.0701537
0
ARC
8
DEFAULT_255_1_388
10
17.6728651
20
94.663523
40
0.1577364
50
179.2045432
51
180.0012892
0
ARC
8
DEFAULT_255_1_388
10
17.6359762
20
94.6620515
40
0.1208564
50
179.3040542
51
198.4225767
0
ARC
8
DEFAULT_255_1_388
10
17.6143904
20
94.6564337
40
0.0986126
50
199.2893055
51
238.6036855
0
ARC
8
DEFAULT_255_1_388
10
17.6821997
20
94.7628752
40
0.2248082
50
237.9844191
51
246.8751643
0
ARC
8
DEFAULT_255_1_388
10
17.7786857
20
94.9835861
40
0.4656832
50
246.6226408
51
251.8174794
0
ARC
8
DEFAULT_255_1_388
10
17.8947324
20
95.3320909
40
0.8329993
50
251.7140983
51
255.0775146
0
ARC
8
DEFAULT_255_1_388
10
18.0296848
20
95.8347708
40
1.3534786
50
255.0370864
51
257.4701577
0
ARC
8
DEFAULT_255_1_388
10
17.4549393
20
93.2453535
40
1.298957
50
73.6835762
51
77.5015749
0
ARC
8
DEFAULT_255_1_388
10
17.5774307
20
93.6615699
40
0.8650912
50
68.7042835
51
73.7249997
0
ARC
8
DEFAULT_255_1_388
10
17.6789871
20
93.9232853
40
0.584363
50
63.5907059
51
68.6622978
0
ARC
8
DEFAULT_255_1_388
10
17.7657613
20
94.0963157
40
0.3907955
50
54.7106507
51
63.7018033
0
ARC
8
DEFAULT_255_1_388
10
17.836
20
94.1944287
40
0.2701345
50
41.0624597
51
54.8488532
0
ARC
8
DEFAULT_255_1_388
10
17.8743779
20
94.2296439
40
0.2180695
50
34.4952722
51
40.7097584
0
ARC
8
DEFAULT_255_1_388
10
17.8796744
20
94.2351204
40
0.2106083
50
9.3761233
51
34.0834046
0
ARC
8
DEFAULT_255_1_388
10
17.8061872
20
94.2210174
40
0.2854177
50
359.7695264
51
9.7660556
0
ARC
8
DEFAULT_255_1_388
10
17.8284166
20
94.2161841
40
0.2632121
50
335.8653103
51
0.8022272
0
ARC
8
DEFAULT_255_1_388
10
17.8368571
20
94.2176951
40
0.2561728
50
307.7357819
51
334.7849324
0
ARC
8
DEFAULT_255_1_388
10
17.7923212
20
94.2676553
40
0.3229737
50
307.0217048
51
308.5596894
0
ARC
8
DEFAULT_255_1_388
10
17.7627796
20
94.3118063
40
0.3760237
50
282.9361285
51
306.5649033
0
ARC
8
DEFAULT_255_1_388
10
17.7220858
20
94.4768871
40
0.5460314
50
271.1026197
51
283.2199962
0
ARC
8
DEFAULT_255_1_388
10
17.7149047
20
94.6169744
40
0.6862456
50
269.9926344
51
271.4770056
0
ARC
8
DEFAULT_255_1_388
10
17.7119617
20
94.4952633
40
0.5645418
50
259.0723633
51
270.2897324
0
ARC
8
DEFAULT_255_1_388
10
17.6880841
20
94.3695887
40
0.4366198
50
245.4965026
51
259.0225745
0
ARC
8
DEFAULT_255_1_388
10
17.6568058
20
94.3041491
40
0.3641037
50
228.9686619
51
245.7042678
0
ARC
8
DEFAULT_255_1_388
10
17.6269333
20
94.2673573
40
0.3167435
50
214.4015391
51
228.6759028
0
ARC
8
DEFAULT_255_1_388
10
17.594383
20
94.2495429
40
0.2798456
50
179.9704983
51
215.1574389
0
ARC
8
DEFAULT_255_1_388
10
17.6732042
20
94.2578148
40
0.1916798
50
182.430239
51
203.0329751
0
ARC
8
DEFAULT_255_1_388
10
17.6524638
20
94.2514675
40
0.1701248
50
203.7987464
51
232.5483345
0
ARC
8
DEFAULT_255_1_388
10
17.6835723
20
94.2910049
40
0.2204299
50
232.3784541
51
256.3934343
0
ARC
8
DEFAULT_255_1_388
10
17.709487
20
94.3911359
40
0.3238512
50
256.1048329
51
268.4627478
0
ARC
8
DEFAULT_255_1_388
10
17.7147289
20
94.4815297
40
0.4143627
50
268.0734924
51
270.0121004
0
ARC
8
DEFAULT_255_1_388
10
17.7168008
20
94.4501191
40
0.3829573
50
269.7031202
51
278.8338867
0
ARC
8
DEFAULT_255_1_388
10
17.7372872
20
94.3229553
40
0.2541568
50
278.6727378
51
292.82331
0
ARC
8
DEFAULT_255_1_388
10
17.7598418
20
94.2665546
40
0.1934264
50
293.1457581
51
303.6656964
0
ARC
8
DEFAULT_255_1_388
10
17.7896492
20
94.2242159
40
0.1416713
50
303.1245849
51
321.7434683
0
ARC
8
DEFAULT_255_1_388
10
17.8105573
20
94.205878
40
0.1139081
50
322.4747616
51
1.1293039
0
LINE
8
DEFAULT_255_1_388
10
4.8798318
20
92.1008382
11
4.8798318
21
91.9644
0
LINE
8
DEFAULT_255_1_388
10
4.8798318
20
91.9644
11
4.0178313
21
91.9644
0
LINE
8
DEFAULT_255_1_388
10
4.0178313
20
91.9644
11
4.0178313
21
92.0845741
0
LINE
8
DEFAULT_255_1_388
10
4.0178313
20
92.0845741
11
4.4732278
21
92.5905702
0
LINE
8
DEFAULT_255_1_388
10
4.1596909
20
92.8923607
11
3.9925315
21
92.8923607
0
LINE
8
DEFAULT_255_1_388
10
4.5717163
20
92.483046
11
4.2193262
21
92.1008382
0
LINE
8
DEFAULT_255_1_388
10
4.2193262
20
92.1008382
11
4.8798318
21
92.1008382
0
ARC
8
DEFAULT_255_1_388
10
2.9556337
20
93.9325983
40
2.0258655
50
318.5132526
51
320.7829045
0
ARC
8
DEFAULT_255_1_388
10
3.5504294
20
93.4484929
40
1.2589638
50
320.7372878
51
323.9739031
0
ARC
8
DEFAULT_255_1_388
10
3.9913226
20
93.1290554
40
0.7145141
50
323.8962701
51
328.64194
0
ARC
8
DEFAULT_255_1_388
10
4.2215484
20
92.9870545
40
0.4440242
50
328.8294576
51
331.7891185
0
ARC
8
DEFAULT_255_1_388
10
4.3337804
20
92.9291374
40
0.3177517
50
331.4254512
51
352.9365785
0
ARC
8
DEFAULT_255_1_388
10
4.3490804
20
92.925705
40
0.3021496
50
353.2257659
51
0.0166158
0
ARC
8
DEFAULT_255_1_388
10
4.3727564
20
92.9282894
40
0.2784847
50
359.486299
51
15.9343185
0
ARC
8
DEFAULT_255_1_388
10
4.4297831
20
92.9436269
40
0.2194403
50
16.1712913
51
43.5286088
0
ARC
8
DEFAULT_255_1_388
10
4.4384776
20
92.9523191
40
0.2071504
50
43.4417391
51
83.1661095
0
ARC
8
DEFAULT_255_1_388
10
4.4233937
20
92.8694316
40
0.2912888
50
82.160179
51
90.1505708
0
ARC
8
DEFAULT_255_1_388
10
4.4198418
20
92.8090279
40
0.3517025
50
89.5460741
51
102.5418361
0
ARC
8
DEFAULT_255_1_388
10
4.3925138
20
92.9249933
40
0.2325748
50
102.1738499
51
129.206123
0
ARC
8
DEFAULT_255_1_388
10
4.3836592
20
92.9389664
40
0.2161591
50
129.72865
51
135.753947
0
ARC
8
DEFAULT_255_1_388
10
4.3973074
20
92.9280728
40
0.2335433
50
136.1757367
51
166.3673339
0
ARC
8
DEFAULT_255_1_388
10
4.5105762
20
92.8977148
40
0.3507873
50
165.9090694
51
178.8684636
0
ARC
8
DEFAULT_255_1_388
10
4.6081534
20
92.8924263
40
0.4484624
50
178.4391136
51
180.0083808
0
ARC
8
DEFAULT_255_1_388
10
4.4502235
20
92.8968197
40
0.4577138
50
163.2878482
51
180.5581842
0
ARC
8
DEFAULT_255_1_388
10
4.3600276
20
92.9216393
40
0.3641968
50
133.4540601
51
162.947111
0
ARC
8
DEFAULT_255_1_388
10
4.3801158
20
92.9002789
40
0.3935189
50
100.7869829
51
133.4382499
0
ARC
8
DEFAULT_255_1_388
10
4.4192403
20
92.7260399
40
0.5720313
50
89.660664
51
101.3702276
0
ARC
8
DEFAULT_255_1_388
10
4.4267012
20
92.7329263
40
0.5651495
50
78.2172678
51
90.412935
0
ARC
8
DEFAULT_255_1_388
10
4.4666478
20
92.9156511
40
0.378122
50
55.9269121
51
78.4888449
0
ARC
8
DEFAULT_255_1_388
10
4.4887193
20
92.9537187
40
0.3342379
50
47.929771
51
55.4049217
0
ARC
8
DEFAULT_255_1_388
10
4.5001723
20
92.9653618
40
0.3179217
50
4.334829
51
48.0560205
0
ARC
8
DEFAULT_255_1_388
10
4.3769525
20
92.9462487
40
0.442341
50
359.9251713
51
5.5971671
0
ARC
8
DEFAULT_255_1_388
10
4.425168
20
92.9525728
40
0.3941854
50
337.8914027
51
358.9967534
0
ARC
8
DEFAULT_255_1_388
10
4.119925
20
93.0703295
40
0.7213271
50
326.9132501
51
338.3508308
0
ARC
8
DEFAULT_255_1_388
10
3.6715362
20
93.3577105
40
1.2538973
50
319.6471833
51
327.0959558
0
ARC
8
DEFAULT_255_1_388
10
3.240202
20
93.713505
40
1.8129975
50
317.2588228
51
319.9045804
0
LINE
8
DEFAULT_255_1_388
10
5.7626143
20
93.2799898
11
5.7626143
21
92.406243
0
LINE
8
DEFAULT_255_1_388
10
5.7626143
20
92.406243
11
5.9451343
21
92.406243
0
LINE
8
DEFAULT_255_1_388
10
5.9451343
20
92.406243
11
5.9451343
21
92.2698048
0
LINE
8
DEFAULT_255_1_388
10
5.9451343
20
92.2698048
11
5.7626143
21
92.2698048
0
LINE
8
DEFAULT_255_1_388
10
5.7626143
20
92.2698048
11
5.7626143
21
91.9644
0
LINE
8
DEFAULT_255_1_388
10
5.7626143
20
91.9644
11
5.5945513
21
91.9644
0
LINE
8
DEFAULT_255_1_388
10
5.5945513
20
91.9644
11
5.5945513
21
92.2698048
0
LINE
8
DEFAULT_255_1_388
10
5.5945513
20
92.2698048
11
4.995488
21
92.2698048
0
LINE
8
DEFAULT_255_1_388
10
4.995488
20
92.2698048
11
4.995488
21
92.3682933
0
LINE
8
DEFAULT_255_1_388
10
4.995488
20
92.3682933
11
5.5846121
21
93.2799898
0
LINE
8
DEFAULT_255_1_388
10
5.5846121
20
93.2799898
11
5.7626143
21
93.2799898
0
LINE
8
DEFAULT_255_1_388
10
5.5746729
20
93.0152455
11
5.1852366
21
92.406243
0
LINE
8
DEFAULT_255_1_388
10
5.1852366
20
92.406243
11
5.5945513
21
92.406243
0
LINE
8
DEFAULT_255_1_388
10
5.5945513
20
92.406243
11
5.5945513
21
93.051388
0
LINE
8
DEFAULT_255_1_388
10
5.5945513
20
93.051388
11
5.5746729
21
93.0152455
0
LINE
8
DEFAULT_255_1_388
10
6.200843
20
93.2799898
11
6.5749187
21
92.1948089
0
LINE
8
DEFAULT_255_1_388
10
6.5749187
20
92.1948089
11
6.9508015
21
93.2799898
0
LINE
8
DEFAULT_255_1_388
10
6.9508015
20
93.2799898
11
7.14055
21
93.2799898
0
LINE
8
DEFAULT_255_1_388
10
7.14055
20
93.2799898
11
6.6526252
21
91.9644
0
LINE
8
DEFAULT_255_1_388
10
6.6526252
20
91.9644
11
6.4990193
21
91.9644
0
LINE
8
DEFAULT_255_1_388
10
6.4990193
20
91.9644
11
6.011998
21
93.2799898
0
LINE
8
DEFAULT_255_1_388
10
6.011998
20
93.2799898
11
6.200843
21
93.2799898
0
LINE
8
DEFAULT_255_1_388
10
4.8558151
20
5.9674898
11
4.8558151
21
5.093743
0
LINE
8
DEFAULT_255_1_388
10
4.8558151
20
5.093743
11
5.0383352
21
5.093743
0
LINE
8
DEFAULT_255_1_388
10
5.0383352
20
5.093743
11
5.0383352
21
4.9573048
0
LINE
8
DEFAULT_255_1_388
10
5.0383352
20
4.9573048
11
4.8558151
21
4.9573048
0
LINE
8
DEFAULT_255_1_388
10
4.8558151
20
4.9573048
11
4.8558151
21
4.6519
0
LINE
8
DEFAULT_255_1_388
10
4.8558151
20
4.6519
11
4.6877521
21
4.6519
0
LINE
8
DEFAULT_255_1_388
10
4.6877521
20
4.6519
11
4.6877521
21
4.9573048
0
LINE
8
DEFAULT_255_1_388
10
4.6877521
20
4.9573048
11
4.0886889
21
4.9573048
0
LINE
8
DEFAULT_255_1_388
10
4.0886889
20
4.9573048
11
4.0886889
21
5.0557933
0
LINE
8
DEFAULT_255_1_388
10
4.0886889
20
5.0557933
11
4.6778129
21
5.9674898
0
LINE
8
DEFAULT_255_1_388
10
4.6778129
20
5.9674898
11
4.8558151
21
5.9674898
0
LINE
8
DEFAULT_255_1_388
10
4.6678737
20
5.7027455
11
4.2784375
21
5.093743
0
LINE
8
DEFAULT_255_1_388
10
4.2784375
20
5.093743
11
4.6877521
21
5.093743
0
LINE
8
DEFAULT_255_1_388
10
4.6877521
20
5.093743
11
4.6877521
21
5.738888
0
LINE
8
DEFAULT_255_1_388
10
4.6877521
20
5.738888
11
4.6678737
21
5.7027455
0
LINE
8
DEFAULT_255_1_388
10
6.0141848
20
5.429869
11
6.0141848
21
5.2130135
0
LINE
8
DEFAULT_255_1_388
10
5.183809
20
5.1904244
11
5.183809
21
5.4136048
0
LINE
8
DEFAULT_255_1_388
10
5.8470253
20
5.1678353
11
5.8470253
21
5.4416153
0
LINE
8
DEFAULT_255_1_388
10
5.3509685
20
5.4542652
11
5.3509685
21
5.1868102
0
ARC
8
DEFAULT_255_1_388
10
4.6364182
20
5.2075118
40
1.3777776
50
353.8440855
51
0.2287917
0
ARC
8
DEFAULT_255_1_388
10
5.1583199
20
5.1492414
40
0.852639
50
344.4934746
51
353.9763743
0
ARC
8
DEFAULT_255_1_388
10
5.4950006
20
5.0535191
40
0.5026273
50
329.2803599
51
344.7473406
0
ARC
8
DEFAULT_255_1_388
10
5.6065502
20
4.9923038
40
0.3754848
50
324.9361395
51
328.6153007
0
ARC
8
DEFAULT_255_1_388
10
5.6491152
20
4.9625586
40
0.3235566
50
280.5801797
51
324.9173226
0
ARC
8
DEFAULT_255_1_388
10
5.603978
20
5.1505236
40
0.5167077
50
269.5979457
51
281.6732777
0
ARC
8
DEFAULT_255_1_388
10
5.5958684
20
5.1370113
40
0.5032026
50
256.6228565
51
270.5105488
0
ARC
8
DEFAULT_255_1_388
10
5.5506427
20
4.9628345
40
0.3233092
50
215.8618351
51
257.2787793
0
ARC
8
DEFAULT_255_1_388
10
5.6655134
20
5.0399106
40
0.4615831
50
197.9695203
51
215.2622745
0
ARC
8
DEFAULT_255_1_388
10
5.9450809
20
5.1342641
40
0.7566307
50
187.8816486
51
198.2346584
0
ARC
8
DEFAULT_255_1_388
10
6.3904048
20
5.1985453
40
1.2065653
50
180.8977266
51
188.0054894
0
ARC
8
DEFAULT_255_1_388
10
6.6954261
20
5.21004
40
1.5117443
50
180.7434591
51
181.152202
0
ARC
8
DEFAULT_255_1_388
10
6.5279257
20
5.4190371
40
1.3441277
50
173.7674302
51
180.2315596
0
ARC
8
DEFAULT_255_1_388
10
6.0197126
20
5.4764779
40
0.8326847
50
164.3058537
51
173.9000553
0
ARC
8
DEFAULT_255_1_388
10
5.6921126
20
5.5708652
40
0.4917711
50
148.7922028
51
164.5682288
0
ARC
8
DEFAULT_255_1_388
10
5.5851864
20
5.6305457
40
0.3694204
50
144.5883979
51
148.1161588
0
ARC
8
DEFAULT_255_1_388
10
5.5464609
20
5.6575667
40
0.322202
50
101.6440149
51
144.5142619
0
ARC
8
DEFAULT_255_1_388
10
5.5942801
20
5.4675337
40
0.5180451
50
89.528284
51
102.5820197
0
ARC
8
DEFAULT_255_1_388
10
5.6031793
20
5.4631376
40
0.5224441
50
77.0437914
51
90.508231
0
ARC
8
DEFAULT_255_1_388
10
5.6484047
20
5.6479272
40
0.3322297
50
48.2777708
51
77.4996087
0
ARC
8
DEFAULT_255_1_388
10
5.6565787
20
5.6624557
40
0.315966
50
36.3141586
51
47.6307332
0
ARC
8
DEFAULT_255_1_388
10
5.5588509
20
5.5966159
40
0.4337313
50
18.2931065
51
35.6770203
0
ARC
8
DEFAULT_255_1_388
10
5.272735
20
5.4984107
40
0.7362203
50
8.0246996
51
18.5605636
0
ARC
8
DEFAULT_255_1_388
10
4.8043705
20
5.4292432
40
1.2096583
50
1.127539
51
8.1718423
0
ARC
8
DEFAULT_255_1_388
10
4.4394839
20
5.4149374
40
1.5747719
50
0.5432713
51
1.38669
0
ARC
8
DEFAULT_255_1_388
10
4.6452217
20
5.4456163
40
1.2018103
50
359.8092569
51
4.9408001
0
ARC
8
DEFAULT_255_1_388
10
5.1188799
20
5.48789
40
0.7262727
50
4.8364937
51
12.2906017
0
ARC
8
DEFAULT_255_1_388
10
5.4288263
20
5.5569485
40
0.4087324
50
12.0806994
51
23.8171225
0
ARC
8
DEFAULT_255_1_388
10
5.5608659
20
5.6128508
40
0.2653719
50
24.2874621
51
31.3934353
0
ARC
8
DEFAULT_255_1_388
10
5.6199095
20
5.6514822
40
0.1948607
50
30.7407708
51
82.4658033
0
ARC
8
DEFAULT_255_1_388
10
5.5996756
20
5.5521017
40
0.2961198
50
81.1057101
51
90.2187368
0
ARC
8
DEFAULT_255_1_388
10
5.5956568
20
5.5811421
40
0.2670929
50
89.380395
51
105.6763916
0
ARC
8
DEFAULT_255_1_388
10
5.575029
20
5.656132
40
0.1893189
50
105.7980655
51
149.7387869
0
ARC
8
DEFAULT_255_1_388
10
5.694743
20
5.5841719
40
0.3289892
50
149.4208441
51
163.628295
0
ARC
8
DEFAULT_255_1_388
10
5.929966
20
5.5124345
40
0.5749004
50
163.3764549
51
172.141138
0
ARC
8
DEFAULT_255_1_388
10
6.3012381
20
5.4592582
40
0.9499585
50
172.0258462
51
178.0705453
0
ARC
8
DEFAULT_255_1_388
10
6.6433934
20
5.4430682
40
1.2924734
50
177.8639301
51
179.5036263
0
ARC
8
DEFAULT_255_1_388
10
6.5214953
20
5.1827151
40
1.170534
50
179.7995545
51
185.246089
0
ARC
8
DEFAULT_255_1_388
10
6.0666546
20
5.1396404
40
0.7136613
50
185.1411911
51
193.0082205
0
ARC
8
DEFAULT_255_1_388
10
5.7692806
20
5.0693441
40
0.4080987
50
192.7897338
51
205.2507384
0
ARC
8
DEFAULT_255_1_388
10
5.6515016
20
5.0167538
40
0.2791522
50
205.8001921
51
211.2545876
0
ARC
8
DEFAULT_255_1_388
10
5.5926555
20
4.9773132
40
0.2084074
50
210.3789935
51
238.4007996
0
ARC
8
DEFAULT_255_1_388
10
5.5904641
20
4.9825786
40
0.2117943
50
239.6521916
51
265.9793852
0
ARC
8
DEFAULT_255_1_388
10
5.600049
20
5.0582358
40
0.2879689
50
265.1324455
51
270.0603288
0
ARC
8
DEFAULT_255_1_388
10
5.6032867
20
5.0217418
40
0.2514919
50
269.3314378
51
287.2180039
0
ARC
8
DEFAULT_255_1_388
10
5.618795
20
4.9651291
40
0.1928357
50
287.7957942
51
329.0808983
0
ARC
8
DEFAULT_255_1_388
10
5.5110707
20
5.0323651
40
0.319808
50
328.6635261
51
343.3325043
0
ARC
8
DEFAULT_255_1_388
10
5.2666165
20
5.1085195
40
0.5758408
50
343.0498092
51
351.9392499
0
ARC
8
DEFAULT_255_1_388
10
4.8765487
20
5.1660205
40
0.9701202
50
351.8071632
51
357.7957897
0
ARC
8
DEFAULT_255_1_388
10
4.5130964
20
5.1848724
40
1.3340376
50
357.5870923
51
359.2682493
0
LINE
8
DEFAULT_255_1_388
10
6.333143
20
5.9674898
11
6.7072187
21
4.8823089
0
LINE
8
DEFAULT_255_1_388
10
6.7072187
20
4.8823089
11
7.0831015
21
5.9674898
0
LINE
8
DEFAULT_255_1_388
10
7.0831015
20
5.9674898
11
7.27285
21
5.9674898
0
LINE
8
DEFAULT_255_1_388
10
7.27285
20
5.9674898
11
6.7849252
21
4.6519
0
LINE
8
DEFAULT_255_1_388
10
6.7849252
20
4.6519
11
6.6313193
21
4.6519
0
LINE
8
DEFAULT_255_1_388
10
6.6313193
20
4.6519
11
6.144298
21
5.9674898
0
LINE
8
DEFAULT_255_1_388
10
6.144298
20
5.9674898
11
6.333143
21
5.9674898
0
LINE
8
DEFAULT_255_1_388
10
4.2075367
20
13.9049898
11
4.2075367
21
12.5894
0
LINE
8
DEFAULT_255_1_388
10
4.2075367
20
12.5894
11
4.0340523
21
12.5894
0
LINE
8
DEFAULT_255_1_388
10
4.0340523
20
12.5894
11
4.0340523
21
13.9049898
0
LINE
8
DEFAULT_255_1_388
10
4.0340523
20
13.9049898
11
4.2075367
21
13.9049898
0
LINE
8
DEFAULT_255_1_388
10
5.53668
20
13.2878553
11
5.53668
21
13.2047274
0
LINE
8
DEFAULT_255_1_388
10
4.478606
20
13.1929811
11
4.478606
21
13.2878553
0
LINE
8
DEFAULT_255_1_388
10
5.3640992
20
13.1920775
11
5.3640992
21
13.2896625
0
LINE
8
DEFAULT_255_1_388
10
4.6511868
20
13.3014088
11
4.6511868
21
13.2047274
0
ARC
8
DEFAULT_255_1_388
10
4.5644538
20
13.2002726
40
0.9722364
50
350.4878118
51
0.2625322
0
ARC
8
DEFAULT_255_1_388
10
4.8224498
20
13.1558994
40
0.7104556
50
336.0277991
51
350.5787241
0
ARC
8
DEFAULT_255_1_388
10
4.9737605
20
13.0875243
40
0.544417
50
319.887443
51
336.1331163
0
ARC
8
DEFAULT_255_1_388
10
5.0415417
20
13.0332733
40
0.4576311
50
302.4806296
51
319.6144102
0
ARC
8
DEFAULT_255_1_388
10
5.0286038
20
13.0582067
40
0.4856183
50
275.8196423
51
302.1885521
0
ARC
8
DEFAULT_255_1_388
10
5.00989
20
13.1867466
40
0.6154183
50
269.9169897
51
276.339506
0
ARC
8
DEFAULT_255_1_388
10
5.00485
20
13.109568
40
0.5382553
50
252.5221437
51
270.441579
0
ARC
8
DEFAULT_255_1_388
10
4.9886751
20
13.0489046
40
0.4755426
50
237.5349961
51
252.1858334
0
ARC
8
DEFAULT_255_1_388
10
4.9987127
20
13.061712
40
0.4917393
50
209.0632754
51
237.3492577
0
ARC
8
DEFAULT_255_1_388
10
5.0966453
20
13.1232104
40
0.6072464
50
205.118533
51
209.6465345
0
ARC
8
DEFAULT_255_1_388
10
5.1862455
20
13.1612174
40
0.7045164
50
188.7216633
51
204.8239753
0
ARC
8
DEFAULT_255_1_388
10
5.410923
20
13.1990387
40
0.9323368
50
180.3722704
51
188.9253909
0
ARC
8
DEFAULT_255_1_388
10
5.4078792
20
13.2923416
40
0.929284
50
169.5253055
51
180.2766048
0
ARC
8
DEFAULT_255_1_388
10
5.1938591
20
13.3317024
40
0.7116745
50
155.8314601
51
169.5088611
0
ARC
8
DEFAULT_255_1_388
10
5.0498054
20
13.3985312
40
0.5528904
50
139.6259579
51
156.0379072
0
ARC
8
DEFAULT_255_1_388
10
4.9834588
20
13.4519143
40
0.4677708
50
122.6414784
51
139.3431662
0
ARC
8
DEFAULT_255_1_388
10
4.9947842
20
13.4312787
40
0.4912586
50
93.0224537
51
122.4556091
0
ARC
8
DEFAULT_255_1_388
10
5.0069363
20
13.3226776
40
0.6003837
50
89.9756766
51
93.6340839
0
ARC
8
DEFAULT_255_1_388
10
5.0112961
20
13.3675879
40
0.5554884
50
73.7463329
51
90.4234008
0
ARC
8
DEFAULT_255_1_388
10
5.0310434
20
13.4440772
40
0.4765353
50
57.663051
51
73.4516911
0
ARC
8
DEFAULT_255_1_388
10
5.0301472
20
13.4465108
40
0.4749629
50
29.1441355
51
57.4146687
0
ARC
8
DEFAULT_255_1_388
10
4.9249283
20
13.3808046
40
0.5988917
50
24.0985653
51
29.732054
0
ARC
8
DEFAULT_255_1_388
10
4.8086915
20
13.3326154
40
0.7246823
50
8.6654943
51
23.8241215
0
ARC
8
DEFAULT_255_1_388
10
4.5573333
20
13.2916037
40
0.9793537
50
359.7807044
51
8.8218476
0
ARC
8
DEFAULT_255_1_388
10
4.4283038
20
13.2944731
40
0.9358078
50
359.7054632
51
8.0359751
0
ARC
8
DEFAULT_255_1_388
10
4.7658089
20
13.3436252
40
0.5947474
50
7.8926278
51
20.2962188
0
ARC
8
DEFAULT_255_1_388
10
4.9488939
20
13.4111367
40
0.3996117
50
20.3231056
51
36.4990255
0
ARC
8
DEFAULT_255_1_388
10
5.0260237
20
13.4705399
40
0.3022818
50
36.1436715
51
85.6627846
0
ARC
8
DEFAULT_255_1_388
10
5.0077492
20
13.3535881
40
0.4203853
50
84.3845912
51
90.076054
0
ARC
8
DEFAULT_255_1_388
10
5.0029847
20
13.4278416
40
0.346157
50
89.3037228
51
109.9046209
0
ARC
8
DEFAULT_255_1_388
10
4.992568
20
13.4708379
40
0.3022217
50
110.8229774
51
143.917961
0
ARC
8
DEFAULT_255_1_388
10
5.0976039
20
13.3906455
40
0.434348
50
143.5289166
51
163.2980252
0
ARC
8
DEFAULT_255_1_388
10
5.3122326
20
13.3231685
40
0.659321
50
163.0418884
51
174.3139873
0
ARC
8
DEFAULT_255_1_388
10
5.5827291
20
13.2919378
40
0.9315905
50
174.050934
51
179.4174954
0
ARC
8
DEFAULT_255_1_388
10
5.5259235
20
13.2000382
40
0.8747493
50
179.6928582
51
188.7908948
0
ARC
8
DEFAULT_255_1_388
10
5.2263035
20
13.1521086
40
0.5713262
50
188.6328449
51
202.5630732
0
ARC
8
DEFAULT_255_1_388
10
5.0851872
20
13.0954142
40
0.4192612
50
202.8078931
51
216.1195888
0
ARC
8
DEFAULT_255_1_388
10
4.9941389
20
13.0221479
40
0.3025752
50
215.0755613
51
264.6379773
0
ARC
8
DEFAULT_255_1_388
10
5.0084226
20
13.1156376
40
0.3970284
50
263.8464302
51
270.0830805
0
ARC
8
DEFAULT_255_1_388
10
5.0130771
20
13.0865808
40
0.3679937
50
269.3649295
51
287.5149684
0
ARC
8
DEFAULT_255_1_388
10
5.0331212
20
13.0137714
40
0.2925408
50
288.0629019
51
323.8115617
0
ARC
8
DEFAULT_255_1_388
10
4.9351188
20
13.0868754
40
0.4148018
50
323.6546541
51
342.6591359
0
ARC
8
DEFAULT_255_1_388
10
4.7065846
20
13.161228
40
0.6551163
50
342.4092446
51
353.6451501
0
ARC
8
DEFAULT_255_1_388
10
4.3880639
20
13.2008565
40
0.9760748
50
353.4027553
51
359.4846611
0
LINE
8
DEFAULT_255_1_388
10
6.7682383
20
13.2444842
11
6.7682383
21
12.7619808
0
LINE
8
DEFAULT_255_1_388
10
5.754439
20
13.1839454
11
5.754439
21
13.2986981
0
LINE
8
DEFAULT_255_1_388
10
6.7682383
20
13.5191678
11
6.594754
21
13.5191678
0
LINE
8
DEFAULT_255_1_388
10
5.928827
20
13.3032159
11
5.928827
21
13.1956917
0
LINE
8
DEFAULT_255_1_388
10
6.5956575
20
12.8080626
11
6.5956575
21
13.1035282
0
LINE
8
DEFAULT_255_1_388
10
6.5956575
20
13.1035282
11
6.2911563
21
13.1035282
0
LINE
8
DEFAULT_255_1_388
10
6.2911563
20
13.1035282
11
6.2911563
21
13.2444842
0
LINE
8
DEFAULT_255_1_388
10
6.2911563
20
13.2444842
11
6.7682383
21
13.2444842
0
ARC
8
DEFAULT_255_1_388
10
6.4496984
20
12.9862284
40
0.3895571
50
295.8437277
51
324.8549962
0
ARC
8
DEFAULT_255_1_388
10
6.4029366
20
13.0708619
40
0.4861381
50
291.5691164
51
296.4556269
0
ARC
8
DEFAULT_255_1_388
10
6.3454369
20
13.2244801
40
0.6501442
50
278.6622213
51
291.3047061
0
ARC
8
DEFAULT_255_1_388
10
6.3072401
20
13.4661557
40
0.8948168
50
270.0200506
51
278.7494673
0
ARC
8
DEFAULT_255_1_388
10
6.3028605
20
13.6507453
40
1.0794166
50
270.0022372
51
270.2490917
0
ARC
8
DEFAULT_255_1_388
10
6.2986497
20
13.1548827
40
0.5835695
50
253.5785313
51
270.4175629
0
ARC
8
DEFAULT_255_1_388
10
6.2791493
20
13.0793625
40
0.5056241
50
238.8203954
51
253.2788387
0
ARC
8
DEFAULT_255_1_388
10
6.2769409
20
13.0736224
40
0.4995712
50
206.7883476
51
238.696262
0
ARC
8
DEFAULT_255_1_388
10
6.3644805
20
13.1260847
40
0.6014056
50
206.1137778
51
207.4912776
0
ARC
8
DEFAULT_255_1_388
10
6.4311641
20
13.1544284
40
0.6737692
50
188.6922336
51
205.782076
0
ARC
8
DEFAULT_255_1_388
10
6.64
20
13.1899455
40
0.8855812
50
180.3881972
51
188.9218085
0
ARC
8
DEFAULT_255_1_388
10
6.7781157
20
13.3050622
40
1.0236965
50
170.2024645
51
180.3561986
0
ARC
8
DEFAULT_255_1_388
10
6.4222307
20
13.3687101
40
0.6621746
50
154.2856519
51
170.3893388
0
ARC
8
DEFAULT_255_1_388
10
6.2780271
20
13.4347192
40
0.5036209
50
139.8400879
51
153.9334639
0
ARC
8
DEFAULT_255_1_388
10
6.2376175
20
13.4670716
40
0.4518751
50
98.4190017
51
139.6707015
0
ARC
8
DEFAULT_255_1_388
10
6.2803142
20
13.2594755
40
0.6635912
50
89.7660128
51
99.4415389
0
ARC
8
DEFAULT_255_1_388
10
6.2876539
20
13.2668517
40
0.6562258
50
78.0552044
51
90.4042252
0
ARC
8
DEFAULT_255_1_388
10
6.3331602
20
13.4714661
40
0.4466287
50
54.6380186
51
78.3338577
0
ARC
8
DEFAULT_255_1_388
10
6.3545901
20
13.5075444
40
0.4048184
50
50.0313964
51
54.1562739
0
ARC
8
DEFAULT_255_1_388
10
6.3424794
20
13.4966798
40
0.4209308
50
18.1092229
51
49.7179911
0
ARC
8
DEFAULT_255_1_388
10
6.1785875
20
13.4366399
40
0.5953982
50
7.967396
51
18.698492
0
ARC
8
DEFAULT_255_1_388
10
6.1955136
20
13.4505236
40
0.4050986
50
9.7558763
51
27.3214087
0
ARC
8
DEFAULT_255_1_388
10
6.32236
20
13.5139087
40
0.2633168
50
27.736147
51
84.5257861
0
ARC
8
DEFAULT_255_1_388
10
6.285501
20
13.3289988
40
0.4513019
50
82.1064239
51
90.1997295
0
ARC
8
DEFAULT_255_1_388
10
6.2799026
20
13.3861501
40
0.3941684
50
89.4148952
51
105.5824837
0
ARC
8
DEFAULT_255_1_388
10
6.2509907
20
13.4914043
40
0.2850167
50
105.6678541
51
144.2649156
0
ARC
8
DEFAULT_255_1_388
10
6.3514799
20
13.4199024
40
0.4083468
50
144.3560675
51
162.8564185
0
ARC
8
DEFAULT_255_1_388
10
6.5859242
20
13.3446083
40
0.6545749
50
162.6076338
51
173.6779811
0
ARC
8
DEFAULT_255_1_388
10
6.9303357
20
13.3027422
40
1.0015089
50
173.4670996
51
179.9729015
0
ARC
8
DEFAULT_255_1_388
10
6.7156228
20
13.1909636
40
0.78681
50
179.6556955
51
190.007958
0
ARC
8
DEFAULT_255_1_388
10
6.4550509
20
13.143166
40
0.5218997
50
189.8117884
51
206.6795375
0
ARC
8
DEFAULT_255_1_388
10
6.3599955
20
13.0988514
40
0.4170788
50
207.1031171
51
217.7074698
0
ARC
8
DEFAULT_255_1_388
10
6.2886386
20
13.0367596
40
0.3226945
50
216.7345117
51
265.6812141
0
ARC
8
DEFAULT_255_1_388
10
6.3033528
20
13.138503
40
0.4253149
50
264.7367524
51
270.0610826
0
ARC
8
DEFAULT_255_1_388
10
6.3059713
20
13.4580173
40
0.7448321
50
269.8334494
51
276.0538364
0
ARC
8
DEFAULT_255_1_388
10
6.3292576
20
13.2440924
40
0.5296446
50
275.9894423
51
284.4615914
0
ARC
8
DEFAULT_255_1_388
10
6.3514089
20
13.150857
40
0.4338353
50
284.7038488
51
286.4938196
0
ARC
8
DEFAULT_255_1_388
10
6.3973238
20
13.0029371
40
0.2789738
50
286.0770429
51
304.2629628
0
ARC
8
DEFAULT_255_1_388
10
6.4123396
20
12.978368
40
0.2502188
50
304.5886247
51
317.1074126
0
LINE
8
DEFAULT_255_1_388
10
4.2472367
20
21.8424898
11
4.2472367
21
20.5269
0
LINE
8
DEFAULT_255_1_388
10
4.2472367
20
20.5269
11
4.0737523
21
20.5269
0
LINE
8
DEFAULT_255_1_388
10
4.0737523
20
20.5269
11
4.0737523
21
21.8424898
0
LINE
8
DEFAULT_255_1_388
10
4.0737523
20
21.8424898
11
4.2472367
21
21.8424898
0
LINE
8
DEFAULT_255_1_388
10
5.57638
20
21.2253553
11
5.57638
21
21.1422274
0
LINE
8
DEFAULT_255_1_388
10
4.518306
20
21.1304811
11
4.518306
21
21.2253553
0
LINE
8
DEFAULT_255_1_388
10
5.4037992
20
21.1295775
11
5.4037992
21
21.2271625
0
LINE
8
DEFAULT_255_1_388
10
4.6908868
20
21.2389088
11
4.6908868
21
21.1422274
0
ARC
8
DEFAULT_255_1_388
10
4.6041538
20
21.1377726
40
0.9722364
50
350.4878118
51
0.2625322
0
ARC
8
DEFAULT_255_1_388
10
4.8621498
20
21.0933994
40
0.7104556
50
336.0277991
51
350.5787241
0
ARC
8
DEFAULT_255_1_388
10
5.0134605
20
21.0250243
40
0.544417
50
319.887443
51
336.1331163
0
ARC
8
DEFAULT_255_1_388
10
5.0812417
20
20.9707733
40
0.4576311
50
302.4806296
51
319.6144102
0
ARC
8
DEFAULT_255_1_388
10
5.0683038
20
20.9957067
40
0.4856183
50
275.8196423
51
302.1885521
0
ARC
8
DEFAULT_255_1_388
10
5.04959
20
21.1242466
40
0.6154183
50
269.9169897
51
276.339506
0
ARC
8
DEFAULT_255_1_388
10
5.04455
20
21.047068
40
0.5382553
50
252.5221437
51
270.441579
0
ARC
8
DEFAULT_255_1_388
10
5.0283751
20
20.9864046
40
0.4755426
50
237.5349961
51
252.1858334
0
ARC
8
DEFAULT_255_1_388
10
5.0384127
20
20.999212
40
0.4917393
50
209.0632754
51
237.3492577
0
ARC
8
DEFAULT_255_1_388
10
5.1363453
20
21.0607104
40
0.6072464
50
205.118533
51
209.6465345
0
ARC
8
DEFAULT_255_1_388
10
5.2259455
20
21.0987174
40
0.7045164
50
188.7216633
51
204.8239753
0
ARC
8
DEFAULT_255_1_388
10
5.450623
20
21.1365387
40
0.9323368
50
180.3722704
51
188.9253909
0
ARC
8
DEFAULT_255_1_388
10
5.4475792
20
21.2298416
40
0.929284
50
169.5253055
51
180.2766048
0
ARC
8
DEFAULT_255_1_388
10
5.2335591
20
21.2692024
40
0.7116745
50
155.8314601
51
169.5088611
0
ARC
8
DEFAULT_255_1_388
10
5.0895054
20
21.3360312
40
0.5528904
50
139.6259579
51
156.0379072
0
ARC
8
DEFAULT_255_1_388
10
5.0231588
20
21.3894143
40
0.4677708
50
122.6414784
51
139.3431662
0
ARC
8
DEFAULT_255_1_388
10
5.0344842
20
21.3687787
40
0.4912586
50
93.0224537
51
122.4556091
0
ARC
8
DEFAULT_255_1_388
10
5.0466363
20
21.2601776
40
0.6003837
50
89.9756766
51
93.6340839
0
ARC
8
DEFAULT_255_1_388
10
5.0509961
20
21.3050879
40
0.5554884
50
73.7463329
51
90.4234008
0
ARC
8
DEFAULT_255_1_388
10
5.0707434
20
21.3815772
40
0.4765353
50
57.663051
51
73.4516911
0
ARC
8
DEFAULT_255_1_388
10
5.0698472
20
21.3840108
40
0.4749629
50
29.1441355
51
57.4146687
0
ARC
8
DEFAULT_255_1_388
10
4.9646283
20
21.3183046
40
0.5988917
50
24.0985653
51
29.732054
0
ARC
8
DEFAULT_255_1_388
10
4.8483915
20
21.2701154
40
0.7246823
50
8.6654943
51
23.8241215
0
ARC
8
DEFAULT_255_1_388
10
4.5970333
20
21.2291037
40
0.9793537
50
359.7807044
51
8.8218476
0
ARC
8
DEFAULT_255_1_388
10
4.4680038
20
21.2319731
40
0.9358078
50
359.7054632
51
8.0359751
0
ARC
8
DEFAULT_255_1_388
10
4.8055089
20
21.2811252
40
0.5947474
50
7.8926278
51
20.2962188
0
ARC
8
DEFAULT_255_1_388
10
4.9885939
20
21.3486367
40
0.3996117
50
20.3231056
51
36.4990255
0
ARC
8
DEFAULT_255_1_388
10
5.0657237
20
21.4080399
40
0.3022818
50
36.1436715
51
85.6627846
0
ARC
8
DEFAULT_255_1_388
10
5.0474492
20
21.2910881
40
0.4203853
50
84.3845912
51
90.076054
0
ARC
8
DEFAULT_255_1_388
10
5.0426847
20
21.3653416
40
0.346157
50
89.3037228
51
109.9046209
0
ARC
8
DEFAULT_255_1_388
10
5.032268
20
21.4083379
40
0.3022217
50
110.8229774
51
143.917961
0
ARC
8
DEFAULT_255_1_388
10
5.1373039
20
21.3281455
40
0.434348
50
143.5289166
51
163.2980252
0
ARC
8
DEFAULT_255_1_388
10
5.3519326
20
21.2606685
40
0.659321
50
163.0418884
51
174.3139873
0
ARC
8
DEFAULT_255_1_388
10
5.6224291
20
21.2294378
40
0.9315905
50
174.050934
51
179.4174954
0
ARC
8
DEFAULT_255_1_388
10
5.5656235
20
21.1375382
40
0.8747493
50
179.6928582
51
188.7908948
0
ARC
8
DEFAULT_255_1_388
10
5.2660035
20
21.0896086
40
0.5713262
50
188.6328449
51
202.5630732
0
ARC
8
DEFAULT_255_1_388
10
5.1248872
20
21.0329142
40
0.4192612
50
202.8078931
51
216.1195888
0
ARC
8
DEFAULT_255_1_388
10
5.0338389
20
20.9596479
40
0.3025752
50
215.0755613
51
264.6379773
0
ARC
8
DEFAULT_255_1_388
10
5.0481226
20
21.0531376
40
0.3970284
50
263.8464302
51
270.0830805
0
ARC
8
DEFAULT_255_1_388
10
5.0527771
20
21.0240808
40
0.3679937
50
269.3649295
51
287.5149684
0
ARC
8
DEFAULT_255_1_388
10
5.0728212
20
20.9512714
40
0.2925408
50
288.0629019
51
323.8115617
0
ARC
8
DEFAULT_255_1_388
10
4.9748188
20
21.0243754
40
0.4148018
50
323.6546541
51
342.6591359
0
ARC
8
DEFAULT_255_1_388
10
4.7462846
20
21.098728
40
0.6551163
50
342.4092446
51
353.6451501
0
ARC
8
DEFAULT_255_1_388
10
4.4277639
20
21.1383565
40
0.9760748
50
353.4027553
51
359.4846611
0
LINE
8
DEFAULT_255_1_388
10
5.8781705
20
21.8424898
11
6.2522462
21
20.7573089
0
LINE
8
DEFAULT_255_1_388
10
6.2522462
20
20.7573089
11
6.628129
21
21.8424898
0
LINE
8
DEFAULT_255_1_388
10
6.628129
20
21.8424898
11
6.8178775
21
21.8424898
0
LINE
8
DEFAULT_255_1_388
10
6.8178775
20
21.8424898
11
6.3299527
21
20.5269
0
LINE
8
DEFAULT_255_1_388
10
6.3299527
20
20.5269
11
6.1763468
21
20.5269
0
LINE
8
DEFAULT_255_1_388
10
6.1763468
20
20.5269
11
5.6893255
21
21.8424898
0
LINE
8
DEFAULT_255_1_388
10
5.6893255
20
21.8424898
11
5.8781705
21
21.8424898
0
LINE
8
DEFAULT_255_1_388
10
4.4551024
20
28.4644
11
3.9988024
21
28.4644
0
LINE
8
DEFAULT_255_1_388
10
3.9988024
20
28.4644
11
3.9988024
21
29.7799898
0
LINE
8
DEFAULT_255_1_388
10
3.9988024
20
29.7799898
11
4.4288991
21
29.7799898
0
LINE
8
DEFAULT_255_1_388
10
4.4614274
20
29.0797274
11
4.1722868
21
29.0797274
0
LINE
8
DEFAULT_255_1_388
10
4.1722868
20
29.0797274
11
4.1722868
21
28.6062596
0
LINE
8
DEFAULT_255_1_388
10
4.1722868
20
28.6062596
11
4.4587167
21
28.6062596
0
LINE
8
DEFAULT_255_1_388
10
4.1722868
20
29.6372267
11
4.1722868
21
29.2188763
0
LINE
8
DEFAULT_255_1_388
10
4.1722868
20
29.2188763
11
4.4343205
21
29.2188763
0
LINE
8
DEFAULT_255_1_388
10
4.4288991
20
29.6372267
11
4.1722868
21
29.6372267
0
ARC
8
DEFAULT_255_1_388
10
4.4331411
20
28.9511824
40
0.8288183
50
82.1256322
51
90.2932506
0
ARC
8
DEFAULT_255_1_388
10
4.4768986
20
29.256959
40
0.5199321
50
69.9044202
51
82.2857574
0
ARC
8
DEFAULT_255_1_388
10
4.5410979
20
29.4304993
40
0.3348993
50
51.1840204
51
70.018125
0
ARC
8
DEFAULT_255_1_388
10
4.5697811
20
29.4721945
40
0.2844579
50
12.1018086
51
50.421322
0
ARC
8
DEFAULT_255_1_388
10
4.4140682
20
29.4330937
40
0.4449429
50
359.5252354
51
12.8212369
0
ARC
8
DEFAULT_255_1_388
10
4.5918112
20
29.4252943
40
0.2672162
50
323.4907456
51
0.8818258
0
ARC
8
DEFAULT_255_1_388
10
4.5447525
20
29.4616523
40
0.3266736
50
298.6824053
51
323.2758285
0
ARC
8
DEFAULT_255_1_388
10
4.5040816
20
29.5292509
40
0.4055105
50
293.1994739
51
299.139634
0
ARC
8
DEFAULT_255_1_388
10
4.5797766
20
28.8446651
40
0.3229926
50
54.0009997
51
74.9168635
0
ARC
8
DEFAULT_255_1_388
10
4.5928693
20
28.8668511
40
0.2973581
50
36.3578854
51
53.5293172
0
ARC
8
DEFAULT_255_1_388
10
4.5786061
20
28.856685
40
0.3148715
50
4.8189348
51
36.3090187
0
ARC
8
DEFAULT_255_1_388
10
4.4909085
20
28.8443383
40
0.4033265
50
359.9373213
51
5.5201284
0
ARC
8
DEFAULT_255_1_388
10
4.4544415
20
28.8397733
40
0.4398126
50
344.7479357
51
0.5372278
0
ARC
8
DEFAULT_255_1_388
10
4.5659314
20
28.8097205
40
0.3243441
50
311.1785587
51
344.6887681
0
ARC
8
DEFAULT_255_1_388
10
4.5330857
20
28.8506084
40
0.3767511
50
286.0417804
51
310.8440924
0
ARC
8
DEFAULT_255_1_388
10
4.4760266
20
29.0358885
40
0.5705957
50
274.1044074
51
286.4070149
0
ARC
8
DEFAULT_255_1_388
10
4.4561482
20
29.2476901
40
0.7832907
50
269.9235077
51
274.4458593
0
ARC
8
DEFAULT_255_1_388
10
4.46132
20
28.9845462
40
0.3782955
50
269.6057074
51
281.3740795
0
ARC
8
DEFAULT_255_1_388
10
4.4872698
20
28.8615569
40
0.2526069
50
281.105298
51
302.5134029
0
ARC
8
DEFAULT_255_1_388
10
4.5038086
20
28.8318944
40
0.2187131
50
303.0365425
51
311.8818034
0
ARC
8
DEFAULT_255_1_388
10
4.5118263
20
28.8223602
40
0.2062624
50
311.9916937
51
351.7143773
0
ARC
8
DEFAULT_255_1_388
10
4.4199288
20
28.8409271
40
0.2999202
50
350.7343295
51
0.2221526
0
ARC
8
DEFAULT_255_1_388
10
4.4078376
20
28.847287
40
0.3120525
50
359.045729
51
17.2295312
0
ARC
8
DEFAULT_255_1_388
10
4.5247406
20
28.8820155
40
0.1901144
50
17.6685208
51
78.9940245
0
ARC
8
DEFAULT_255_1_388
10
4.4665767
20
28.6732011
40
0.4065575
50
76.565218
51
90.7103392
0
LINE
8
DEFAULT_255_1_388
10
4.4615364
20
29.0797274
11
4.4614274
21
29.0797274
0
ARC
8
DEFAULT_255_1_388
10
4.4368593
20
29.5884949
40
0.3696273
50
269.6064514
51
281.4533785
0
ARC
8
DEFAULT_255_1_388
10
4.4619234
20
29.4702283
40
0.2487412
50
281.2044438
51
302.5143998
0
ARC
8
DEFAULT_255_1_388
10
4.4773488
20
29.4424576
40
0.2170405
50
303.0211308
51
309.8378766
0
ARC
8
DEFAULT_255_1_388
10
4.4979605
20
29.4193486
40
0.1860946
50
309.5229446
51
356.9509628
0
ARC
8
DEFAULT_255_1_388
10
4.4233731
20
29.4300831
40
0.2612347
50
355.4699226
51
0.0498632
0
ARC
8
DEFAULT_255_1_388
10
4.3919404
20
29.4325789
40
0.2926762
50
359.5558955
51
11.2092924
0
ARC
8
DEFAULT_255_1_388
10
4.4996372
20
29.4548667
40
0.1827036
50
10.9185717
51
31.322519
0
ARC
8
DEFAULT_255_1_388
10
4.531792
20
29.4727571
40
0.1459418
50
31.8850633
51
52.1415586
0
ARC
8
DEFAULT_255_1_388
10
4.5009349
20
29.4291674
40
0.1993088
50
52.8283418
51
71.9850132
0
ARC
8
DEFAULT_255_1_388
10
4.458651
20
29.3047158
40
0.3307407
50
71.686634
51
82.8453416
0
ARC
8
DEFAULT_255_1_388
10
4.4317157
20
29.1011892
40
0.536039
50
82.6981895
51
90.1730083
0
ARC
8
DEFAULT_255_1_388
10
4.4291989
20
29.1890836
40
0.4481429
50
89.8851568
51
90.0383283
0
LINE
8
DEFAULT_255_1_388
10
5.9694765
20
28.6008382
11
5.9694765
21
28.4644
0
LINE
8
DEFAULT_255_1_388
10
5.9694765
20
28.4644
11
5.107476
21
28.4644
0
LINE
8
DEFAULT_255_1_388
10
5.107476
20
28.4644
11
5.107476
21
28.5845741
0
LINE
8
DEFAULT_255_1_388
10
5.107476
20
28.5845741
11
5.5628725
21
29.0905702
0
LINE
8
DEFAULT_255_1_388
10
5.2493356
20
29.3923607
11
5.0821762
21
29.3923607
0
LINE
8
DEFAULT_255_1_388
10
5.661361
20
28.983046
11
5.3089708
21
28.6008382
0
LINE
8
DEFAULT_255_1_388
10
5.3089708
20
28.6008382
11
5.9694765
21
28.6008382
0
ARC
8
DEFAULT_255_1_388
10
4.0452784
20
30.4325983
40
2.0258655
50
318.5132526
51
320.7829045
0
ARC
8
DEFAULT_255_1_388
10
4.6400741
20
29.9484929
40
1.2589638
50
320.7372878
51
323.9739031
0
ARC
8
DEFAULT_255_1_388
10
5.0809673
20
29.6290554
40
0.7145141
50
323.8962701
51
328.64194
0
ARC
8
DEFAULT_255_1_388
10
5.311193
20
29.4870545
40
0.4440242
50
328.8294576
51
331.7891185
0
ARC
8
DEFAULT_255_1_388
10
5.423425
20
29.4291374
40
0.3177517
50
331.4254512
51
352.9365785
0
ARC
8
DEFAULT_255_1_388
10
5.438725
20
29.425705
40
0.3021496
50
353.2257659
51
0.0166158
0
ARC
8
DEFAULT_255_1_388
10
5.4624011
20
29.4282894
40
0.2784847
50
359.486299
51
15.9343185
0
ARC
8
DEFAULT_255_1_388
10
5.5194278
20
29.4436269
40
0.2194403
50
16.1712913
51
43.5286088
0
ARC
8
DEFAULT_255_1_388
10
5.5281222
20
29.4523191
40
0.2071504
50
43.4417391
51
83.1661095
0
ARC
8
DEFAULT_255_1_388
10
5.5130383
20
29.3694316
40
0.2912888
50
82.160179
51
90.1505708
0
ARC
8
DEFAULT_255_1_388
10
5.5094865
20
29.3090279
40
0.3517025
50
89.5460741
51
102.5418361
0
ARC
8
DEFAULT_255_1_388
10
5.4821585
20
29.4249933
40
0.2325748
50
102.1738499
51
129.206123
0
ARC
8
DEFAULT_255_1_388
10
5.4733038
20
29.4389664
40
0.2161591
50
129.72865
51
135.753947
0
ARC
8
DEFAULT_255_1_388
10
5.4869521
20
29.4280728
40
0.2335433
50
136.1757367
51
166.3673339
0
ARC
8
DEFAULT_255_1_388
10
5.6002209
20
29.3977148
40
0.3507873
50
165.9090694
51
178.8684636
0
ARC
8
DEFAULT_255_1_388
10
5.6977981
20
29.3924263
40
0.4484624
50
178.4391136
51
180.0083808
0
ARC
8
DEFAULT_255_1_388
10
5.5398682
20
29.3968197
40
0.4577138
50
163.2878482
51
180.5581842
0
ARC
8
DEFAULT_255_1_388
10
5.4496723
20
29.4216393
40
0.3641968
50
133.4540601
51
162.947111
0
ARC
8
DEFAULT_255_1_388
10
5.4697605
20
29.4002789
40
0.3935189
50
100.7869829
51
133.4382499
0
ARC
8
DEFAULT_255_1_388
10
5.508885
20
29.2260399
40
0.5720313
50
89.660664
51
101.3702276
0
ARC
8
DEFAULT_255_1_388
10
5.5163459
20
29.2329263
40
0.5651495
50
78.2172678
51
90.412935
0
ARC
8
DEFAULT_255_1_388
10
5.5562925
20
29.4156511
40
0.378122
50
55.9269121
51
78.4888449
0
ARC
8
DEFAULT_255_1_388
10
5.578364
20
29.4537187
40
0.3342379
50
47.929771
51
55.4049217
0
ARC
8
DEFAULT_255_1_388
10
5.589817
20
29.4653618
40
0.3179217
50
4.334829
51
48.0560205
0
ARC
8
DEFAULT_255_1_388
10
5.4665972
20
29.4462487
40
0.442341
50
359.9251713
51
5.5971671
0
ARC
8
DEFAULT_255_1_388
10
5.5148126
20
29.4525728
40
0.3941854
50
337.8914027
51
358.9967534
0
ARC
8
DEFAULT_255_1_388
10
5.2095697
20
29.5703295
40
0.7213271
50
326.9132501
51
338.3508308
0
ARC
8
DEFAULT_255_1_388
10
4.7611808
20
29.8577105
40
1.2538973
50
319.6471833
51
327.0959558
0
ARC
8
DEFAULT_255_1_388
10
4.3298467
20
30.213505
40
1.8129975
50
317.2588228
51
319.9045804
0
LINE
8
DEFAULT_255_1_388
10
4.8511708
20
37.5900873
11
4.1274157
21
36.5437596
0
LINE
8
DEFAULT_255_1_388
10
4.1274157
20
36.5437596
11
4.8800849
21
36.5437596
0
LINE
8
DEFAULT_255_1_388
10
4.8800849
20
36.5437596
11
4.8800849
21
36.4019
0
LINE
8
DEFAULT_255_1_388
10
4.8800849
20
36.4019
11
3.9223065
21
36.4019
0
LINE
8
DEFAULT_255_1_388
10
3.9223065
20
36.4019
11
3.9223065
21
36.5320133
0
LINE
8
DEFAULT_255_1_388
10
3.9223065
20
36.5320133
11
4.643351
21
37.5747267
0
LINE
8
DEFAULT_255_1_388
10
4.643351
20
37.5747267
11
3.9340529
21
37.5747267
0
LINE
8
DEFAULT_255_1_388
10
3.9340529
20
37.5747267
11
3.9340529
21
37.7174898
0
LINE
8
DEFAULT_255_1_388
10
3.9340529
20
37.7174898
11
4.8511708
21
37.7174898
0
LINE
8
DEFAULT_255_1_388
10
4.8511708
20
37.7174898
11
4.8511708
21
37.5900873
0
LINE
8
DEFAULT_255_1_388
10
5.9237018
20
36.5383382
11
5.9237018
21
36.4019
0
LINE
8
DEFAULT_255_1_388
10
5.9237018
20
36.4019
11
5.0617013
21
36.4019
0
LINE
8
DEFAULT_255_1_388
10
5.0617013
20
36.4019
11
5.0617013
21
36.5220741
0
LINE
8
DEFAULT_255_1_388
10
5.0617013
20
36.5220741
11
5.5170978
21
37.0280702
0
LINE
8
DEFAULT_255_1_388
10
5.2035609
20
37.3298607
11
5.0364015
21
37.3298607
0
LINE
8
DEFAULT_255_1_388
10
5.6155863
20
36.920546
11
5.2631962
21
36.5383382
0
LINE
8
DEFAULT_255_1_388
10
5.2631962
20
36.5383382
11
5.9237018
21
36.5383382
0
ARC
8
DEFAULT_255_1_388
10
3.9995038
20
38.3700983
40
2.0258655
50
318.5132526
51
320.7829045
0
ARC
8
DEFAULT_255_1_388
10
4.5942994
20
37.8859929
40
1.2589638
50
320.7372878
51
323.9739031
0
ARC
8
DEFAULT_255_1_388
10
5.0351926
20
37.5665554
40
0.7145141
50
323.8962701
51
328.64194
0
ARC
8
DEFAULT_255_1_388
10
5.2654184
20
37.4245545
40
0.4440242
50
328.8294576
51
331.7891185
0
ARC
8
DEFAULT_255_1_388
10
5.3776504
20
37.3666374
40
0.3177517
50
331.4254512
51
352.9365785
0
ARC
8
DEFAULT_255_1_388
10
5.3929504
20
37.363205
40
0.3021496
50
353.2257659
51
0.0166158
0
ARC
8
DEFAULT_255_1_388
10
5.4166264
20
37.3657894
40
0.2784847
50
359.486299
51
15.9343185
0
ARC
8
DEFAULT_255_1_388
10
5.4736531
20
37.3811269
40
0.2194403
50
16.1712913
51
43.5286088
0
ARC
8
DEFAULT_255_1_388
10
5.4823476
20
37.3898191
40
0.2071504
50
43.4417391
51
83.1661095
0
ARC
8
DEFAULT_255_1_388
10
5.4672637
20
37.3069316
40
0.2912888
50
82.160179
51
90.1505708
0
ARC
8
DEFAULT_255_1_388
10
5.4637119
20
37.2465279
40
0.3517025
50
89.5460741
51
102.5418361
0
ARC
8
DEFAULT_255_1_388
10
5.4363839
20
37.3624933
40
0.2325748
50
102.1738499
51
129.206123
0
ARC
8
DEFAULT_255_1_388
10
5.4275292
20
37.3764664
40
0.2161591
50
129.72865
51
135.753947
0
ARC
8
DEFAULT_255_1_388
10
5.4411774
20
37.3655728
40
0.2335433
50
136.1757367
51
166.3673339
0
ARC
8
DEFAULT_255_1_388
10
5.5544463
20
37.3352148
40
0.3507873
50
165.9090694
51
178.8684636
0
ARC
8
DEFAULT_255_1_388
10
5.6520234
20
37.3299263
40
0.4484624
50
178.4391136
51
180.0083808
0
ARC
8
DEFAULT_255_1_388
10
5.4940936
20
37.3343197
40
0.4577138
50
163.2878482
51
180.5581842
0
ARC
8
DEFAULT_255_1_388
10
5.4038977
20
37.3591393
40
0.3641968
50
133.4540601
51
162.947111
0
ARC
8
DEFAULT_255_1_388
10
5.4239858
20
37.3377789
40
0.3935189
50
100.7869829
51
133.4382499
0
ARC
8
DEFAULT_255_1_388
10
5.4631103
20
37.1635399
40
0.5720313
50
89.660664
51
101.3702276
0
ARC
8
DEFAULT_255_1_388
10
5.4705712
20
37.1704263
40
0.5651495
50
78.2172678
51
90.412935
0
ARC
8
DEFAULT_255_1_388
10
5.5105178
20
37.3531511
40
0.378122
50
55.9269121
51
78.4888449
0
ARC
8
DEFAULT_255_1_388
10
5.5325893
20
37.3912187
40
0.3342379
50
47.929771
51
55.4049217
0
ARC
8
DEFAULT_255_1_388
10
5.5440424
20
37.4028618
40
0.3179217
50
4.334829
51
48.0560205
0
ARC
8
DEFAULT_255_1_388
10
5.4208225
20
37.3837487
40
0.442341
50
359.9251713
51
5.5971671
0
ARC
8
DEFAULT_255_1_388
10
5.469038
20
37.3900728
40
0.3941854
50
337.8914027
51
358.9967534
0
ARC
8
DEFAULT_255_1_388
10
5.163795
20
37.5078295
40
0.7213271
50
326.9132501
51
338.3508308
0
ARC
8
DEFAULT_255_1_388
10
4.7154062
20
37.7952105
40
1.2538973
50
319.6471833
51
327.0959558
0
ARC
8
DEFAULT_255_1_388
10
4.284072
20
38.151005
40
1.8129975
50
317.2588228
51
319.9045804
0
LINE
8
DEFAULT_255_1_388
10
4.9817637
20
44.3394
11
4.8561682
21
44.6827545
0
LINE
8
DEFAULT_255_1_388
10
4.8561682
20
44.6827545
11
4.3049939
21
44.6827545
0
LINE
8
DEFAULT_255_1_388
10
4.3049939
20
44.6827545
11
4.1812056
21
44.3394
0
LINE
8
DEFAULT_255_1_388
10
4.1812056
20
44.3394
11
4.0022998
21
44.3394
0
LINE
8
DEFAULT_255_1_388
10
4.0022998
20
44.3394
11
4.5046816
21
45.6549898
0
LINE
8
DEFAULT_255_1_388
10
4.5046816
20
45.6549898
11
4.6564805
21
45.6549898
0
LINE
8
DEFAULT_255_1_388
10
4.6564805
20
45.6549898
11
5.1597659
21
44.3394
0
LINE
8
DEFAULT_255_1_388
10
5.1597659
20
44.3394
11
4.9817637
21
44.3394
0
LINE
8
DEFAULT_255_1_388
10
4.5805811
20
45.4408451
11
4.3574006
21
44.8255177
0
LINE
8
DEFAULT_255_1_388
10
4.3574006
20
44.8255177
11
4.804665
21
44.8255177
0
LINE
8
DEFAULT_255_1_388
10
4.804665
20
44.8255177
11
4.5805811
21
45.4408451
0
LINE
8
DEFAULT_255_1_388
10
6.1554939
20
44.4758382
11
6.1554939
21
44.3394
0
LINE
8
DEFAULT_255_1_388
10
6.1554939
20
44.3394
11
5.2934934
21
44.3394
0
LINE
8
DEFAULT_255_1_388
10
5.2934934
20
44.3394
11
5.2934934
21
44.4595741
0
LINE
8
DEFAULT_255_1_388
10
5.2934934
20
44.4595741
11
5.7488899
21
44.9655702
0
LINE
8
DEFAULT_255_1_388
10
5.435353
20
45.2673607
11
5.2681936
21
45.2673607
0
LINE
8
DEFAULT_255_1_388
10
5.8473784
20
44.858046
11
5.4949883
21
44.4758382
0
LINE
8
DEFAULT_255_1_388
10
5.4949883
20
44.4758382
11
6.1554939
21
44.4758382
0
ARC
8
DEFAULT_255_1_388
10
4.2312958
20
46.3075983
40
2.0258655
50
318.5132526
51
320.7829045
0
ARC
8
DEFAULT_255_1_388
10
4.8260915
20
45.8234929
40
1.2589638
50
320.7372878
51
323.9739031
0
ARC
8
DEFAULT_255_1_388
10
5.2669847
20
45.5040554
40
0.7145141
50
323.8962701
51
328.64194
0
ARC
8
DEFAULT_255_1_388
10
5.4972105
20
45.3620545
40
0.4440242
50
328.8294576
51
331.7891185
0
ARC
8
DEFAULT_255_1_388
10
5.6094425
20
45.3041374
40
0.3177517
50
331.4254512
51
352.9365785
0
ARC
8
DEFAULT_255_1_388
10
5.6247425
20
45.300705
40
0.3021496
50
353.2257659
51
0.0166158
0
ARC
8
DEFAULT_255_1_388
10
5.6484185
20
45.3032894
40
0.2784847
50
359.486299
51
15.9343185
0
ARC
8
DEFAULT_255_1_388
10
5.7054452
20
45.3186269
40
0.2194403
50
16.1712913
51
43.5286088
0
ARC
8
DEFAULT_255_1_388
10
5.7141397
20
45.3273191
40
0.2071504
50
43.4417391
51
83.1661095
0
ARC
8
DEFAULT_255_1_388
10
5.6990558
20
45.2444316
40
0.2912888
50
82.160179
51
90.1505708
0
ARC
8
DEFAULT_255_1_388
10
5.6955039
20
45.1840279
40
0.3517025
50
89.5460741
51
102.5418361
0
ARC
8
DEFAULT_255_1_388
10
5.6681759
20
45.2999933
40
0.2325748
50
102.1738499
51
129.206123
0
ARC
8
DEFAULT_255_1_388
10
5.6593213
20
45.3139664
40
0.2161591
50
129.72865
51
135.753947
0
ARC
8
DEFAULT_255_1_388
10
5.6729695
20
45.3030728
40
0.2335433
50
136.1757367
51
166.3673339
0
ARC
8
DEFAULT_255_1_388
10
5.7862383
20
45.2727148
40
0.3507873
50
165.9090694
51
178.8684636
0
ARC
8
DEFAULT_255_1_388
10
5.8838155
20
45.2674263
40
0.4484624
50
178.4391136
51
180.0083808
0
ARC
8
DEFAULT_255_1_388
10
5.7258856
20
45.2718197
40
0.4577138
50
163.2878482
51
180.5581842
0
ARC
8
DEFAULT_255_1_388
10
5.6356898
20
45.2966393
40
0.3641968
50
133.4540601
51
162.947111
0
ARC
8
DEFAULT_255_1_388
10
5.6557779
20
45.2752789
40
0.3935189
50
100.7869829
51
133.4382499
0
ARC
8
DEFAULT_255_1_388
10
5.6949024
20
45.1010399
40
0.5720313
50
89.660664
51
101.3702276
0
ARC
8
DEFAULT_255_1_388
10
5.7023633
20
45.1079263
40
0.5651495
50
78.2172678
51
90.412935
0
ARC
8
DEFAULT_255_1_388
10
5.7423099
20
45.2906511
40
0.378122
50
55.9269121
51
78.4888449
0
ARC
8
DEFAULT_255_1_388
10
5.7643814
20
45.3287187
40
0.3342379
50
47.929771
51
55.4049217
0
ARC
8
DEFAULT_255_1_388
10
5.7758344
20
45.3403618
40
0.3179217
50
4.334829
51
48.0560205
0
ARC
8
DEFAULT_255_1_388
10
5.6526146
20
45.3212487
40
0.442341
50
359.9251713
51
5.5971671
0
ARC
8
DEFAULT_255_1_388
10
5.7008301
20
45.3275728
40
0.3941854
50
337.8914027
51
358.9967534
0
ARC
8
DEFAULT_255_1_388
10
5.3955871
20
45.4453295
40
0.7213271
50
326.9132501
51
338.3508308
0
ARC
8
DEFAULT_255_1_388
10
4.9471983
20
45.7327105
40
1.2538973
50
319.6471833
51
327.0959558
0
ARC
8
DEFAULT_255_1_388
10
4.5158641
20
46.088505
40
1.8129975
50
317.2588228
51
319.9045804
0
LINE
8
DEFAULT_255_1_388
10
4.2075367
20
53.5924898
11
4.2075367
21
52.2769
0
LINE
8
DEFAULT_255_1_388
10
4.2075367
20
52.2769
11
4.0340523
21
52.2769
0
LINE
8
DEFAULT_255_1_388
10
4.0340523
20
52.2769
11
4.0340523
21
53.5924898
0
LINE
8
DEFAULT_255_1_388
10
4.0340523
20
53.5924898
11
4.2075367
21
53.5924898
0
LINE
8
DEFAULT_255_1_388
10
5.53668
20
52.9753553
11
5.53668
21
52.8922274
0
LINE
8
DEFAULT_255_1_388
10
4.478606
20
52.8804811
11
4.478606
21
52.9753553
0
LINE
8
DEFAULT_255_1_388
10
5.3640992
20
52.8795775
11
5.3640992
21
52.9771625
0
LINE
8
DEFAULT_255_1_388
10
4.6511868
20
52.9889088
11
4.6511868
21
52.8922274
0
ARC
8
DEFAULT_255_1_388
10
4.5644538
20
52.8877726
40
0.9722364
50
350.4878118
51
0.2625322
0
ARC
8
DEFAULT_255_1_388
10
4.8224498
20
52.8433994
40
0.7104556
50
336.0277991
51
350.5787241
0
ARC
8
DEFAULT_255_1_388
10
4.9737605
20
52.7750243
40
0.544417
50
319.887443
51
336.1331163
0
ARC
8
DEFAULT_255_1_388
10
5.0415417
20
52.7207733
40
0.4576311
50
302.4806296
51
319.6144102
0
ARC
8
DEFAULT_255_1_388
10
5.0286038
20
52.7457067
40
0.4856183
50
275.8196423
51
302.1885521
0
ARC
8
DEFAULT_255_1_388
10
5.00989
20
52.8742466
40
0.6154183
50
269.9169897
51
276.339506
0
ARC
8
DEFAULT_255_1_388
10
5.00485
20
52.797068
40
0.5382553
50
252.5221437
51
270.441579
0
ARC
8
DEFAULT_255_1_388
10
4.9886751
20
52.7364046
40
0.4755426
50
237.5349961
51
252.1858334
0
ARC
8
DEFAULT_255_1_388
10
4.9987127
20
52.749212
40
0.4917393
50
209.0632754
51
237.3492577
0
ARC
8
DEFAULT_255_1_388
10
5.0966453
20
52.8107104
40
0.6072464
50
205.118533
51
209.6465345
0
ARC
8
DEFAULT_255_1_388
10
5.1862455
20
52.8487174
40
0.7045164
50
188.7216633
51
204.8239753
0
ARC
8
DEFAULT_255_1_388
10
5.410923
20
52.8865387
40
0.9323368
50
180.3722704
51
188.9253909
0
ARC
8
DEFAULT_255_1_388
10
5.4078792
20
52.9798416
40
0.929284
50
169.5253055
51
180.2766048
0
ARC
8
DEFAULT_255_1_388
10
5.1938591
20
53.0192024
40
0.7116745
50
155.8314601
51
169.5088611
0
ARC
8
DEFAULT_255_1_388
10
5.0498054
20
53.0860312
40
0.5528904
50
139.6259579
51
156.0379072
0
ARC
8
DEFAULT_255_1_388
10
4.9834588
20
53.1394143
40
0.4677708
50
122.6414784
51
139.3431662
0
ARC
8
DEFAULT_255_1_388
10
4.9947842
20
53.1187787
40
0.4912586
50
93.0224537
51
122.4556091
0
ARC
8
DEFAULT_255_1_388
10
5.0069363
20
53.0101776
40
0.6003837
50
89.9756766
51
93.6340839
0
ARC
8
DEFAULT_255_1_388
10
5.0112961
20
53.0550879
40
0.5554884
50
73.7463329
51
90.4234008
0
ARC
8
DEFAULT_255_1_388
10
5.0310434
20
53.1315772
40
0.4765353
50
57.663051
51
73.4516911
0
ARC
8
DEFAULT_255_1_388
10
5.0301472
20
53.1340108
40
0.4749629
50
29.1441355
51
57.4146687
0
ARC
8
DEFAULT_255_1_388
10
4.9249283
20
53.0683046
40
0.5988917
50
24.0985653
51
29.732054
0
ARC
8
DEFAULT_255_1_388
10
4.8086915
20
53.0201154
40
0.7246823
50
8.6654943
51
23.8241215
0
ARC
8
DEFAULT_255_1_388
10
4.5573333
20
52.9791037
40
0.9793537
50
359.7807044
51
8.8218476
0
ARC
8
DEFAULT_255_1_388
10
4.4283038
20
52.9819731
40
0.9358078
50
359.7054632
51
8.0359751
0
ARC
8
DEFAULT_255_1_388
10
4.7658089
20
53.0311252
40
0.5947474
50
7.8926278
51
20.2962188
0
ARC
8
DEFAULT_255_1_388
10
4.9488939
20
53.0986367
40
0.3996117
50
20.3231056
51
36.4990255
0
ARC
8
DEFAULT_255_1_388
10
5.0260237
20
53.1580399
40
0.3022818
50
36.1436715
51
85.6627846
0
ARC
8
DEFAULT_255_1_388
10
5.0077492
20
53.0410881
40
0.4203853
50
84.3845912
51
90.076054
0
ARC
8
DEFAULT_255_1_388
10
5.0029847
20
53.1153416
40
0.346157
50
89.3037228
51
109.9046209
0
ARC
8
DEFAULT_255_1_388
10
4.992568
20
53.1583379
40
0.3022217
50
110.8229774
51
143.917961
0
ARC
8
DEFAULT_255_1_388
10
5.0976039
20
53.0781455
40
0.434348
50
143.5289166
51
163.2980252
0
ARC
8
DEFAULT_255_1_388
10
5.3122326
20
53.0106685
40
0.659321
50
163.0418884
51
174.3139873
0
ARC
8
DEFAULT_255_1_388
10
5.5827291
20
52.9794378
40
0.9315905
50
174.050934
51
179.4174954
0
ARC
8
DEFAULT_255_1_388
10
5.5259235
20
52.8875382
40
0.8747493
50
179.6928582
51
188.7908948
0
ARC
8
DEFAULT_255_1_388
10
5.2263035
20
52.8396086
40
0.5713262
50
188.6328449
51
202.5630732
0
ARC
8
DEFAULT_255_1_388
10
5.0851872
20
52.7829142
40
0.4192612
50
202.8078931
51
216.1195888
0
ARC
8
DEFAULT_255_1_388
10
4.9941389
20
52.7096479
40
0.3025752
50
215.0755613
51
264.6379773
0
ARC
8
DEFAULT_255_1_388
10
5.0084226
20
52.8031376
40
0.3970284
50
263.8464302
51
270.0830805
0
ARC
8
DEFAULT_255_1_388
10
5.0130771
20
52.7740808
40
0.3679937
50
269.3649295
51
287.5149684
0
ARC
8
DEFAULT_255_1_388
10
5.0331212
20
52.7012714
40
0.2925408
50
288.0629019
51
323.8115617
0
ARC
8
DEFAULT_255_1_388
10
4.9351188
20
52.7743754
40
0.4148018
50
323.6546541
51
342.6591359
0
ARC
8
DEFAULT_255_1_388
10
4.7065846
20
52.848728
40
0.6551163
50
342.4092446
51
353.6451501
0
ARC
8
DEFAULT_255_1_388
10
4.3880639
20
52.8883565
40
0.9760748
50
353.4027553
51
359.4846611
0
LINE
8
DEFAULT_255_1_388
10
6.7682383
20
52.9319842
11
6.7682383
21
52.4494808
0
LINE
8
DEFAULT_255_1_388
10
5.754439
20
52.8714454
11
5.754439
21
52.9861981
0
LINE
8
DEFAULT_255_1_388
10
6.7682383
20
53.2066678
11
6.594754
21
53.2066678
0
LINE
8
DEFAULT_255_1_388
10
5.928827
20
52.9907159
11
5.928827
21
52.8831917
0
LINE
8
DEFAULT_255_1_388
10
6.5956575
20
52.4955626
11
6.5956575
21
52.7910282
0
LINE
8
DEFAULT_255_1_388
10
6.5956575
20
52.7910282
11
6.2911563
21
52.7910282
0
LINE
8
DEFAULT_255_1_388
10
6.2911563
20
52.7910282
11
6.2911563
21
52.9319842
0
LINE
8
DEFAULT_255_1_388
10
6.2911563
20
52.9319842
11
6.7682383
21
52.9319842
0
ARC
8
DEFAULT_255_1_388
10
6.4496984
20
52.6737284
40
0.3895571
50
295.8437277
51
324.8549962
0
ARC
8
DEFAULT_255_1_388
10
6.4029366
20
52.7583619
40
0.4861381
50
291.5691164
51
296.4556269
0
ARC
8
DEFAULT_255_1_388
10
6.3454369
20
52.9119801
40
0.6501442
50
278.6622213
51
291.3047061
0
ARC
8
DEFAULT_255_1_388
10
6.3072401
20
53.1536557
40
0.8948168
50
270.0200506
51
278.7494673
0
ARC
8
DEFAULT_255_1_388
10
6.3028605
20
53.3382453
40
1.0794166
50
270.0022372
51
270.2490917
0
ARC
8
DEFAULT_255_1_388
10
6.2986497
20
52.8423827
40
0.5835695
50
253.5785313
51
270.4175629
0
ARC
8
DEFAULT_255_1_388
10
6.2791493
20
52.7668625
40
0.5056241
50
238.8203954
51
253.2788387
0
ARC
8
DEFAULT_255_1_388
10
6.2769409
20
52.7611224
40
0.4995712
50
206.7883476
51
238.696262
0
ARC
8
DEFAULT_255_1_388
10
6.3644805
20
52.8135847
40
0.6014056
50
206.1137778
51
207.4912776
0
ARC
8
DEFAULT_255_1_388
10
6.4311641
20
52.8419284
40
0.6737692
50
188.6922336
51
205.782076
0
ARC
8
DEFAULT_255_1_388
10
6.64
20
52.8774455
40
0.8855812
50
180.3881972
51
188.9218085
0
ARC
8
DEFAULT_255_1_388
10
6.7781157
20
52.9925622
40
1.0236965
50
170.2024645
51
180.3561986
0
ARC
8
DEFAULT_255_1_388
10
6.4222307
20
53.0562101
40
0.6621746
50
154.2856519
51
170.3893388
0
ARC
8
DEFAULT_255_1_388
10
6.2780271
20
53.1222192
40
0.5036209
50
139.8400879
51
153.9334639
0
ARC
8
DEFAULT_255_1_388
10
6.2376175
20
53.1545716
40
0.4518751
50
98.4190017
51
139.6707015
0
ARC
8
DEFAULT_255_1_388
10
6.2803142
20
52.9469755
40
0.6635912
50
89.7660128
51
99.4415389
0
ARC
8
DEFAULT_255_1_388
10
6.2876539
20
52.9543517
40
0.6562258
50
78.0552044
51
90.4042252
0
ARC
8
DEFAULT_255_1_388
10
6.3331602
20
53.1589661
40
0.4466287
50
54.6380186
51
78.3338577
0
ARC
8
DEFAULT_255_1_388
10
6.3545901
20
53.1950444
40
0.4048184
50
50.0313964
51
54.1562739
0
ARC
8
DEFAULT_255_1_388
10
6.3424794
20
53.1841798
40
0.4209308
50
18.1092229
51
49.7179911
0
ARC
8
DEFAULT_255_1_388
10
6.1785875
20
53.1241399
40
0.5953982
50
7.967396
51
18.698492
0
ARC
8
DEFAULT_255_1_388
10
6.1955136
20
53.1380236
40
0.4050986
50
9.7558763
51
27.3214087
0
ARC
8
DEFAULT_255_1_388
10
6.32236
20
53.2014087
40
0.2633168
50
27.736147
51
84.5257861
0
ARC
8
DEFAULT_255_1_388
10
6.285501
20
53.0164988
40
0.4513019
50
82.1064239
51
90.1997295
0
ARC
8
DEFAULT_255_1_388
10
6.2799026
20
53.0736501
40
0.3941684
50
89.4148952
51
105.5824837
0
ARC
8
DEFAULT_255_1_388
10
6.2509907
20
53.1789043
40
0.2850167
50
105.6678541
51
144.2649156
0
ARC
8
DEFAULT_255_1_388
10
6.3514799
20
53.1074024
40
0.4083468
50
144.3560675
51
162.8564185
0
ARC
8
DEFAULT_255_1_388
10
6.5859242
20
53.0321083
40
0.6545749
50
162.6076338
51
173.6779811
0
ARC
8
DEFAULT_255_1_388
10
6.9303357
20
52.9902422
40
1.0015089
50
173.4670996
51
179.9729015
0
ARC
8
DEFAULT_255_1_388
10
6.7156228
20
52.8784636
40
0.78681
50
179.6556955
51
190.007958
0
ARC
8
DEFAULT_255_1_388
10
6.4550509
20
52.830666
40
0.5218997
50
189.8117884
51
206.6795375
0
ARC
8
DEFAULT_255_1_388
10
6.3599955
20
52.7863514
40
0.4170788
50
207.1031171
51
217.7074698
0
ARC
8
DEFAULT_255_1_388
10
6.2886386
20
52.7242596
40
0.3226945
50
216.7345117
51
265.6812141
0
ARC
8
DEFAULT_255_1_388
10
6.3033528
20
52.826003
40
0.4253149
50
264.7367524
51
270.0610826
0
ARC
8
DEFAULT_255_1_388
10
6.3059713
20
53.1455173
40
0.7448321
50
269.8334494
51
276.0538364
0
ARC
8
DEFAULT_255_1_388
10
6.3292576
20
52.9315924
40
0.5296446
50
275.9894423
51
284.4615914
0
ARC
8
DEFAULT_255_1_388
10
6.3514089
20
52.838357
40
0.4338353
50
284.7038488
51
286.4938196
0
ARC
8
DEFAULT_255_1_388
10
6.3973238
20
52.6904371
40
0.2789738
50
286.0770429
51
304.2629628
0
ARC
8
DEFAULT_255_1_388
10
6.4123396
20
52.665868
40
0.2502188
50
304.5886247
51
317.1074126
0
LINE
8
DEFAULT_255_1_388
10
4.2472367
20
61.5299898
11
4.2472367
21
60.2144
0
LINE
8
DEFAULT_255_1_388
10
4.2472367
20
60.2144
11
4.0737523
21
60.2144
0
LINE
8
DEFAULT_255_1_388
10
4.0737523
20
60.2144
11
4.0737523
21
61.5299898
0
LINE
8
DEFAULT_255_1_388
10
4.0737523
20
61.5299898
11
4.2472367
21
61.5299898
0
LINE
8
DEFAULT_255_1_388
10
5.57638
20
60.9128553
11
5.57638
21
60.8297274
0
LINE
8
DEFAULT_255_1_388
10
4.518306
20
60.8179811
11
4.518306
21
60.9128553
0
LINE
8
DEFAULT_255_1_388
10
5.4037992
20
60.8170775
11
5.4037992
21
60.9146625
0
LINE
8
DEFAULT_255_1_388
10
4.6908868
20
60.9264088
11
4.6908868
21
60.8297274
0
ARC
8
DEFAULT_255_1_388
10
4.6041538
20
60.8252726
40
0.9722364
50
350.4878118
51
0.2625322
0
ARC
8
DEFAULT_255_1_388
10
4.8621498
20
60.7808994
40
0.7104556
50
336.0277991
51
350.5787241
0
ARC
8
DEFAULT_255_1_388
10
5.0134605
20
60.7125243
40
0.544417
50
319.887443
51
336.1331163
0
ARC
8
DEFAULT_255_1_388
10
5.0812417
20
60.6582733
40
0.4576311
50
302.4806296
51
319.6144102
0
ARC
8
DEFAULT_255_1_388
10
5.0683038
20
60.6832067
40
0.4856183
50
275.8196423
51
302.1885521
0
ARC
8
DEFAULT_255_1_388
10
5.04959
20
60.8117466
40
0.6154183
50
269.9169897
51
276.339506
0
ARC
8
DEFAULT_255_1_388
10
5.04455
20
60.734568
40
0.5382553
50
252.5221437
51
270.441579
0
ARC
8
DEFAULT_255_1_388
10
5.0283751
20
60.6739046
40
0.4755426
50
237.5349961
51
252.1858334
0
ARC
8
DEFAULT_255_1_388
10
5.0384127
20
60.686712
40
0.4917393
50
209.0632754
51
237.3492577
0
ARC
8
DEFAULT_255_1_388
10
5.1363453
20
60.7482104
40
0.6072464
50
205.118533
51
209.6465345
0
ARC
8
DEFAULT_255_1_388
10
5.2259455
20
60.7862174
40
0.7045164
50
188.7216633
51
204.8239753
0
ARC
8
DEFAULT_255_1_388
10
5.450623
20
60.8240387
40
0.9323368
50
180.3722704
51
188.9253909
0
ARC
8
DEFAULT_255_1_388
10
5.4475792
20
60.9173416
40
0.929284
50
169.5253055
51
180.2766048
0
ARC
8
DEFAULT_255_1_388
10
5.2335591
20
60.9567024
40
0.7116745
50
155.8314601
51
169.5088611
0
ARC
8
DEFAULT_255_1_388
10
5.0895054
20
61.0235312
40
0.5528904
50
139.6259579
51
156.0379072
0
ARC
8
DEFAULT_255_1_388
10
5.0231588
20
61.0769143
40
0.4677708
50
122.6414784
51
139.3431662
0
ARC
8
DEFAULT_255_1_388
10
5.0344842
20
61.0562787
40
0.4912586
50
93.0224537
51
122.4556091
0
ARC
8
DEFAULT_255_1_388
10
5.0466363
20
60.9476776
40
0.6003837
50
89.9756766
51
93.6340839
0
ARC
8
DEFAULT_255_1_388
10
5.0509961
20
60.9925879
40
0.5554884
50
73.7463329
51
90.4234008
0
ARC
8
DEFAULT_255_1_388
10
5.0707434
20
61.0690772
40
0.4765353
50
57.663051
51
73.4516911
0
ARC
8
DEFAULT_255_1_388
10
5.0698472
20
61.0715108
40
0.4749629
50
29.1441355
51
57.4146687
0
ARC
8
DEFAULT_255_1_388
10
4.9646283
20
61.0058046
40
0.5988917
50
24.0985653
51
29.732054
0
ARC
8
DEFAULT_255_1_388
10
4.8483915
20
60.9576154
40
0.7246823
50
8.6654943
51
23.8241215
0
ARC
8
DEFAULT_255_1_388
10
4.5970333
20
60.9166037
40
0.9793537
50
359.7807044
51
8.8218476
0
ARC
8
DEFAULT_255_1_388
10
4.4680038
20
60.9194731
40
0.9358078
50
359.7054632
51
8.0359751
0
ARC
8
DEFAULT_255_1_388
10
4.8055089
20
60.9686252
40
0.5947474
50
7.8926278
51
20.2962188
0
ARC
8
DEFAULT_255_1_388
10
4.9885939
20
61.0361367
40
0.3996117
50
20.3231056
51
36.4990255
0
ARC
8
DEFAULT_255_1_388
10
5.0657237
20
61.0955399
40
0.3022818
50
36.1436715
51
85.6627846
0
ARC
8
DEFAULT_255_1_388
10
5.0474492
20
60.9785881
40
0.4203853
50
84.3845912
51
90.076054
0
ARC
8
DEFAULT_255_1_388
10
5.0426847
20
61.0528416
40
0.346157
50
89.3037228
51
109.9046209
0
ARC
8
DEFAULT_255_1_388
10
5.032268
20
61.0958379
40
0.3022217
50
110.8229774
51
143.917961
0
ARC
8
DEFAULT_255_1_388
10
5.1373039
20
61.0156455
40
0.434348
50
143.5289166
51
163.2980252
0
ARC
8
DEFAULT_255_1_388
10
5.3519326
20
60.9481685
40
0.659321
50
163.0418884
51
174.3139873
0
ARC
8
DEFAULT_255_1_388
10
5.6224291
20
60.9169378
40
0.9315905
50
174.050934
51
179.4174954
0
ARC
8
DEFAULT_255_1_388
10
5.5656235
20
60.8250382
40
0.8747493
50
179.6928582
51
188.7908948
0
ARC
8
DEFAULT_255_1_388
10
5.2660035
20
60.7771086
40
0.5713262
50
188.6328449
51
202.5630732
0
ARC
8
DEFAULT_255_1_388
10
5.1248872
20
60.7204142
40
0.4192612
50
202.8078931
51
216.1195888
0
ARC
8
DEFAULT_255_1_388
10
5.0338389
20
60.6471479
40
0.3025752
50
215.0755613
51
264.6379773
0
ARC
8
DEFAULT_255_1_388
10
5.0481226
20
60.7406376
40
0.3970284
50
263.8464302
51
270.0830805
0
ARC
8
DEFAULT_255_1_388
10
5.0527771
20
60.7115808
40
0.3679937
50
269.3649295
51
287.5149684
0
ARC
8
DEFAULT_255_1_388
10
5.0728212
20
60.6387714
40
0.2925408
50
288.0629019
51
323.8115617
0
ARC
8
DEFAULT_255_1_388
10
4.9748188
20
60.7118754
40
0.4148018
50
323.6546541
51
342.6591359
0
ARC
8
DEFAULT_255_1_388
10
4.7462846
20
60.786228
40
0.6551163
50
342.4092446
51
353.6451501
0
ARC
8
DEFAULT_255_1_388
10
4.4277639
20
60.8258565
40
0.9760748
50
353.4027553
51
359.4846611
0
LINE
8
DEFAULT_255_1_388
10
5.8781705
20
61.5299898
11
6.2522462
21
60.4448089
0
LINE
8
DEFAULT_255_1_388
10
6.2522462
20
60.4448089
11
6.628129
21
61.5299898
0
LINE
8
DEFAULT_255_1_388
10
6.628129
20
61.5299898
11
6.8178775
21
61.5299898
0
LINE
8
DEFAULT_255_1_388
10
6.8178775
20
61.5299898
11
6.3299527
21
60.2144
0
LINE
8
DEFAULT_255_1_388
10
6.3299527
20
60.2144
11
6.1763468
21
60.2144
0
LINE
8
DEFAULT_255_1_388
10
6.1763468
20
60.2144
11
5.6893255
21
61.5299898
0
LINE
8
DEFAULT_255_1_388
10
5.6893255
20
61.5299898
11
5.8781705
21
61.5299898
0
LINE
8
DEFAULT_255_1_388
10
4.4470024
20
68.1519
11
3.9907024
21
68.1519
0
LINE
8
DEFAULT_255_1_388
10
3.9907024
20
68.1519
11
3.9907024
21
69.4674898
0
LINE
8
DEFAULT_255_1_388
10
3.9907024
20
69.4674898
11
4.4207991
21
69.4674898
0
LINE
8
DEFAULT_255_1_388
10
4.4533274
20
68.7672274
11
4.1641868
21
68.7672274
0
LINE
8
DEFAULT_255_1_388
10
4.1641868
20
68.7672274
11
4.1641868
21
68.2937596
0
LINE
8
DEFAULT_255_1_388
10
4.1641868
20
68.2937596
11
4.4506167
21
68.2937596
0
LINE
8
DEFAULT_255_1_388
10
4.1641868
20
69.3247267
11
4.1641868
21
68.9063763
0
LINE
8
DEFAULT_255_1_388
10
4.1641868
20
68.9063763
11
4.4262205
21
68.9063763
0
LINE
8
DEFAULT_255_1_388
10
4.4207991
20
69.3247267
11
4.1641868
21
69.3247267
0
ARC
8
DEFAULT_255_1_388
10
4.4250411
20
68.6386824
40
0.8288183
50
82.1256322
51
90.2932506
0
ARC
8
DEFAULT_255_1_388
10
4.4687986
20
68.944459
40
0.5199321
50
69.9044202
51
82.2857574
0
ARC
8
DEFAULT_255_1_388
10
4.5329979
20
69.1179993
40
0.3348993
50
51.1840204
51
70.018125
0
ARC
8
DEFAULT_255_1_388
10
4.5616811
20
69.1596945
40
0.2844579
50
12.1018086
51
50.421322
0
ARC
8
DEFAULT_255_1_388
10
4.4059682
20
69.1205937
40
0.4449429
50
359.5252354
51
12.8212369
0
ARC
8
DEFAULT_255_1_388
10
4.5837112
20
69.1127943
40
0.2672162
50
323.4907456
51
0.8818258
0
ARC
8
DEFAULT_255_1_388
10
4.5366525
20
69.1491523
40
0.3266736
50
298.6824053
51
323.2758285
0
ARC
8
DEFAULT_255_1_388
10
4.4959816
20
69.2167509
40
0.4055105
50
293.1994739
51
299.139634
0
ARC
8
DEFAULT_255_1_388
10
4.5716766
20
68.5321651
40
0.3229926
50
54.0009997
51
74.9168635
0
ARC
8
DEFAULT_255_1_388
10
4.5847693
20
68.5543511
40
0.2973581
50
36.3578854
51
53.5293172
0
ARC
8
DEFAULT_255_1_388
10
4.5705061
20
68.544185
40
0.3148715
50
4.8189348
51
36.3090187
0
ARC
8
DEFAULT_255_1_388
10
4.4828085
20
68.5318383
40
0.4033265
50
359.9373213
51
5.5201284
0
ARC
8
DEFAULT_255_1_388
10
4.4463415
20
68.5272733
40
0.4398126
50
344.7479357
51
0.5372278
0
ARC
8
DEFAULT_255_1_388
10
4.5578314
20
68.4972205
40
0.3243441
50
311.1785587
51
344.6887681
0
ARC
8
DEFAULT_255_1_388
10
4.5249857
20
68.5381084
40
0.3767511
50
286.0417804
51
310.8440924
0
ARC
8
DEFAULT_255_1_388
10
4.4679266
20
68.7233885
40
0.5705957
50
274.1044074
51
286.4070149
0
ARC
8
DEFAULT_255_1_388
10
4.4480482
20
68.9351901
40
0.7832907
50
269.9235077
51
274.4458593
0
ARC
8
DEFAULT_255_1_388
10
4.45322
20
68.6720462
40
0.3782955
50
269.6057074
51
281.3740795
0
ARC
8
DEFAULT_255_1_388
10
4.4791698
20
68.5490569
40
0.2526069
50
281.105298
51
302.5134029
0
ARC
8
DEFAULT_255_1_388
10
4.4957086
20
68.5193944
40
0.2187131
50
303.0365425
51
311.8818034
0
ARC
8
DEFAULT_255_1_388
10
4.5037263
20
68.5098602
40
0.2062624
50
311.9916937
51
351.7143773
0
ARC
8
DEFAULT_255_1_388
10
4.4118288
20
68.5284271
40
0.2999202
50
350.7343295
51
0.2221526
0
ARC
8
DEFAULT_255_1_388
10
4.3997376
20
68.534787
40
0.3120525
50
359.045729
51
17.2295312
0
ARC
8
DEFAULT_255_1_388
10
4.5166406
20
68.5695155
40
0.1901144
50
17.6685208
51
78.9940245
0
ARC
8
DEFAULT_255_1_388
10
4.4584767
20
68.3607011
40
0.4065575
50
76.565218
51
90.7103392
0
LINE
8
DEFAULT_255_1_388
10
4.4534364
20
68.7672274
11
4.4533274
21
68.7672274
0
ARC
8
DEFAULT_255_1_388
10
4.4287593
20
69.2759949
40
0.3696273
50
269.6064514
51
281.4533785
0
ARC
8
DEFAULT_255_1_388
10
4.4538234
20
69.1577283
40
0.2487412
50
281.2044438
51
302.5143998
0
ARC
8
DEFAULT_255_1_388
10
4.4692488
20
69.1299576
40
0.2170405
50
303.0211308
51
309.8378766
0
ARC
8
DEFAULT_255_1_388
10
4.4898605
20
69.1068486
40
0.1860946
50
309.5229446
51
356.9509628
0
ARC
8
DEFAULT_255_1_388
10
4.4152731
20
69.1175831
40
0.2612347
50
355.4699226
51
0.0498632
0
ARC
8
DEFAULT_255_1_388
10
4.3838404
20
69.1200789
40
0.2926762
50
359.5558955
51
11.2092924
0
ARC
8
DEFAULT_255_1_388
10
4.4915372
20
69.1423667
40
0.1827036
50
10.9185717
51
31.322519
0
ARC
8
DEFAULT_255_1_388
10
4.523692
20
69.1602571
40
0.1459418
50
31.8850633
51
52.1415586
0
ARC
8
DEFAULT_255_1_388
10
4.4928349
20
69.1166674
40
0.1993088
50
52.8283418
51
71.9850132
0
ARC
8
DEFAULT_255_1_388
10
4.450551
20
68.9922158
40
0.3307407
50
71.686634
51
82.8453416
0
ARC
8
DEFAULT_255_1_388
10
4.4236157
20
68.7886892
40
0.536039
50
82.6981895
51
90.1730083
0
ARC
8
DEFAULT_255_1_388
10
4.4210989
20
68.8765836
40
0.4481429
50
89.8851568
51
90.0383283
0
LINE
8
DEFAULT_255_1_388
10
5.6487432
20
69.4738148
11
5.6487432
21
68.1519
0
LINE
8
DEFAULT_255_1_388
10
5.6487432
20
68.1519
11
5.4806802
21
68.1519
0
LINE
8
DEFAULT_255_1_388
10
5.4806802
20
68.1519
11
5.4806802
21
69.265995
0
LINE
8
DEFAULT_255_1_388
10
5.4806802
20
69.265995
11
5.1436506
21
69.1422066
0
LINE
8
DEFAULT_255_1_388
10
5.1436506
20
69.1422066
11
5.1436506
21
69.2940055
0
LINE
8
DEFAULT_255_1_388
10
5.1436506
20
69.2940055
11
5.6225398
21
69.4738148
0
LINE
8
DEFAULT_255_1_388
10
5.6225398
20
69.4738148
11
5.6487432
21
69.4738148
0
LINE
8
DEFAULT_255_1_388
10
4.8424708
20
77.2775873
11
4.1187157
21
76.2312596
0
LINE
8
DEFAULT_255_1_388
10
4.1187157
20
76.2312596
11
4.8713849
21
76.2312596
0
LINE
8
DEFAULT_255_1_388
10
4.8713849
20
76.2312596
11
4.8713849
21
76.0894
0
LINE
8
DEFAULT_255_1_388
10
4.8713849
20
76.0894
11
3.9136065
21
76.0894
0
LINE
8
DEFAULT_255_1_388
10
3.9136065
20
76.0894
11
3.9136065
21
76.2195133
0
LINE
8
DEFAULT_255_1_388
10
3.9136065
20
76.2195133
11
4.634651
21
77.2622267
0
LINE
8
DEFAULT_255_1_388
10
4.634651
20
77.2622267
11
3.9253529
21
77.2622267
0
LINE
8
DEFAULT_255_1_388
10
3.9253529
20
77.2622267
11
3.9253529
21
77.4049898
0
LINE
8
DEFAULT_255_1_388
10
3.9253529
20
77.4049898
11
4.8424708
21
77.4049898
0
LINE
8
DEFAULT_255_1_388
10
4.8424708
20
77.4049898
11
4.8424708
21
77.2775873
0
LINE
8
DEFAULT_255_1_388
10
5.6023685
20
77.4113148
11
5.6023685
21
76.0894
0
LINE
8
DEFAULT_255_1_388
10
5.6023685
20
76.0894
11
5.4343055
21
76.0894
0
LINE
8
DEFAULT_255_1_388
10
5.4343055
20
76.0894
11
5.4343055
21
77.203495
0
LINE
8
DEFAULT_255_1_388
10
5.4343055
20
77.203495
11
5.097276
21
77.0797066
0
LINE
8
DEFAULT_255_1_388
10
5.097276
20
77.0797066
11
5.097276
21
77.2315055
0
LINE
8
DEFAULT_255_1_388
10
5.097276
20
77.2315055
11
5.5761651
21
77.4113148
0
LINE
8
DEFAULT_255_1_388
10
5.5761651
20
77.4113148
11
5.6023685
21
77.4113148
0
LINE
8
DEFAULT_255_1_388
10
4.9729637
20
84.0269
11
4.8473682
21
84.3702545
0
LINE
8
DEFAULT_255_1_388
10
4.8473682
20
84.3702545
11
4.2961939
21
84.3702545
0
LINE
8
DEFAULT_255_1_388
10
4.2961939
20
84.3702545
11
4.1724056
21
84.0269
0
LINE
8
DEFAULT_255_1_388
10
4.1724056
20
84.0269
11
3.9934998
21
84.0269
0
LINE
8
DEFAULT_255_1_388
10
3.9934998
20
84.0269
11
4.4958816
21
85.3424898
0
LINE
8
DEFAULT_255_1_388
10
4.4958816
20
85.3424898
11
4.6476805
21
85.3424898
0
LINE
8
DEFAULT_255_1_388
10
4.6476805
20
85.3424898
11
5.1509659
21
84.0269
0
LINE
8
DEFAULT_255_1_388
10
5.1509659
20
84.0269
11
4.9729637
21
84.0269
0
LINE
8
DEFAULT_255_1_388
10
4.5717811
20
85.1283451
11
4.3486006
21
84.5130177
0
LINE
8
DEFAULT_255_1_388
10
4.3486006
20
84.5130177
11
4.795865
21
84.5130177
0
LINE
8
DEFAULT_255_1_388
10
4.795865
20
84.5130177
11
4.5717811
21
85.1283451
0
LINE
8
DEFAULT_255_1_388
10
5.8340606
20
85.3488148
11
5.8340606
21
84.0269
0
LINE
8
DEFAULT_255_1_388
10
5.8340606
20
84.0269
11
5.6659976
21
84.0269
0
LINE
8
DEFAULT_255_1_388
10
5.6659976
20
84.0269
11
5.6659976
21
85.140995
0
LINE
8
DEFAULT_255_1_388
10
5.6659976
20
85.140995
11
5.3289681
21
85.0172066
0
LINE
8
DEFAULT_255_1_388
10
5.3289681
20
85.0172066
11
5.3289681
21
85.1690055
0
LINE
8
DEFAULT_255_1_388
10
5.3289681
20
85.1690055
11
5.8078572
21
85.3488148
0
LINE
8
DEFAULT_255_1_388
10
5.8078572
20
85.3488148
11
5.8340606
21
85.3488148
0
ENDSEC
0
EOF