0
SECTION
2
HEADER
9
$MEASUREMENT
70
1
0
ENDSEC
0
SECTION
2
TABLES
0
TABLE
2
LTYPE
0
LTYPE
72
65
70
64
2
CONTINUOUS
3
______
73
0
40
0
0
ENDTAB
0
TABLE
2
LAYER
0
LAYER
2
DEFAULT_255_2_778
70
0
62
255
6
CONTINUOUS
0
LAYER
2
DEFAULT_255_1_234
70
0
62
255
6
CONTINUOUS
0
ENDTAB
0
ENDSEC
0
SECTION
2
ENTITIES
0
ARC
8
DEFAULT_255_2_778
10
3.5700693
20
99.6176527
40
0.7914215
50
129.1312896
51
180.1450914
0
ARC
8
DEFAULT_255_2_778
10
3.5703345
20
99.6181398
40
0.7912112
50
89.854026
51
129.1684493
0
ARC
8
DEFAULT_255_2_778
10
25.7993937
20
99.6178263
40
0.7915249
50
39.4792447
51
90.147911
0
ARC
8
DEFAULT_255_2_778
10
25.7999935
20
99.617673
40
0.7911595
50
359.8533901
51
39.5154338
0
ARC
8
DEFAULT_255_2_778
10
25.7996693
20
-1.9863996
40
0.7914836
50
309.4761667
51
0.1482649
0
ARC
8
DEFAULT_255_2_778
10
25.799398
20
-1.9868307
40
0.7913235
50
269.8517415
51
309.511178
0
ARC
8
DEFAULT_255_2_778
10
3.570342
20
-1.9867725
40
0.7913815
50
219.1282118
51
270.1454017
0
ARC
8
DEFAULT_255_2_778
10
3.5700247
20
-1.98639
40
0.7913769
50
179.8524075
51
219.1641908
0
LINE
8
DEFAULT_255_2_778
10
3.5723503
20
100.4093486
11
25.7973503
21
100.4093486
0
LINE
8
DEFAULT_255_2_778
10
26.5911503
20
99.6156486
11
26.5911503
21
-1.9843514
0
LINE
8
DEFAULT_255_2_778
10
25.7973503
20
-2.7781514
11
3.5723503
21
-2.7781514
0
LINE
8
DEFAULT_255_2_778
10
2.7786503
20
-1.9843514
11
2.7786503
21
99.6156486
0
LINE
8
DEFAULT_255_1_234
10
11.0229879
20
0.5181211
11
11.0229879
21
-0.6513
0
LINE
8
DEFAULT_255_1_234
10
11.0229879
20
-0.6513
11
10.8679753
21
-0.6513
0
LINE
8
DEFAULT_255_1_234
10
10.8679753
20
-0.6513
11
10.2792489
21
0.249861
0
LINE
8
DEFAULT_255_1_234
10
10.2792489
20
0.249861
11
10.2792489
21
-0.6513
0
LINE
8
DEFAULT_255_1_234
10
10.2792489
20
-0.6513
11
10.1242364
21
-0.6513
0
LINE
8
DEFAULT_255_1_234
10
10.1242364
20
-0.6513
11
10.1242364
21
0.5181211
0
LINE
8
DEFAULT_255_1_234
10
10.1242364
20
0.5181211
11
10.2792489
21
0.5181211
0
LINE
8
DEFAULT_255_1_234
10
10.2792489
20
0.5181211
11
10.8695817
21
-0.3870558
0
LINE
8
DEFAULT_255_1_234
10
10.8695817
20
-0.3870558
11
10.8695817
21
0.5181211
0
LINE
8
DEFAULT_255_1_234
10
10.8695817
20
0.5181211
11
11.0229879
21
0.5181211
0
LINE
8
DEFAULT_255_1_234
10
11.4101177
20
0.5181211
11
11.6920317
21
0.0699501
0
LINE
8
DEFAULT_255_1_234
10
11.6920317
20
0.0699501
11
11.9723394
21
0.5181211
0
LINE
8
DEFAULT_255_1_234
10
11.9723394
20
0.5181211
11
12.1538566
21
0.5181211
0
LINE
8
DEFAULT_255_1_234
10
12.1538566
20
0.5181211
11
11.7843967
21
-0.0617704
0
LINE
8
DEFAULT_255_1_234
10
11.7843967
20
-0.0617704
11
12.1626916
21
-0.6513
0
LINE
8
DEFAULT_255_1_234
10
12.1626916
20
-0.6513
11
11.9795679
21
-0.6513
0
LINE
8
DEFAULT_255_1_234
10
11.9795679
20
-0.6513
11
11.6920317
21
-0.1950973
0
LINE
8
DEFAULT_255_1_234
10
11.6920317
20
-0.1950973
11
11.4028891
21
-0.6513
0
LINE
8
DEFAULT_255_1_234
10
11.4028891
20
-0.6513
11
11.2205687
21
-0.6513
0
LINE
8
DEFAULT_255_1_234
10
11.2205687
20
-0.6513
11
11.5996667
21
-0.0617704
0
LINE
8
DEFAULT_255_1_234
10
11.5996667
20
-0.0617704
11
11.2294036
21
0.5181211
0
LINE
8
DEFAULT_255_1_234
10
11.2294036
20
0.5181211
11
11.4101177
21
0.5181211
0
LINE
8
DEFAULT_255_1_234
10
12.5907832
20
-0.0938974
11
12.5907832
21
-0.2151766
0
LINE
8
DEFAULT_255_1_234
10
12.5907832
20
-0.2151766
11
12.1988344
21
-0.2151766
0
LINE
8
DEFAULT_255_1_234
10
12.1988344
20
-0.2151766
11
12.1988344
21
-0.0938974
0
LINE
8
DEFAULT_255_1_234
10
12.1988344
20
-0.0938974
11
12.5907832
21
-0.0938974
0
LINE
8
DEFAULT_255_1_234
10
13.4196586
20
0.0153343
11
13.4196586
21
-0.110764
0
LINE
8
DEFAULT_255_1_234
10
13.4196586
20
-0.110764
11
12.9128559
21
-0.110764
0
LINE
8
DEFAULT_255_1_234
10
12.9128559
20
-0.110764
11
12.9128559
21
-0.5252017
0
LINE
8
DEFAULT_255_1_234
10
12.9128559
20
-0.5252017
11
13.5015823
21
-0.5252017
0
LINE
8
DEFAULT_255_1_234
10
13.5015823
20
-0.5252017
11
13.5015823
21
-0.6513
0
LINE
8
DEFAULT_255_1_234
10
13.5015823
20
-0.6513
11
12.7586465
21
-0.6513
0
LINE
8
DEFAULT_255_1_234
10
12.7586465
20
-0.6513
11
12.7586465
21
0.5181211
0
LINE
8
DEFAULT_255_1_234
10
12.7586465
20
0.5181211
11
13.4935506
21
0.5181211
0
LINE
8
DEFAULT_255_1_234
10
13.4935506
20
0.5181211
11
13.4935506
21
0.3912196
0
LINE
8
DEFAULT_255_1_234
10
13.4935506
20
0.3912196
11
12.9128559
21
0.3912196
0
LINE
8
DEFAULT_255_1_234
10
12.9128559
20
0.3912196
11
12.9128559
21
0.0153343
0
LINE
8
DEFAULT_255_1_234
10
12.9128559
20
0.0153343
11
13.4196586
21
0.0153343
0
LINE
8
DEFAULT_255_1_234
10
14.3987275
20
-0.2802337
11
14.55374
21
-0.2802337
0
LINE
8
DEFAULT_255_1_234
10
13.6533822
20
-0.1212053
11
13.6533822
21
-0.0087609
0
LINE
8
DEFAULT_255_1_234
10
14.55374
20
0.1422357
11
14.3987275
21
0.1422357
0
LINE
8
DEFAULT_255_1_234
10
13.8083947
20
-0.0127768
11
13.8083947
21
-0.1260243
0
ARC
8
DEFAULT_255_1_234
10
14.0056787
20
-0.2205154
40
0.5513052
50
340.1774281
51
353.7814284
0
ARC
8
DEFAULT_255_1_234
10
14.1628139
20
-0.2790418
40
0.3836379
50
311.4558989
51
340.4421614
0
ARC
8
DEFAULT_255_1_234
10
14.1594808
20
-0.2679472
40
0.3941894
50
282.4333181
51
310.7513653
0
ARC
8
DEFAULT_255_1_234
10
14.1155547
20
-0.0864321
40
0.5809175
50
269.9358511
51
282.809604
0
ARC
8
DEFAULT_255_1_234
10
14.1103613
20
0.0593212
40
0.7266847
50
270.0021091
51
270.3581957
0
ARC
8
DEFAULT_255_1_234
10
14.105103
20
-0.2007415
40
0.4666519
50
250.7884749
51
270.6489167
0
ARC
8
DEFAULT_255_1_234
10
14.0882865
20
-0.2644681
40
0.4009729
50
219.3627325
51
250.0611886
0
ARC
8
DEFAULT_255_1_234
10
14.1712076
20
-0.1939958
40
0.5097822
50
193.5479632
51
219.5756669
0
ARC
8
DEFAULT_255_1_234
10
14.4083697
20
-0.1324081
40
0.7547848
50
181.1218675
51
193.87563
0
ARC
8
DEFAULT_255_1_234
10
14.6153878
20
-0.121342
40
0.9620055
50
179.9918545
51
181.5394234
0
ARC
8
DEFAULT_255_1_234
10
14.430298
20
-0.0050212
40
0.7769248
50
169.5837241
51
180.2757934
0
ARC
8
DEFAULT_255_1_234
10
14.2465918
20
0.0289229
40
0.590109
50
155.0365899
51
169.6003176
0
ARC
8
DEFAULT_255_1_234
10
14.1330382
20
0.0836677
40
0.4640625
50
136.783148
51
155.2472683
0
ARC
8
DEFAULT_255_1_234
10
14.0940859
20
0.1167562
40
0.4130255
50
121.7633186
51
136.428115
0
ARC
8
DEFAULT_255_1_234
10
14.1075821
20
0.0918227
40
0.4413323
50
95.6459699
51
121.5490577
0
ARC
8
DEFAULT_255_1_234
10
14.1233103
20
-0.0190051
40
0.55319
50
89.924208
51
96.1377933
0
ARC
8
DEFAULT_255_1_234
10
14.1283536
20
-0.0071458
40
0.5413475
50
76.6779277
51
90.4563316
0
ARC
8
DEFAULT_255_1_234
10
14.1677159
20
0.1519114
40
0.3775041
50
47.485847
51
76.9287264
0
ARC
8
DEFAULT_255_1_234
10
14.1530132
20
0.1419159
40
0.3948286
50
16.5424086
51
46.8933463
0
ARC
8
DEFAULT_255_1_234
10
13.9922289
20
0.0890861
40
0.564021
50
5.4072051
51
17.0365086
0
ARC
8
DEFAULT_255_1_234
10
13.8483306
20
0.0659679
40
0.5556559
50
7.8891745
51
15.9239216
0
ARC
8
DEFAULT_255_1_234
10
14.0470319
20
0.1236631
40
0.3487515
50
15.7653144
51
27.9410532
0
ARC
8
DEFAULT_255_1_234
10
14.1574537
20
0.182779
40
0.2235026
50
27.8166557
51
46.4008329
0
ARC
8
DEFAULT_255_1_234
10
14.162418
20
0.1822082
40
0.2205286
50
47.4371857
51
75.0698205
0
ARC
8
DEFAULT_255_1_234
10
14.1315574
20
0.0747765
40
0.3322915
50
74.7008593
51
87.8124495
0
ARC
8
DEFAULT_255_1_234
10
14.1242262
20
-0.0308156
40
0.4380987
50
87.3814673
51
90.0240855
0
ARC
8
DEFAULT_255_1_234
10
14.1203805
20
0.0869291
40
0.3203749
50
89.3451631
51
108.5745436
0
ARC
8
DEFAULT_255_1_234
10
14.106691
20
0.1382908
40
0.2673494
50
109.2998449
51
143.3037509
0
ARC
8
DEFAULT_255_1_234
10
14.1828983
20
0.0796881
40
0.3634757
50
143.0753173
51
163.1916937
0
ARC
8
DEFAULT_255_1_234
10
14.3780711
20
0.0180967
40
0.5681262
50
162.9373603
51
174.6208611
0
ARC
8
DEFAULT_255_1_234
10
14.6406753
20
-0.010699
40
0.8322832
50
174.3419979
51
180.1430411
0
ARC
8
DEFAULT_255_1_234
10
14.5475909
20
-0.1301302
40
0.7392076
50
179.6817502
51
189.150529
0
ARC
8
DEFAULT_255_1_234
10
14.2975157
20
-0.171781
40
0.4856932
50
188.9910863
51
203.5773039
0
ARC
8
DEFAULT_255_1_234
10
14.189549
20
-0.2165789
40
0.3688271
50
203.9077269
51
215.1312379
0
ARC
8
DEFAULT_255_1_234
10
14.0972584
20
-0.2881059
40
0.2522457
50
213.9071664
51
263.8849284
0
ARC
8
DEFAULT_255_1_234
10
14.1097913
20
-0.2096482
40
0.3316174
50
263.1758525
51
270.1031083
0
ARC
8
DEFAULT_255_1_234
10
14.1130004
20
-0.0849635
40
0.4563091
50
269.6719807
51
279.0609165
0
ARC
8
DEFAULT_255_1_234
10
14.1396773
20
-0.2462093
40
0.2928759
50
278.8750225
51
293.6346586
0
ARC
8
DEFAULT_255_1_234
10
14.1716981
20
-0.32141
40
0.2111472
50
293.8553404
51
310.0518804
0
ARC
8
DEFAULT_255_1_234
10
14.1721835
20
-0.3276484
40
0.2060917
50
311.0646779
51
332.0108348
0
ARC
8
DEFAULT_255_1_234
10
14.0529562
20
-0.2619022
40
0.3422352
50
331.6588543
51
343.2878891
0
ARC
8
DEFAULT_255_1_234
10
13.8467077
20
-0.1985202
40
0.5580003
50
343.1446044
51
351.010618
0
ARC
8
DEFAULT_255_1_234
10
13.6925723
20
-0.1704129
40
0.7146438
50
350.7157277
51
351.1602153
0
LINE
8
DEFAULT_255_1_234
10
15.4589169
20
0.0402327
11
15.4589169
21
-0.1525291
0
LINE
8
DEFAULT_255_1_234
10
14.7208002
20
-0.1726084
11
14.7208002
21
0.0257755
0
LINE
8
DEFAULT_255_1_234
10
15.3103298
20
-0.1926877
11
15.3103298
21
0.0506739
0
LINE
8
DEFAULT_255_1_234
10
14.8693874
20
0.0619184
11
14.8693874
21
-0.1758211
0
ARC
8
DEFAULT_255_1_234
10
14.2342059
20
-0.1574195
40
1.2247208
50
353.8441951
51
0.2287902
0
ARC
8
DEFAULT_255_1_234
10
14.6981563
20
-0.2092194
40
0.7578929
50
344.4934747
51
353.9765454
0
ARC
8
DEFAULT_255_1_234
10
14.9974153
20
-0.2943019
40
0.4467846
50
329.2803592
51
344.7472793
0
ARC
8
DEFAULT_255_1_234
10
15.0966978
20
-0.3487982
40
0.3336173
50
324.9352394
51
328.6160465
0
ARC
8
DEFAULT_255_1_234
10
15.1344086
20
-0.3751573
40
0.2876076
50
280.580143
51
324.9173126
0
ARC
8
DEFAULT_255_1_234
10
15.0942879
20
-0.2080901
40
0.4592847
50
269.5977311
51
281.6734359
0
ARC
8
DEFAULT_255_1_234
10
15.0870785
20
-0.2200827
40
0.4472986
50
256.6228859
51
270.51044
0
ARC
8
DEFAULT_255_1_234
10
15.0468763
20
-0.3749123
40
0.2873874
50
215.8618325
51
257.2788573
0
ARC
8
DEFAULT_255_1_234
10
15.1489794
20
-0.3064023
40
0.4102928
50
197.9693508
51
215.2623606
0
ARC
8
DEFAULT_255_1_234
10
15.397491
20
-0.2225291
40
0.6725652
50
187.8816417
51
198.2346507
0
ARC
8
DEFAULT_255_1_234
10
15.7933118
20
-0.1653921
40
1.0724845
50
180.8976217
51
188.0055519
0
ARC
8
DEFAULT_255_1_234
10
16.0733306
20
-0.1550223
40
1.3526448
50
180.7449369
51
181.1510016
0
ARC
8
DEFAULT_255_1_234
10
15.9156035
20
0.0306042
40
1.1948131
50
173.7675579
51
180.231553
0
ARC
8
DEFAULT_255_1_234
10
15.4638182
20
0.0816666
40
0.7401564
50
164.3058563
51
173.9002247
0
ARC
8
DEFAULT_255_1_234
10
15.1726251
20
0.1655656
40
0.4371288
50
148.7922025
51
164.568378
0
ARC
8
DEFAULT_255_1_234
10
15.0774703
20
0.2186929
40
0.3282386
50
144.5883898
51
148.1176286
0
ARC
8
DEFAULT_255_1_234
10
15.0431601
20
0.2426315
40
0.2864044
50
101.6440918
51
144.514236
0
ARC
8
DEFAULT_255_1_234
10
15.0856668
20
0.0737069
40
0.4604934
50
89.5284041
51
102.5819763
0
ARC
8
DEFAULT_255_1_234
10
15.0935755
20
0.0698018
40
0.464401
50
77.0437873
51
90.5081339
0
ARC
8
DEFAULT_255_1_234
10
15.1337757
20
0.2340615
40
0.2953195
50
48.2778575
51
77.4994676
0
ARC
8
DEFAULT_255_1_234
10
15.1410388
20
0.2469746
40
0.2808655
50
36.3142134
51
47.6305865
0
ARC
8
DEFAULT_255_1_234
10
15.0541695
20
0.1884515
40
0.3855453
50
18.2931786
51
35.6769206
0
ARC
8
DEFAULT_255_1_234
10
14.7998454
20
0.1011593
40
0.654423
50
8.024666
51
18.5605216
0
ARC
8
DEFAULT_255_1_234
10
14.3835374
20
0.0396792
40
1.0752407
50
1.1274072
51
8.1718305
0
ARC
8
DEFAULT_255_1_234
10
14.0599565
20
0.0269885
40
1.3990231
50
0.5424119
51
1.3863029
0
ARC
8
DEFAULT_255_1_234
10
14.2420942
20
0.0542342
40
1.0682415
50
359.8090433
51
4.9407866
0
ARC
8
DEFAULT_255_1_234
10
14.6630956
20
0.0918113
40
0.6455691
50
4.8362157
51
12.2904523
0
ARC
8
DEFAULT_255_1_234
10
14.9386071
20
0.1531965
40
0.3633074
50
12.0805627
51
23.8173984
0
ARC
8
DEFAULT_255_1_234
10
15.0559777
20
0.2028919
40
0.2358723
50
24.2871213
51
31.3935614
0
ARC
8
DEFAULT_255_1_234
10
15.1084474
20
0.2372233
40
0.1732111
50
30.7407893
51
82.4657128
0
ARC
8
DEFAULT_255_1_234
10
15.0904608
20
0.1488691
40
0.263235
50
81.1060089
51
90.2184952
0
ARC
8
DEFAULT_255_1_234
10
15.0868907
20
0.1746924
40
0.2374236
50
89.3806855
51
105.6762551
0
ARC
8
DEFAULT_255_1_234
10
15.0685538
20
0.2413567
40
0.1682847
50
105.7981136
51
149.7388061
0
ARC
8
DEFAULT_255_1_234
10
15.1749616
20
0.177395
40
0.2924306
50
149.4208916
51
163.6286378
0
ARC
8
DEFAULT_255_1_234
10
15.3840504
20
0.113625
40
0.5110213
50
163.3763315
51
172.1410975
0
ARC
8
DEFAULT_255_1_234
10
15.7141223
20
0.0663518
40
0.8444586
50
172.0259487
51
178.0703232
0
ARC
8
DEFAULT_255_1_234
10
16.0171313
20
0.0519906
40
1.1477868
50
177.8631668
51
179.5044149
0
ARC
8
DEFAULT_255_1_234
10
15.9098717
20
-0.1794611
40
1.0404907
50
179.7995573
51
185.2460446
0
ARC
8
DEFAULT_255_1_234
10
15.5055756
20
-0.2177487
40
0.6343885
50
185.1411642
51
193.0079639
0
ARC
8
DEFAULT_255_1_234
10
15.2412229
20
-0.2802359
40
0.3627568
50
192.7897626
51
205.2507664
0
ARC
8
DEFAULT_255_1_234
10
15.1365776
20
-0.3269585
40
0.2481908
50
205.8005384
51
211.2537509
0
ARC
8
DEFAULT_255_1_234
10
15.0842216
20
-0.362042
40
0.1852521
50
210.3789793
51
238.4008143
0
ARC
8
DEFAULT_255_1_234
10
15.0822738
20
-0.3573624
40
0.1882621
50
239.6520629
51
265.9793761
0
ARC
8
DEFAULT_255_1_234
10
15.0907938
20
-0.2901573
40
0.2559272
50
265.1315437
51
270.060332
0
ARC
8
DEFAULT_255_1_234
10
15.0936717
20
-0.3225466
40
0.2235528
50
269.3314664
51
287.2178029
0
ARC
8
DEFAULT_255_1_234
10
15.1074569
20
-0.3728721
40
0.1714108
50
287.7958004
51
329.080874
0
ARC
8
DEFAULT_255_1_234
10
15.0117026
20
-0.313107
40
0.2842745
50
328.6634704
51
343.3325132
0
ARC
8
DEFAULT_255_1_234
10
14.7944046
20
-0.2454137
40
0.5118644
50
343.0499468
51
351.9393422
0
ARC
8
DEFAULT_255_1_234
10
14.4477346
20
-0.1943051
40
0.8622784
50
351.8069023
51
357.7959224
0
ARC
8
DEFAULT_255_1_234
10
14.1241902
20
-0.1775279
40
1.1862365
50
357.5871873
51
359.2677531
0
LINE
8
DEFAULT_255_1_234
10
16.415497
20
-0.5300208
11
16.415497
21
-0.6513
0
LINE
8
DEFAULT_255_1_234
10
16.415497
20
-0.6513
11
15.6492691
21
-0.6513
0
LINE
8
DEFAULT_255_1_234
10
15.6492691
20
-0.6513
11
15.6492691
21
-0.5444779
0
LINE
8
DEFAULT_255_1_234
10
15.6492691
20
-0.5444779
11
16.0540688
21
-0.0947005
0
LINE
8
DEFAULT_255_1_234
10
15.7753674
20
0.1735595
11
15.6267803
21
0.1735595
0
LINE
8
DEFAULT_255_1_234
10
16.1416147
20
-0.1902782
11
15.8283769
21
-0.5300208
0
LINE
8
DEFAULT_255_1_234
10
15.8283769
20
-0.5300208
11
16.415497
21
-0.5300208
0
ARC
8
DEFAULT_255_1_234
10
14.7050521
20
1.0982527
40
1.8008286
50
318.5132453
51
320.7828378
0
ARC
8
DEFAULT_255_1_234
10
15.2337495
20
0.6679426
40
1.1191493
50
320.7372736
51
323.9737074
0
ARC
8
DEFAULT_255_1_234
10
15.6257352
20
0.3839361
40
0.6350923
50
323.8961724
51
328.6421089
0
ARC
8
DEFAULT_255_1_234
10
15.8303947
20
0.2577031
40
0.3946393
50
328.8299013
51
331.789948
0
ARC
8
DEFAULT_255_1_234
10
15.9301126
20
0.2062509
40
0.2824501
50
331.4255242
51
352.9364833
0
ARC
8
DEFAULT_255_1_234
10
15.9437626
20
0.2031976
40
0.2685315
50
353.2248685
51
0.0169286
0
ARC
8
DEFAULT_255_1_234
10
15.9647503
20
0.205495
40
0.2475536
50
359.4866256
51
15.9339782
0
ARC
8
DEFAULT_255_1_234
10
16.0154488
20
0.2191286
40
0.1950618
50
16.1714718
51
43.5284424
0
ARC
8
DEFAULT_255_1_234
10
16.0231797
20
0.2268573
40
0.184134
50
43.4415429
51
83.1661404
0
ARC
8
DEFAULT_255_1_234
10
16.0097715
20
0.1531771
40
0.258926
50
82.160215
51
90.1505798
0
ARC
8
DEFAULT_255_1_234
10
16.0066142
20
0.0994865
40
0.3126255
50
89.5460705
51
102.5418777
0
ARC
8
DEFAULT_255_1_234
10
15.9823229
20
0.2025665
40
0.2067346
50
102.1739365
51
129.2061916
0
ARC
8
DEFAULT_255_1_234
10
15.97443
20
0.2150094
40
0.1921118
50
129.7279328
51
135.7542026
0
ARC
8
DEFAULT_255_1_234
10
15.9865828
20
0.2053045
40
0.2075944
50
136.175737
51
166.3674722
0
ARC
8
DEFAULT_255_1_234
10
16.0872747
20
0.1783182
40
0.3118201
50
165.9092917
51
178.8683903
0
ARC
8
DEFAULT_255_1_234
10
16.1737608
20
0.1736179
40
0.3983935
50
178.438168
51
180.0083905
0
ARC
8
DEFAULT_255_1_234
10
16.0336211
20
0.1775231
40
0.4068601
50
163.2878735
51
180.5581814
0
ARC
8
DEFAULT_255_1_234
10
15.9534472
20
0.199584
40
0.3237344
50
133.454115
51
162.9470031
0
ARC
8
DEFAULT_255_1_234
10
15.9713013
20
0.1806
40
0.349795
50
100.7869394
51
133.4384016
0
ARC
8
DEFAULT_255_1_234
10
16.0060785
20
0.0257319
40
0.5084616
50
89.6605301
51
101.3704185
0
ARC
8
DEFAULT_255_1_234
10
16.0127124
20
0.0318496
40
0.502348
50
78.2171172
51
90.4130393
0
ARC
8
DEFAULT_255_1_234
10
16.0482202
20
0.1942637
40
0.3361092
50
55.9268222
51
78.4888551
0
ARC
8
DEFAULT_255_1_234
10
16.0678642
20
0.2281324
40
0.2970617
50
47.9292255
51
55.4054003
0
ARC
8
DEFAULT_255_1_234
10
16.0780203
20
0.2384502
40
0.2825983
50
4.3347696
51
48.0560701
0
ARC
8
DEFAULT_255_1_234
10
15.9684596
20
0.2214601
40
0.393225
50
359.925209
51
5.5967654
0
ARC
8
DEFAULT_255_1_234
10
16.0113488
20
0.2270816
40
0.3503892
50
337.8914096
51
358.9967724
0
ARC
8
DEFAULT_255_1_234
10
15.73999
20
0.3317706
40
0.6412172
50
326.9135351
51
338.3505194
0
ARC
8
DEFAULT_255_1_234
10
15.3414204
20
0.5872284
40
1.1146189
50
319.6472867
51
327.095818
0
ARC
8
DEFAULT_255_1_234
10
14.9581207
20
0.9034
40
1.6114559
50
317.2586784
51
319.9046139
0
LINE
8
DEFAULT_255_1_234
10
17.0612487
20
0.5237433
11
17.0612487
21
-0.6513
0
LINE
8
DEFAULT_255_1_234
10
17.0612487
20
-0.6513
11
16.9118584
21
-0.6513
0
LINE
8
DEFAULT_255_1_234
10
16.9118584
20
-0.6513
11
16.9118584
21
0.3390133
0
LINE
8
DEFAULT_255_1_234
10
16.9118584
20
0.3390133
11
16.6122746
21
0.2289785
0
LINE
8
DEFAULT_255_1_234
10
16.6122746
20
0.2289785
11
16.6122746
21
0.3639117
0
LINE
8
DEFAULT_255_1_234
10
16.6122746
20
0.3639117
11
17.0379567
21
0.5237433
0
LINE
8
DEFAULT_255_1_234
10
17.0379567
20
0.5237433
11
17.0612487
21
0.5237433
0
LINE
8
DEFAULT_255_1_234
10
18.2627968
20
-0.5300208
11
18.2627968
21
-0.6513
0
LINE
8
DEFAULT_255_1_234
10
18.2627968
20
-0.6513
11
17.4965689
21
-0.6513
0
LINE
8
DEFAULT_255_1_234
10
17.4965689
20
-0.6513
11
17.4965689
21
-0.5444779
0
LINE
8
DEFAULT_255_1_234
10
17.4965689
20
-0.5444779
11
17.9013686
21
-0.0947005
0
LINE
8
DEFAULT_255_1_234
10
17.6226672
20
0.1735595
11
17.4740801
21
0.1735595
0
LINE
8
DEFAULT_255_1_234
10
17.9889145
20
-0.1902782
11
17.6756767
21
-0.5300208
0
LINE
8
DEFAULT_255_1_234
10
17.6756767
20
-0.5300208
11
18.2627968
21
-0.5300208
0
ARC
8
DEFAULT_255_1_234
10
16.5523519
20
1.0982527
40
1.8008286
50
318.5132453
51
320.7828378
0
ARC
8
DEFAULT_255_1_234
10
17.0810493
20
0.6679426
40
1.1191493
50
320.7372736
51
323.9737074
0
ARC
8
DEFAULT_255_1_234
10
17.473035
20
0.3839361
40
0.6350923
50
323.8961724
51
328.6421089
0
ARC
8
DEFAULT_255_1_234
10
17.6776945
20
0.2577031
40
0.3946393
50
328.8299013
51
331.789948
0
ARC
8
DEFAULT_255_1_234
10
17.7774124
20
0.2062509
40
0.2824501
50
331.4255242
51
352.9364833
0
ARC
8
DEFAULT_255_1_234
10
17.7910624
20
0.2031976
40
0.2685315
50
353.2248685
51
0.0169286
0
ARC
8
DEFAULT_255_1_234
10
17.8120501
20
0.205495
40
0.2475536
50
359.4866256
51
15.9339782
0
ARC
8
DEFAULT_255_1_234
10
17.8627486
20
0.2191286
40
0.1950618
50
16.1714718
51
43.5284424
0
ARC
8
DEFAULT_255_1_234
10
17.8704795
20
0.2268573
40
0.184134
50
43.4415429
51
83.1661404
0
ARC
8
DEFAULT_255_1_234
10
17.8570713
20
0.1531771
40
0.258926
50
82.160215
51
90.1505798
0
ARC
8
DEFAULT_255_1_234
10
17.8539141
20
0.0994865
40
0.3126255
50
89.5460705
51
102.5418777
0
ARC
8
DEFAULT_255_1_234
10
17.8296227
20
0.2025665
40
0.2067346
50
102.1739365
51
129.2061916
0
ARC
8
DEFAULT_255_1_234
10
17.8217298
20
0.2150094
40
0.1921118
50
129.7279328
51
135.7542026
0
ARC
8
DEFAULT_255_1_234
10
17.8338826
20
0.2053045
40
0.2075944
50
136.175737
51
166.3674722
0
ARC
8
DEFAULT_255_1_234
10
17.9345745
20
0.1783182
40
0.3118201
50
165.9092917
51
178.8683903
0
ARC
8
DEFAULT_255_1_234
10
18.0210607
20
0.1736179
40
0.3983935
50
178.438168
51
180.0083905
0
ARC
8
DEFAULT_255_1_234
10
17.8809209
20
0.1775231
40
0.4068601
50
163.2878735
51
180.5581814
0
ARC
8
DEFAULT_255_1_234
10
17.800747
20
0.199584
40
0.3237344
50
133.454115
51
162.9470031
0
ARC
8
DEFAULT_255_1_234
10
17.8186011
20
0.1806
40
0.349795
50
100.7869394
51
133.4384016
0
ARC
8
DEFAULT_255_1_234
10
17.8533783
20
0.0257319
40
0.5084616
50
89.6605301
51
101.3704185
0
ARC
8
DEFAULT_255_1_234
10
17.8600122
20
0.0318496
40
0.502348
50
78.2171172
51
90.4130393
0
ARC
8
DEFAULT_255_1_234
10
17.89552
20
0.1942637
40
0.3361092
50
55.9268222
51
78.4888551
0
ARC
8
DEFAULT_255_1_234
10
17.915164
20
0.2281324
40
0.2970617
50
47.9292255
51
55.4054003
0
ARC
8
DEFAULT_255_1_234
10
17.9253201
20
0.2384502
40
0.2825983
50
4.3347696
51
48.0560701
0
ARC
8
DEFAULT_255_1_234
10
17.8157594
20
0.2214601
40
0.393225
50
359.925209
51
5.5967654
0
ARC
8
DEFAULT_255_1_234
10
17.8586486
20
0.2270816
40
0.3503892
50
337.8914096
51
358.9967724
0
ARC
8
DEFAULT_255_1_234
10
17.5872898
20
0.3317706
40
0.6412172
50
326.9135351
51
338.3505194
0
ARC
8
DEFAULT_255_1_234
10
17.1887202
20
0.5872284
40
1.1146189
50
319.6472867
51
327.095818
0
ARC
8
DEFAULT_255_1_234
10
16.8054205
20
0.9034
40
1.6114559
50
317.2586784
51
319.9046139
0
ARC
8
DEFAULT_255_2_778
10
15.0734646
20
98.1741567
40
0.3782009
50
0.4397807
51
91.3045231
0
ARC
8
DEFAULT_255_2_778
10
15.0713202
20
98.1718741
40
0.3803695
50
269.0259909
51
0.7811192
0
ARC
8
DEFAULT_255_2_778
10
15.2304616
20
98.1594321
40
0.7639615
50
290.7362057
51
357.8000295
0
ARC
8
DEFAULT_255_2_778
10
15.1452354
20
98.1769912
40
0.8499188
50
356.8376875
51
0.0046095
0
ARC
8
DEFAULT_255_2_778
10
15.1438766
20
98.1770425
40
0.8512778
50
0.0011515
51
85.3589632
0
ARC
8
DEFAULT_255_2_778
10
15.1438694
20
98.1579769
40
0.8702827
50
85.4600549
51
90.0075769
0
ARC
8
DEFAULT_255_2_778
10
19.9750173
20
98.1677104
40
0.3845507
50
1.3931151
51
90.158378
0
ARC
8
DEFAULT_255_2_778
10
20.0342419
20
98.1613312
40
0.8684198
50
359.7643557
51
42.1181505
0
ARC
8
DEFAULT_255_2_778
10
20.0366479
20
98.1617609
40
0.866348
50
42.2037872
51
87.9292218
0
ARC
8
DEFAULT_255_2_778
10
20.0318949
20
98.1204775
40
0.9077821
50
87.7235759
51
90.0025578
0
ARC
8
DEFAULT_255_2_778
10
12.7284028
20
98.1745796
40
0.3777595
50
0.3761505
51
91.175317
0
ARC
8
DEFAULT_255_2_778
10
12.7825419
20
98.1613312
40
0.8684198
50
359.7643557
51
42.1181505
0
ARC
8
DEFAULT_255_2_778
10
12.7849479
20
98.1617609
40
0.866348
50
42.2037872
51
87.9292218
0
ARC
8
DEFAULT_255_2_778
10
12.7801949
20
98.1204775
40
0.9077821
50
87.7235759
51
90.0025578
0
ARC
8
DEFAULT_255_2_778
10
17.3606743
20
97.7695535
40
1.2841942
50
233.3100129
51
270.0348017
0
ARC
8
DEFAULT_255_2_778
10
17.3727456
20
97.7899299
40
1.3077482
50
187.7860459
51
233.4193197
0
ARC
8
DEFAULT_255_2_778
10
17.3909911
20
97.7914862
40
1.3260368
50
179.9838663
51
187.7458681
0
ARC
8
DEFAULT_255_2_778
10
17.3494846
20
97.7921052
40
1.2845303
50
143.7084173
51
180.0109545
0
ARC
8
DEFAULT_255_2_778
10
17.3645561
20
97.7870576
40
1.2996747
50
94.9692901
51
143.9223324
0
ARC
8
DEFAULT_255_2_778
10
17.3613355
20
97.7877024
40
1.2987573
50
89.9947559
51
94.8302073
0
ARC
8
DEFAULT_255_2_778
10
17.3636379
20
97.7816107
40
1.3048507
50
58.145411
51
90.0958788
0
ARC
8
DEFAULT_255_2_778
10
17.3721873
20
97.7879171
40
1.294988
50
3.2655211
51
58.3194462
0
ARC
8
DEFAULT_255_2_778
10
17.3727016
20
97.7919162
40
1.2942527
50
359.997494
51
3.0900664
0
ARC
8
DEFAULT_255_2_778
10
17.1842403
20
97.789816
40
1.4827154
50
0.006083
51
0.0789681
0
ARC
8
DEFAULT_255_2_778
10
17.3622257
20
97.7898976
40
1.30473
50
315.0276525
51
0.0033284
0
ARC
8
DEFAULT_255_2_778
10
17.36257
20
97.7897198
40
1.3043608
50
270.000667
51
315.0224921
0
LINE
8
DEFAULT_255_2_778
10
17.3625852
20
96.4853591
11
17.3614543
21
96.4853596
0
ARC
8
DEFAULT_255_2_778
10
17.3657135
20
97.7878789
40
0.7580313
50
269.6780691
51
315.5292436
0
ARC
8
DEFAULT_255_2_778
10
17.362643
20
97.7871555
40
0.7597205
50
315.7303962
51
0.2857903
0
ARC
8
DEFAULT_255_2_778
10
17.6503699
20
97.7914059
40
0.4719845
50
359.944048
51
0.0186519
0
ARC
8
DEFAULT_255_2_778
10
17.3704095
20
97.7904282
40
0.7519457
50
0.086204
51
85.4319233
0
ARC
8
DEFAULT_255_2_778
10
17.3615932
20
97.7480015
40
0.7949581
50
85.0420495
51
90.0100075
0
ARC
8
DEFAULT_255_2_778
10
17.3595718
20
97.8047196
40
0.7382424
50
89.8538973
51
89.9999976
0
ARC
8
DEFAULT_255_2_778
10
17.3597093
20
97.7917721
40
0.7511899
50
90.01048
51
134.9443097
0
ARC
8
DEFAULT_255_2_778
10
17.359927
20
97.7915899
40
0.7514726
50
134.9462486
51
180.0023145
0
ARC
8
DEFAULT_255_2_778
10
17.3724947
20
97.7876552
40
0.7640503
50
179.7072119
51
222.5790813
0
ARC
8
DEFAULT_255_2_778
10
17.3595619
20
97.7766152
40
0.7470579
50
222.6267201
51
270.1451401
0
ARC
8
DEFAULT_255_2_778
10
9.3660743
20
97.7695535
40
1.2841942
50
233.3100129
51
270.0348017
0
ARC
8
DEFAULT_255_2_778
10
9.3781456
20
97.7899299
40
1.3077482
50
187.7860459
51
233.4193197
0
ARC
8
DEFAULT_255_2_778
10
9.3963911
20
97.7914862
40
1.3260368
50
179.9838663
51
187.7458681
0
ARC
8
DEFAULT_255_2_778
10
9.3551452
20
97.7919638
40
1.2847909
50
143.1940819
51
180.0046489
0
ARC
8
DEFAULT_255_2_778
10
9.36994
20
97.7872683
40
1.2994598
50
94.9233187
51
143.4191345
0
ARC
8
DEFAULT_255_2_778
10
9.3667331
20
97.7879797
40
1.2984798
50
89.9946509
51
94.7850278
0
ARC
8
DEFAULT_255_2_778
10
9.3690225
20
97.7818118
40
1.3046496
50
58.1428905
51
90.0952196
0
ARC
8
DEFAULT_255_2_778
10
9.37745
20
97.787913
40
1.2950254
50
3.2656058
51
58.3171105
0
ARC
8
DEFAULT_255_2_778
10
9.3780016
20
97.7919162
40
1.2942527
50
359.997494
51
3.0900664
0
ARC
8
DEFAULT_255_2_778
10
9.3953041
20
97.7897125
40
1.276952
50
359.9949307
51
0.0963391
0
ARC
8
DEFAULT_255_2_778
10
9.3679416
20
97.7897263
40
1.3043147
50
315.0200668
51
359.994431
0
ARC
8
DEFAULT_255_2_778
10
9.3679661
20
97.7894877
40
1.3041287
50
270.0008363
51
315.026719
0
LINE
8
DEFAULT_255_2_778
10
9.3679852
20
96.4853591
11
9.3668543
21
96.4853596
0
ARC
8
DEFAULT_255_2_778
10
9.3710735
20
97.7878812
40
0.7580334
50
269.6810953
51
315.6152252
0
ARC
8
DEFAULT_255_2_778
10
9.3680162
20
97.7872058
40
0.7597504
50
315.8129036
51
0.3254485
0
ARC
8
DEFAULT_255_2_778
10
9.3754499
20
97.7901242
40
0.7523058
50
0.1093155
51
85.7820321
0
ARC
8
DEFAULT_255_2_778
10
9.3669704
20
97.748594
40
0.7943655
50
85.3923987
51
90.0083732
0
ARC
8
DEFAULT_255_2_778
10
9.3649708
20
97.8038025
40
0.7391595
50
89.8539942
51
89.9999859
0
ARC
8
DEFAULT_255_2_778
10
9.3650373
20
97.791946
40
0.7510159
50
90.0050654
51
134.9497993
0
ARC
8
DEFAULT_255_2_778
10
9.3649069
20
97.791764
40
0.7510526
50
134.9329452
51
180.0155944
0
ARC
8
DEFAULT_255_2_778
10
9.3779268
20
97.7876289
40
0.7640826
50
179.7052536
51
222.5741919
0
ARC
8
DEFAULT_255_2_778
10
9.3649128
20
97.776584
40
0.7470269
50
222.6256588
51
270.1489141
0
LINE
8
DEFAULT_255_2_778
10
13.8784543
20
99.0076596
11
13.8784543
21
96.5448596
0
LINE
8
DEFAULT_255_2_778
10
13.8784543
20
96.5448596
11
14.4219543
21
96.5448596
0
LINE
8
DEFAULT_255_2_778
10
14.4219543
20
96.5448596
11
14.4219543
21
98.5522596
0
LINE
8
DEFAULT_255_2_778
10
14.4219543
20
98.5522596
11
15.0648543
21
98.5522596
0
LINE
8
DEFAULT_255_2_778
10
15.0648543
20
97.7915596
11
14.6002543
21
97.7915596
0
LINE
8
DEFAULT_255_2_778
10
14.6002543
20
97.7915596
11
15.4413543
21
96.5445596
0
LINE
8
DEFAULT_255_2_778
10
15.4413543
20
96.5445596
11
16.1142543
21
96.5445596
0
LINE
8
DEFAULT_255_2_778
10
16.1142543
20
96.5445596
11
15.5009543
21
97.4449596
0
LINE
8
DEFAULT_255_2_778
10
15.1437543
20
99.0282596
11
14.4216543
21
99.0282596
0
LINE
8
DEFAULT_255_2_778
10
14.4216543
20
99.0282596
11
13.8782543
21
99.0076596
0
LINE
8
DEFAULT_255_2_778
10
13.8782543
20
99.0076596
11
13.8784543
21
99.0076596
0
LINE
8
DEFAULT_255_2_778
10
18.8158543
20
99.0076596
11
18.8158543
21
96.5448596
0
LINE
8
DEFAULT_255_2_778
10
18.8158543
20
96.5448596
11
19.3593543
21
96.5448596
0
LINE
8
DEFAULT_255_2_778
10
19.3593543
20
96.5448596
11
19.3593543
21
98.5522596
0
LINE
8
DEFAULT_255_2_778
10
19.3593543
20
98.5522596
11
19.9739543
21
98.5522596
0
LINE
8
DEFAULT_255_2_778
10
20.3594543
20
98.1770596
11
20.3594543
21
96.5448596
0
LINE
8
DEFAULT_255_2_778
10
20.3594543
20
96.5448596
11
20.9026543
21
96.5448596
0
LINE
8
DEFAULT_255_2_778
10
20.9026543
20
96.5448596
11
20.9026543
21
98.1577596
0
LINE
8
DEFAULT_255_2_778
10
20.0318543
20
99.0282596
11
19.3590543
21
99.0282596
0
LINE
8
DEFAULT_255_2_778
10
19.3590543
20
99.0282596
11
18.8156543
21
99.0076596
0
LINE
8
DEFAULT_255_2_778
10
18.8156543
20
99.0076596
11
18.8158543
21
99.0076596
0
LINE
8
DEFAULT_255_2_778
10
10.8212543
20
99.0076596
11
10.8212543
21
96.5448596
0
LINE
8
DEFAULT_255_2_778
10
10.8212543
20
96.5448596
11
11.3646543
21
96.5448596
0
LINE
8
DEFAULT_255_2_778
10
11.3646543
20
96.5448596
11
11.3646543
21
98.5522596
0
LINE
8
DEFAULT_255_2_778
10
11.3646543
20
98.5522596
11
11.9689543
21
98.5522596
0
LINE
8
DEFAULT_255_2_778
10
11.9689543
20
98.5522596
11
11.9689543
21
96.5448596
0
LINE
8
DEFAULT_255_2_778
10
11.9689543
20
96.5448596
11
12.5124543
21
96.5448596
0
LINE
8
DEFAULT_255_2_778
10
12.5124543
20
96.5448596
11
12.5124543
21
98.5522596
0
LINE
8
DEFAULT_255_2_778
10
12.5124543
20
98.5522596
11
12.7206543
21
98.5522596
0
LINE
8
DEFAULT_255_2_778
10
13.1061543
20
98.1770596
11
13.1061543
21
96.5448596
0
LINE
8
DEFAULT_255_2_778
10
13.1061543
20
96.5448596
11
13.6509543
21
96.5448596
0
LINE
8
DEFAULT_255_2_778
10
13.6509543
20
96.5448596
11
13.6509543
21
98.1577596
0
LINE
8
DEFAULT_255_2_778
10
12.7801543
20
99.0282596
11
11.3749543
21
99.0282596
0
LINE
8
DEFAULT_255_2_778
10
11.3749543
20
99.0282596
11
10.8212543
21
99.0076596
0
LINE
8
DEFAULT_255_2_778
10
10.8212543
20
99.0076596
11
10.8212543
21
99.0076596
0
LINE
8
DEFAULT_255_2_778
10
17.3614543
20
96.4853596
11
17.3614543
21
96.4853596
0
LINE
8
DEFAULT_255_2_778
10
9.3668543
20
96.4853596
11
9.3668543
21
96.4853596
0
LINE
8
DEFAULT_255_1_234
10
11.6116879
20
95.1066211
11
11.6116879
21
93.9372
0
LINE
8
DEFAULT_255_1_234
10
11.6116879
20
93.9372
11
11.4566753
21
93.9372
0
LINE
8
DEFAULT_255_1_234
10
11.4566753
20
93.9372
11
10.8679489
21
94.838361
0
LINE
8
DEFAULT_255_1_234
10
10.8679489
20
94.838361
11
10.8679489
21
93.9372
0
LINE
8
DEFAULT_255_1_234
10
10.8679489
20
93.9372
11
10.7129364
21
93.9372
0
LINE
8
DEFAULT_255_1_234
10
10.7129364
20
93.9372
11
10.7129364
21
95.1066211
0
LINE
8
DEFAULT_255_1_234
10
10.7129364
20
95.1066211
11
10.8679489
21
95.1066211
0
LINE
8
DEFAULT_255_1_234
10
10.8679489
20
95.1066211
11
11.4582817
21
94.2014442
0
LINE
8
DEFAULT_255_1_234
10
11.4582817
20
94.2014442
11
11.4582817
21
95.1066211
0
LINE
8
DEFAULT_255_1_234
10
11.4582817
20
95.1066211
11
11.6116879
21
95.1066211
0
LINE
8
DEFAULT_255_1_234
10
11.9988177
20
95.1066211
11
12.2807317
21
94.6584501
0
LINE
8
DEFAULT_255_1_234
10
12.2807317
20
94.6584501
11
12.5610394
21
95.1066211
0
LINE
8
DEFAULT_255_1_234
10
12.5610394
20
95.1066211
11
12.7425566
21
95.1066211
0
LINE
8
DEFAULT_255_1_234
10
12.7425566
20
95.1066211
11
12.3730967
21
94.5267296
0
LINE
8
DEFAULT_255_1_234
10
12.3730967
20
94.5267296
11
12.7513916
21
93.9372
0
LINE
8
DEFAULT_255_1_234
10
12.7513916
20
93.9372
11
12.5682679
21
93.9372
0
LINE
8
DEFAULT_255_1_234
10
12.5682679
20
93.9372
11
12.2807317
21
94.3934027
0
LINE
8
DEFAULT_255_1_234
10
12.2807317
20
94.3934027
11
11.9915891
21
93.9372
0
LINE
8
DEFAULT_255_1_234
10
11.9915891
20
93.9372
11
11.8092687
21
93.9372
0
LINE
8
DEFAULT_255_1_234
10
11.8092687
20
93.9372
11
12.1883667
21
94.5267296
0
LINE
8
DEFAULT_255_1_234
10
12.1883667
20
94.5267296
11
11.8181036
21
95.1066211
0
LINE
8
DEFAULT_255_1_234
10
11.8181036
20
95.1066211
11
11.9988177
21
95.1066211
0
LINE
8
DEFAULT_255_1_234
10
13.1794832
20
94.4946026
11
13.1794832
21
94.3733234
0
LINE
8
DEFAULT_255_1_234
10
13.1794832
20
94.3733234
11
12.7875344
21
94.3733234
0
LINE
8
DEFAULT_255_1_234
10
12.7875344
20
94.3733234
11
12.7875344
21
94.4946026
0
LINE
8
DEFAULT_255_1_234
10
12.7875344
20
94.4946026
11
13.1794832
21
94.4946026
0
LINE
8
DEFAULT_255_1_234
10
14.1232125
20
94.7684849
11
13.9681999
21
94.7684849
0
LINE
8
DEFAULT_255_1_234
10
13.2758641
20
94.2761394
11
13.4308766
21
94.2761394
0
ARC
8
DEFAULT_255_1_234
10
14.0340812
20
95.6631768
40
1.252368
50
248.9199003
51
254.1439814
0
ARC
8
DEFAULT_255_1_234
10
13.8660307
20
95.2305234
40
0.788226
50
241.633709
51
249.0064503
0
ARC
8
DEFAULT_255_1_234
10
13.7131701
20
94.9504317
40
0.4691427
50
230.498225
51
241.8087113
0
ARC
8
DEFAULT_255_1_234
10
13.6347275
20
94.8504906
40
0.3421437
50
227.4064532
51
229.9881192
0
ARC
8
DEFAULT_255_1_234
10
13.5859796
20
94.8029088
40
0.2741476
50
200.6781896
51
228.1763934
0
ARC
8
DEFAULT_255_1_234
10
13.5932107
20
94.8014077
40
0.2804109
50
179.5061581
51
199.8694617
0
ARC
8
DEFAULT_255_1_234
10
13.5922858
20
94.808821
40
0.2795204
50
132.4834203
51
181.0242172
0
ARC
8
DEFAULT_255_1_234
10
13.6518441
20
94.7525704
40
0.3612768
50
129.2532479
51
133.4242687
0
ARC
8
DEFAULT_255_1_234
10
13.666489
20
94.7305965
40
0.3875675
50
101.98776
51
128.8742646
0
ARC
8
DEFAULT_255_1_234
10
13.7063501
20
94.5584741
40
0.5642249
50
89.5906553
51
102.3169264
0
ARC
8
DEFAULT_255_1_234
10
13.7133993
20
94.5903148
40
0.5323783
50
77.2360837
51
90.3248275
0
ARC
8
DEFAULT_255_1_234
10
13.7341072
20
94.68704
40
0.4334697
50
63.837784
51
77.0809408
0
ARC
8
DEFAULT_255_1_234
10
13.7618834
20
94.7387911
40
0.3747796
50
45.9864267
51
64.1607727
0
ARC
8
DEFAULT_255_1_234
10
13.7879715
20
94.7685866
40
0.3352302
50
32.2747395
51
45.6547121
0
ARC
8
DEFAULT_255_1_234
10
13.7946156
20
94.770488
40
0.328603
50
359.6507365
51
32.6130309
0
ARC
8
DEFAULT_255_1_234
10
13.7003251
20
94.770966
40
0.2678863
50
359.469343
51
14.9832209
0
ARC
8
DEFAULT_255_1_234
10
13.7708314
20
94.7898539
40
0.1948938
50
14.9781179
51
48.2004265
0
ARC
8
DEFAULT_255_1_234
10
13.7543958
20
94.7691983
40
0.2212521
50
48.5927837
51
74.1241538
0
ARC
8
DEFAULT_255_1_234
10
13.7210447
20
94.6591248
40
0.3362561
50
73.7888341
51
86.6652678
0
ARC
8
DEFAULT_255_1_234
10
13.7108013
20
94.5383881
40
0.4573953
50
86.2640471
51
90.0526343
0
ARC
8
DEFAULT_255_1_234
10
13.7079725
20
94.5779192
40
0.4178709
50
89.6697524
51
99.2309573
0
ARC
8
DEFAULT_255_1_234
10
13.6837176
20
94.7223964
40
0.2713749
50
99.069534
51
113.7658566
0
ARC
8
DEFAULT_255_1_234
10
13.6563367
20
94.7869677
40
0.2012469
50
114.0401004
51
127.9850673
0
ARC
8
DEFAULT_255_1_234
10
13.6322931
20
94.816573
40
0.1631167
50
127.7287463
51
176.7105154
0
ARC
8
DEFAULT_255_1_234
10
13.7001649
20
94.8064693
40
0.2315392
50
175.1779447
51
180.0581938
0
ARC
8
DEFAULT_255_1_234
10
13.6158496
20
94.8052428
40
0.1472271
50
179.6142195
51
228.1246017
0
ARC
8
DEFAULT_255_1_234
10
13.6600164
20
94.8461308
40
0.2072299
50
226.5779593
51
230.8800004
0
ARC
8
DEFAULT_255_1_234
10
13.7071243
20
94.9086636
40
0.2854818
50
231.4635071
51
241.9260842
0
ARC
8
DEFAULT_255_1_234
10
13.8268421
20
95.12898
40
0.53622
50
241.7178533
51
248.3259551
0
ARC
8
DEFAULT_255_1_234
10
13.9653793
20
95.4722064
40
0.9063478
50
248.2007737
51
252.4528373
0
ARC
8
DEFAULT_255_1_234
10
14.0857518
20
95.8443441
40
1.2974635
50
252.3391078
51
254.3469452
0
ARC
8
DEFAULT_255_1_234
10
13.331522
20
93.1466148
40
1.5037162
50
71.0197183
51
74.4087047
0
ARC
8
DEFAULT_255_1_234
10
13.5009906
20
93.6358111
40
0.9859993
50
66.1847285
51
71.086374
0
ARC
8
DEFAULT_255_1_234
10
13.6566218
20
93.98622
40
0.6025855
50
59.3536294
51
66.2691831
0
ARC
8
DEFAULT_255_1_234
10
13.745487
20
94.1365609
40
0.4279449
50
49.1020879
51
59.3293958
0
ARC
8
DEFAULT_255_1_234
10
13.827361
20
94.2298834
40
0.3038015
50
32.7919921
51
49.2505539
0
ARC
8
DEFAULT_255_1_234
10
13.85947
20
94.2527191
40
0.264448
50
31.1181161
51
32.4005348
0
ARC
8
DEFAULT_255_1_234
10
13.8506238
20
94.2491779
40
0.2738556
50
8.1116974
51
30.7958831
0
ARC
8
DEFAULT_255_1_234
10
13.7695906
20
94.2353753
40
0.3560327
50
359.8389159
51
8.4706516
0
ARC
8
DEFAULT_255_1_234
10
13.8321697
20
94.2305137
40
0.2934776
50
337.4731098
51
0.7537279
0
ARC
8
DEFAULT_255_1_234
10
13.8500392
20
94.2285387
40
0.2762607
50
307.5917067
51
336.4315538
0
ARC
8
DEFAULT_255_1_234
10
13.804022
20
94.2798102
40
0.3449979
50
307.6551545
51
308.4529766
0
ARC
8
DEFAULT_255_1_234
10
13.7809939
20
94.315325
40
0.3871988
50
284.3734338
51
307.1424381
0
ARC
8
DEFAULT_255_1_234
10
13.7314769
20
94.4974932
40
0.5759636
50
272.4382747
51
284.646547
0
ARC
8
DEFAULT_255_1_234
10
13.7187978
20
94.6774893
40
0.7563528
50
269.9708387
51
272.8178037
0
ARC
8
DEFAULT_255_1_234
10
13.7145018
20
94.4736716
40
0.5525489
50
248.2707594
51
270.4055579
0
ARC
8
DEFAULT_255_1_234
10
13.7090759
20
94.4546192
40
0.5328452
50
246.1383403
51
248.0542782
0
ARC
8
DEFAULT_255_1_234
10
13.6672138
20
94.3666843
40
0.4355005
50
233.1670131
51
246.4950969
0
ARC
8
DEFAULT_255_1_234
10
13.6118043
20
94.2918812
40
0.3424126
50
215.3403242
51
233.0843104
0
ARC
8
DEFAULT_255_1_234
10
13.5845474
20
94.2720549
40
0.3087104
50
179.2419209
51
215.2648451
0
ARC
8
DEFAULT_255_1_234
10
13.6613068
20
94.2734666
40
0.2304457
50
179.335461
51
199.1045811
0
ARC
8
DEFAULT_255_1_234
10
13.6280744
20
94.2647766
40
0.1962176
50
199.8828939
51
232.7063202
0
ARC
8
DEFAULT_255_1_234
10
13.6753013
20
94.3241788
40
0.2720938
50
232.3738199
51
255.5136649
0
ARC
8
DEFAULT_255_1_234
10
13.7093879
20
94.4485835
40
0.4010747
50
255.2446292
51
267.5320849
0
ARC
8
DEFAULT_255_1_234
10
13.7181503
20
94.5718702
40
0.5246356
50
267.1557994
51
270.0286766
0
ARC
8
DEFAULT_255_1_234
10
13.7209275
20
94.527495
40
0.4802668
50
269.7000017
51
278.1660162
0
ARC
8
DEFAULT_255_1_234
10
13.746528
20
94.3544515
40
0.3053425
50
278.0231263
51
290.625471
0
ARC
8
DEFAULT_255_1_234
10
13.7812967
20
94.2617025
40
0.206291
50
290.6619762
51
307.0370976
0
ARC
8
DEFAULT_255_1_234
10
13.8113356
20
94.2248504
40
0.1587906
50
306.3943566
51
355.3030547
0
ARC
8
DEFAULT_255_1_234
10
13.7601288
20
94.2325113
40
0.2104809
50
354.3660432
51
0.0698737
0
ARC
8
DEFAULT_255_1_234
10
13.7743633
20
94.2347617
40
0.1962563
50
359.417946
51
16.1971788
0
ARC
8
DEFAULT_255_1_234
10
13.8198943
20
94.2472418
40
0.149053
50
16.4723299
51
52.6262157
0
ARC
8
DEFAULT_255_1_234
10
13.7377997
20
94.1388433
40
0.2850296
50
52.7386432
51
62.4979148
0
ARC
8
DEFAULT_255_1_234
10
13.5993074
20
93.8782283
40
0.5801521
50
62.2515216
51
68.1220564
0
ARC
8
DEFAULT_255_1_234
10
13.4272985
20
93.4554872
40
1.0365451
50
68.0062803
51
71.8053402
0
ARC
8
DEFAULT_255_1_234
10
13.2477356
20
92.9169758
40
1.6042013
50
71.7183119
51
73.9258742
0
LINE
8
DEFAULT_255_1_234
10
14.2621615
20
94.3476218
11
14.2621615
21
94.3749297
0
LINE
8
DEFAULT_255_1_234
10
14.9994751
20
94.3909932
11
14.9994751
21
94.3291488
0
LINE
8
DEFAULT_255_1_234
10
14.9994751
20
94.3291488
11
14.4107487
21
94.3291488
0
LINE
8
DEFAULT_255_1_234
10
14.897472
20
94.1596792
11
14.9882307
21
94.0889999
0
LINE
8
DEFAULT_255_1_234
10
14.4155677
20
94.4512313
11
14.8508879
21
94.4512313
0
LINE
8
DEFAULT_255_1_234
10
14.8508879
20
94.4512313
11
14.8508879
21
94.4624757
0
ARC
8
DEFAULT_255_1_234
10
14.656098
20
94.3587332
40
0.4376191
50
252.3266134
51
270.5810217
0
ARC
8
DEFAULT_255_1_234
10
14.6356069
20
94.2846644
40
0.3608374
50
223.3000567
51
251.8561855
0
ARC
8
DEFAULT_255_1_234
10
14.656743
20
94.3051937
40
0.3902993
50
190.9374509
51
223.3654032
0
ARC
8
DEFAULT_255_1_234
10
14.8292402
20
94.3441885
40
0.5670891
50
179.6531105
51
191.4989439
0
ARC
8
DEFAULT_255_1_234
10
14.8414415
20
94.3781417
40
0.5792888
50
167.4007466
51
180.3176909
0
ARC
8
DEFAULT_255_1_234
10
14.7362476
20
94.4003885
40
0.471777
50
154.1835823
51
167.250763
0
ARC
8
DEFAULT_255_1_234
10
14.6730944
20
94.4336417
40
0.4004528
50
134.3149965
51
154.5315275
0
ARC
8
DEFAULT_255_1_234
10
14.6513439
20
94.4527228
40
0.371612
50
122.8616532
51
133.9707695
0
ARC
8
DEFAULT_255_1_234
10
14.6410013
20
94.4749703
40
0.3473289
50
89.8249009
51
123.4199222
0
ARC
8
DEFAULT_255_1_234
10
14.6460054
20
94.4102967
40
0.4120197
50
74.7876118
51
90.5482747
0
ARC
8
DEFAULT_255_1_234
10
14.6753797
20
94.518803
40
0.2996077
50
39.8178249
51
74.7633718
0
ARC
8
DEFAULT_255_1_234
10
14.6241117
20
94.4788351
40
0.3645855
50
16.8990863
51
39.4829761
0
ARC
8
DEFAULT_255_1_234
10
14.4346414
20
94.4181526
40
0.5635218
50
4.9636328
51
17.2026414
0
ARC
8
DEFAULT_255_1_234
10
14.1928484
20
94.392634
40
0.8066286
50
359.8834553
51
5.2834307
0
ARC
8
DEFAULT_255_1_234
10
14.7966008
20
94.3357803
40
0.3859091
50
180.9846213
51
194.9401313
0
ARC
8
DEFAULT_255_1_234
10
14.6916286
20
94.3070849
40
0.2770883
50
194.80314
51
222.0412631
0
ARC
8
DEFAULT_255_1_234
10
14.6612168
20
94.2769116
40
0.2343055
50
221.5417084
51
268.8614402
0
ARC
8
DEFAULT_255_1_234
10
14.6685163
20
94.3445686
40
0.3021528
50
267.732405
51
270.0097136
0
ARC
8
DEFAULT_255_1_234
10
14.6702973
20
94.3647105
40
0.3222994
50
269.6924892
51
280.4117579
0
ARC
8
DEFAULT_255_1_234
10
14.687938
20
94.2728193
40
0.2287344
50
280.2255091
51
298.6338936
0
ARC
8
DEFAULT_255_1_234
10
14.6996171
20
94.2484223
40
0.2017294
50
299.0430333
51
300.4643464
0
ARC
8
DEFAULT_255_1_234
10
14.6316177
20
94.3618038
40
0.3339357
50
300.6577328
51
322.0378878
0
ARC
8
DEFAULT_255_1_234
10
14.5965716
20
94.3922021
40
0.3802736
50
321.6750233
51
322.3046845
0
ARC
8
DEFAULT_255_1_234
10
14.6896677
20
94.275537
40
0.3520454
50
276.9728461
51
328.0035423
0
ARC
8
DEFAULT_255_1_234
10
14.661973
20
94.4235841
40
0.5024498
50
269.8361028
51
278.0581756
0
ARC
8
DEFAULT_255_1_234
10
14.6392468
20
94.4980757
40
0.202159
50
89.2018686
51
117.2851756
0
ARC
8
DEFAULT_255_1_234
10
14.6445637
20
94.4938752
40
0.2083484
50
118.0551165
51
137.4540413
0
ARC
8
DEFAULT_255_1_234
10
14.6820377
20
94.4598304
40
0.2589774
50
137.5109581
51
158.8516286
0
ARC
8
DEFAULT_255_1_234
10
14.7958212
20
94.4139074
40
0.38167
50
158.5845963
51
170.1721436
0
ARC
8
DEFAULT_255_1_234
10
14.9127601
20
94.3906823
40
0.5008657
50
169.8376422
51
173.0566086
0
ARC
8
DEFAULT_255_1_234
10
14.4430675
20
94.4417509
40
0.4083467
50
2.9091802
51
12.8847116
0
ARC
8
DEFAULT_255_1_234
10
14.5801352
20
94.4740101
40
0.2675383
50
12.6957781
51
28.6404489
0
ARC
8
DEFAULT_255_1_234
10
14.6343023
20
94.5020458
40
0.2065654
50
29.0169854
51
41.1487595
0
ARC
8
DEFAULT_255_1_234
10
14.6545808
20
94.5197003
40
0.1796786
50
41.1646065
51
85.0013516
0
ARC
8
DEFAULT_255_1_234
10
14.6424904
20
94.4462431
40
0.2539726
50
83.7280015
51
90.0964893
0
LINE
8
DEFAULT_255_1_234
10
15.5914142
20
94.8110531
11
15.5914142
21
94.6729072
0
LINE
8
DEFAULT_255_1_234
10
15.3199415
20
94.5540375
11
15.3199415
21
93.9372
0
LINE
8
DEFAULT_255_1_234
10
15.3199415
20
93.9372
11
15.1713543
21
93.9372
0
LINE
8
DEFAULT_255_1_234
10
15.1713543
20
93.9372
11
15.1713543
21
94.8062341
0
LINE
8
DEFAULT_255_1_234
10
15.1713543
20
94.8062341
11
15.3159256
21
94.8062341
0
LINE
8
DEFAULT_255_1_234
10
15.3159256
20
94.8062341
11
15.3183351
21
94.7058374
0
ARC
8
DEFAULT_255_1_234
10
15.5247548
20
94.2669342
40
0.4114092
50
80.6754243
51
86.8932892
0
ARC
8
DEFAULT_255_1_234
10
15.5187082
20
94.17017
40
0.5083596
50
86.8038578
51
90.0431435
0
ARC
8
DEFAULT_255_1_234
10
15.5150063
20
94.4158866
40
0.2626638
50
89.2759698
51
106.6213787
0
ARC
8
DEFAULT_255_1_234
10
15.4945627
20
94.490183
40
0.1856317
50
107.1346045
51
157.6458115
0
ARC
8
DEFAULT_255_1_234
10
15.5637228
20
94.4518311
40
0.2643398
50
155.6586782
51
157.2539184
0
ARC
8
DEFAULT_255_1_234
10
15.543243
20
94.5687157
40
0.2634121
50
127.8165941
51
148.6302098
0
ARC
8
DEFAULT_255_1_234
10
15.5178899
20
94.5947218
40
0.2273596
50
91.3329982
51
126.7875809
0
ARC
8
DEFAULT_255_1_234
10
15.525484
20
94.5232195
40
0.299078
50
89.986594
51
92.4688449
0
ARC
8
DEFAULT_255_1_234
10
15.5263235
20
94.5507078
40
0.2715908
50
85.3589899
51
90.1623399
0
ARC
8
DEFAULT_255_1_234
10
15.534775
20
94.6511164
40
0.1708278
50
78.401942
51
85.4594656
0
ARC
8
DEFAULT_255_1_234
10
15.5492634
20
94.7202236
40
0.1002194
50
67.7858312
51
78.5728455
0
ARC
8
DEFAULT_255_1_234
10
15.5600487
20
94.7481887
40
0.0702548
50
63.4835954
51
67.3062642
0
LINE
8
DEFAULT_255_1_234
10
15.8893917
20
94.8062341
11
15.8893917
21
93.9372
0
LINE
8
DEFAULT_255_1_234
10
15.8893917
20
93.9372
11
15.7408045
21
93.9372
0
LINE
8
DEFAULT_255_1_234
10
15.7408045
20
93.9372
11
15.7408045
21
94.8062341
0
LINE
8
DEFAULT_255_1_234
10
15.7408045
20
94.8062341
11
15.8893917
21
94.8062341
0
ARC
8
DEFAULT_255_1_234
10
15.8266194
20
95.0376889
40
0.097867
50
161.415052
51
180.5526306
0
ARC
8
DEFAULT_255_1_234
10
15.8141972
20
95.0411077
40
0.0850062
50
138.1827368
51
160.9307106
0
ARC
8
DEFAULT_255_1_234
10
15.8031918
20
95.0506588
40
0.0704362
50
104.6368899
51
138.0039868
0
ARC
8
DEFAULT_255_1_234
10
15.8139073
20
95.0139963
40
0.1086221
50
92.0600725
51
105.2189128
0
ARC
8
DEFAULT_255_1_234
10
15.8162421
20
94.9797117
40
0.1429728
50
89.9756393
51
92.5012496
0
ARC
8
DEFAULT_255_1_234
10
15.817244
20
95.0022731
40
0.1204151
50
78.0235316
51
90.4478182
0
ARC
8
DEFAULT_255_1_234
10
15.8264532
20
95.0436295
40
0.0780493
50
55.051506
51
78.3369085
0
ARC
8
DEFAULT_255_1_234
10
15.8314807
20
95.0520711
40
0.0682538
50
42.0501187
51
54.4513741
0
ARC
8
DEFAULT_255_1_234
10
15.8179674
20
95.0396798
40
0.0865878
50
1.7497075
51
42.1496013
0
ARC
8
DEFAULT_255_1_234
10
15.7925007
20
95.0367738
40
0.1121515
50
359.9852656
51
2.8364544
0
ARC
8
DEFAULT_255_1_234
10
15.8090999
20
95.0358229
40
0.0955566
50
342.1070653
51
0.552888
0
ARC
8
DEFAULT_255_1_234
10
15.8233696
20
95.0318904
40
0.0807713
50
316.7107116
51
341.6516965
0
ARC
8
DEFAULT_255_1_234
10
15.8300733
20
95.0258823
40
0.0717724
50
285.4397031
51
316.5324284
0
ARC
8
DEFAULT_255_1_234
10
15.819065
20
95.0624554
40
0.1099597
50
272.3547054
51
285.8953117
0
ARC
8
DEFAULT_255_1_234
10
15.8163808
20
95.0990048
40
0.1465932
50
269.9695369
51
272.8160237
0
ARC
8
DEFAULT_255_1_234
10
15.815399
20
95.0770863
40
0.1246779
50
258.8431134
51
270.4153935
0
ARC
8
DEFAULT_255_1_234
10
15.8064032
20
95.0335414
40
0.0802162
50
238.5431189
51
259.1288175
0
ARC
8
DEFAULT_255_1_234
10
15.7995917
20
95.0211856
40
0.0661247
50
222.5062634
51
237.9906969
0
ARC
8
DEFAULT_255_1_234
10
15.8123504
20
95.0327889
40
0.0833707
50
184.1069131
51
222.460413
0
ARC
8
DEFAULT_255_1_234
10
15.8392745
20
95.0366349
40
0.1105176
50
179.9429482
51
185.0960898
0
LINE
8
DEFAULT_255_1_234
10
16.089382
20
94.3476218
11
16.089382
21
94.3749297
0
LINE
8
DEFAULT_255_1_234
10
16.8266956
20
94.3909932
11
16.8266956
21
94.3291488
0
LINE
8
DEFAULT_255_1_234
10
16.8266956
20
94.3291488
11
16.2379691
21
94.3291488
0
LINE
8
DEFAULT_255_1_234
10
16.7246925
20
94.1596792
11
16.8154511
21
94.0889999
0
LINE
8
DEFAULT_255_1_234
10
16.2427882
20
94.4512313
11
16.6781084
21
94.4512313
0
LINE
8
DEFAULT_255_1_234
10
16.6781084
20
94.4512313
11
16.6781084
21
94.4624757
0
ARC
8
DEFAULT_255_1_234
10
16.4833185
20
94.3587332
40
0.4376191
50
252.3266134
51
270.5810217
0
ARC
8
DEFAULT_255_1_234
10
16.4628274
20
94.2846644
40
0.3608374
50
223.3000567
51
251.8561855
0
ARC
8
DEFAULT_255_1_234
10
16.4839635
20
94.3051937
40
0.3902993
50
190.9374509
51
223.3654032
0
ARC
8
DEFAULT_255_1_234
10
16.6564607
20
94.3441885
40
0.5670891
50
179.6531105
51
191.4989439
0
ARC
8
DEFAULT_255_1_234
10
16.6686619
20
94.3781417
40
0.5792888
50
167.4007466
51
180.3176909
0
ARC
8
DEFAULT_255_1_234
10
16.5634681
20
94.4003885
40
0.471777
50
154.1835823
51
167.250763
0
ARC
8
DEFAULT_255_1_234
10
16.5003148
20
94.4336417
40
0.4004528
50
134.3149965
51
154.5315275
0
ARC
8
DEFAULT_255_1_234
10
16.4785643
20
94.4527228
40
0.371612
50
122.8616532
51
133.9707695
0
ARC
8
DEFAULT_255_1_234
10
16.4682217
20
94.4749703
40
0.3473289
50
89.8249009
51
123.4199222
0
ARC
8
DEFAULT_255_1_234
10
16.4732258
20
94.4102967
40
0.4120197
50
74.7876118
51
90.5482747
0
ARC
8
DEFAULT_255_1_234
10
16.5026002
20
94.518803
40
0.2996077
50
39.8178249
51
74.7633718
0
ARC
8
DEFAULT_255_1_234
10
16.4513322
20
94.4788351
40
0.3645855
50
16.8990863
51
39.4829761
0
ARC
8
DEFAULT_255_1_234
10
16.2618618
20
94.4181526
40
0.5635218
50
4.9636328
51
17.2026414
0
ARC
8
DEFAULT_255_1_234
10
16.0200688
20
94.392634
40
0.8066286
50
359.8834553
51
5.2834307
0
ARC
8
DEFAULT_255_1_234
10
16.6238213
20
94.3357803
40
0.3859091
50
180.9846213
51
194.9401313
0
ARC
8
DEFAULT_255_1_234
10
16.5188491
20
94.3070849
40
0.2770883
50
194.80314
51
222.0412631
0
ARC
8
DEFAULT_255_1_234
10
16.4884373
20
94.2769116
40
0.2343055
50
221.5417084
51
268.8614402
0
ARC
8
DEFAULT_255_1_234
10
16.4957367
20
94.3445686
40
0.3021528
50
267.732405
51
270.0097136
0
ARC
8
DEFAULT_255_1_234
10
16.4975177
20
94.3647105
40
0.3222994
50
269.6924892
51
280.4117579
0
ARC
8
DEFAULT_255_1_234
10
16.5151584
20
94.2728193
40
0.2287344
50
280.2255091
51
298.6338936
0
ARC
8
DEFAULT_255_1_234
10
16.5268376
20
94.2484223
40
0.2017294
50
299.0430333
51
300.4643464
0
ARC
8
DEFAULT_255_1_234
10
16.4588382
20
94.3618038
40
0.3339357
50
300.6577328
51
322.0378878
0
ARC
8
DEFAULT_255_1_234
10
16.4237921
20
94.3922021
40
0.3802736
50
321.6750233
51
322.3046845
0
ARC
8
DEFAULT_255_1_234
10
16.5168882
20
94.275537
40
0.3520454
50
276.9728461
51
328.0035423
0
ARC
8
DEFAULT_255_1_234
10
16.4891935
20
94.4235841
40
0.5024498
50
269.8361028
51
278.0581756
0
ARC
8
DEFAULT_255_1_234
10
16.4664672
20
94.4980757
40
0.202159
50
89.2018686
51
117.2851756
0
ARC
8
DEFAULT_255_1_234
10
16.4717841
20
94.4938752
40
0.2083484
50
118.0551165
51
137.4540413
0
ARC
8
DEFAULT_255_1_234
10
16.5092581
20
94.4598304
40
0.2589774
50
137.5109581
51
158.8516286
0
ARC
8
DEFAULT_255_1_234
10
16.6230417
20
94.4139074
40
0.38167
50
158.5845963
51
170.1721436
0
ARC
8
DEFAULT_255_1_234
10
16.7399806
20
94.3906823
40
0.5008657
50
169.8376422
51
173.0566086
0
ARC
8
DEFAULT_255_1_234
10
16.270288
20
94.4417509
40
0.4083467
50
2.9091802
51
12.8847116
0
ARC
8
DEFAULT_255_1_234
10
16.4073556
20
94.4740101
40
0.2675383
50
12.6957781
51
28.6404489
0
ARC
8
DEFAULT_255_1_234
10
16.4615227
20
94.5020458
40
0.2065654
50
29.0169854
51
41.1487595
0
ARC
8
DEFAULT_255_1_234
10
16.4818012
20
94.5197003
40
0.1796786
50
41.1646065
51
85.0013516
0
ARC
8
DEFAULT_255_1_234
10
16.4697109
20
94.4462431
40
0.2539726
50
83.7280015
51
90.0964893
0
LINE
8
DEFAULT_255_1_234
10
17.6451297
20
94.5508248
11
17.4957394
21
94.5508248
0
LINE
8
DEFAULT_255_1_234
10
16.9624319
20
94.2046569
11
17.1110191
21
94.2046569
0
ARC
8
DEFAULT_255_1_234
10
17.3769212
20
94.1691959
40
0.1276617
50
359.3334982
51
18.5871358
0
ARC
8
DEFAULT_255_1_234
10
17.3977849
20
94.1747133
40
0.1061371
50
19.3540742
51
54.6485071
0
ARC
8
DEFAULT_255_1_234
10
17.3473751
20
94.1051919
40
0.1920087
50
54.3827097
51
65.0622807
0
ARC
8
DEFAULT_255_1_234
10
17.2705148
20
93.94349
40
0.3710447
50
64.8282493
51
71.4200025
0
ARC
8
DEFAULT_255_1_234
10
17.1803023
20
93.6788107
40
0.6506741
50
71.3164301
51
75.8006402
0
ARC
8
DEFAULT_255_1_234
10
17.0961843
20
93.3547561
40
0.9854641
50
75.6809531
51
78.0061883
0
ARC
8
DEFAULT_255_1_234
10
17.5410376
20
95.452677
40
1.1591028
50
254.6901892
51
258.0466452
0
ARC
8
DEFAULT_255_1_234
10
17.4372285
20
95.0767781
40
0.7691345
50
249.9010773
51
254.755261
0
ARC
8
DEFAULT_255_1_234
10
17.3368627
20
94.8041982
40
0.478665
50
243.3097214
51
249.9709442
0
ARC
8
DEFAULT_255_1_234
10
17.2739648
20
94.6787778
40
0.3383568
50
234.4047477
51
243.2862168
0
ARC
8
DEFAULT_255_1_234
10
17.2117172
20
94.5928232
40
0.2322322
50
220.8667099
51
234.5493881
0
ARC
8
DEFAULT_255_1_234
10
17.1775112
20
94.5616817
40
0.1859923
50
214.3062465
51
220.5065136
0
ARC
8
DEFAULT_255_1_234
10
17.1749192
20
94.558588
40
0.1821108
50
186.912965
51
213.9618616
0
ARC
8
DEFAULT_255_1_234
10
17.2281286
20
94.5672009
40
0.2359799
50
179.8808832
51
187.4339886
0
ARC
8
DEFAULT_255_1_234
10
17.212642
20
94.5692088
40
0.2204978
50
132.005434
51
180.3942919
0
ARC
8
DEFAULT_255_1_234
10
17.2783033
20
94.5086083
40
0.3095791
50
129.2319861
51
133.5302299
0
ARC
8
DEFAULT_255_1_234
10
17.2836541
20
94.4991928
40
0.3202615
50
100.4410011
51
128.9081242
0
ARC
8
DEFAULT_255_1_234
10
17.3110425
20
94.3706455
40
0.4516583
50
89.6985377
51
100.9026564
0
ARC
8
DEFAULT_255_1_234
10
17.3167467
20
94.3546166
40
0.4676928
50
77.6965325
51
90.4076836
0
ARC
8
DEFAULT_255_1_234
10
17.3498451
20
94.4973413
40
0.3211988
50
50.7276602
51
78.0399361
0
ARC
8
DEFAULT_255_1_234
10
17.394291
20
94.5491296
40
0.2529778
50
25.7545084
51
51.0957453
0
ARC
8
DEFAULT_255_1_234
10
17.3944134
20
94.5541206
40
0.250738
50
359.2468627
51
24.7394243
0
ARC
8
DEFAULT_255_1_234
10
17.3659586
20
94.5512664
40
0.1297815
50
359.8050318
51
45.1544908
0
ARC
8
DEFAULT_255_1_234
10
17.3252728
20
94.5164794
40
0.1831883
50
43.8047702
51
49.6271585
0
ARC
8
DEFAULT_255_1_234
10
17.326063
20
94.5165678
40
0.18261
50
49.7980766
51
82.1218353
0
ARC
8
DEFAULT_255_1_234
10
17.3141601
20
94.4518998
40
0.2483163
50
81.4465357
51
90.1710293
0
ARC
8
DEFAULT_255_1_234
10
17.3117204
20
94.399288
40
0.300932
50
89.6766211
51
99.1264602
0
ARC
8
DEFAULT_255_1_234
10
17.2945666
20
94.5026537
40
0.1961547
50
98.968313
51
113.4570237
0
ARC
8
DEFAULT_255_1_234
10
17.2749751
20
94.5494965
40
0.1453859
50
113.722589
51
127.4763106
0
ARC
8
DEFAULT_255_1_234
10
17.2581397
20
94.5695124
40
0.1192639
50
126.9083309
51
150.3165862
0
ARC
8
DEFAULT_255_1_234
10
17.253373
20
94.5745981
40
0.112623
50
151.3635175
51
180.0701457
0
ARC
8
DEFAULT_255_1_234
10
17.2842515
20
94.572499
40
0.1435149
50
179.2169974
51
179.9954013
0
ARC
8
DEFAULT_255_1_234
10
17.2481572
20
94.5712056
40
0.1074286
50
179.3040112
51
198.4225446
0
ARC
8
DEFAULT_255_1_234
10
17.2289706
20
94.5662127
40
0.0876573
50
199.2895851
51
238.6034594
0
ARC
8
DEFAULT_255_1_234
10
17.2892552
20
94.660845
40
0.1998512
50
237.9846301
51
246.8744712
0
ARC
8
DEFAULT_255_1_234
10
17.3750497
20
94.8571205
40
0.4140547
50
246.6234531
51
251.8168941
0
ARC
8
DEFAULT_255_1_234
10
17.4781041
20
95.1665905
40
0.7402308
50
251.713434
51
255.0778414
0
ARC
8
DEFAULT_255_1_234
10
17.5980303
20
95.6132563
40
1.2027155
50
255.0367487
51
257.4705983
0
ARC
8
DEFAULT_255_1_234
10
17.0872313
20
93.3118863
40
1.1546601
50
73.6837552
51
77.5016755
0
ARC
8
DEFAULT_255_1_234
10
17.1961088
20
93.6818581
40
0.7690009
50
68.7044154
51
73.7249639
0
ARC
8
DEFAULT_255_1_234
10
17.2864109
20
93.9145654
40
0.5193873
50
63.590599
51
68.6626804
0
ARC
8
DEFAULT_255_1_234
10
17.3635128
20
94.0683123
40
0.3473927
50
54.7106439
51
63.7013633
0
ARC
8
DEFAULT_255_1_234
10
17.4259582
20
94.15554
40
0.2401192
50
41.0622434
51
54.8487496
0
ARC
8
DEFAULT_255_1_234
10
17.4600969
20
94.1868592
40
0.1938094
50
34.4950568
51
40.7105546
0
ARC
8
DEFAULT_255_1_234
10
17.4647776
20
94.1917078
40
0.1872106
50
9.3763373
51
34.0833615
0
ARC
8
DEFAULT_255_1_234
10
17.3994646
20
94.1791728
40
0.2536988
50
359.7694872
51
9.7663171
0
ARC
8
DEFAULT_255_1_234
10
17.4192147
20
94.1748764
40
0.2339696
50
335.8654732
51
0.8022045
0
ARC
8
DEFAULT_255_1_234
10
17.4267192
20
94.1762197
40
0.2277108
50
307.7357725
51
334.7849066
0
ARC
8
DEFAULT_255_1_234
10
17.3866367
20
94.2212645
40
0.2878951
50
307.0241536
51
308.5578354
0
ARC
8
DEFAULT_255_1_234
10
17.3608699
20
94.2598801
40
0.3342515
50
282.9362969
51
306.5646424
0
ARC
8
DEFAULT_255_1_234
10
17.3246996
20
94.4066108
40
0.4853615
50
271.1026298
51
283.2200835
0
ARC
8
DEFAULT_255_1_234
10
17.318324
20
94.5307418
40
0.6096052
50
269.9919117
51
271.4772449
0
ARC
8
DEFAULT_255_1_234
10
17.3156995
20
94.4229436
40
0.5018135
50
259.0723564
51
270.289833
0
ARC
8
DEFAULT_255_1_234
10
17.2944727
20
94.3112271
40
0.388099
50
245.4963068
51
259.0227342
0
ARC
8
DEFAULT_255_1_234
10
17.2666684
20
94.2530615
40
0.3236422
50
228.9684658
51
245.7044727
0
ARC
8
DEFAULT_255_1_234
10
17.2401127
20
94.2203575
40
0.2815426
50
214.4011705
51
228.6759915
0
ARC
8
DEFAULT_255_1_234
10
17.2111868
20
94.204529
40
0.2487548
50
179.9705531
51
215.1572795
0
ARC
8
DEFAULT_255_1_234
10
17.2812468
20
94.2118806
40
0.1703809
50
182.4299387
51
203.0329699
0
ARC
8
DEFAULT_255_1_234
10
17.2628125
20
94.2062396
40
0.1512226
50
203.798802
51
232.548466
0
ARC
8
DEFAULT_255_1_234
10
17.2904647
20
94.2413826
40
0.1959374
50
232.3782728
51
256.3934612
0
ARC
8
DEFAULT_255_1_234
10
17.3135008
20
94.3303842
40
0.2878639
50
256.104506
51
268.4626716
0
ARC
8
DEFAULT_255_1_234
10
17.3181493
20
94.4100487
40
0.3676329
50
268.0715632
51
270.0138206
0
ARC
8
DEFAULT_255_1_234
10
17.3200017
20
94.3828083
40
0.3403971
50
269.7031147
51
278.8341955
0
ARC
8
DEFAULT_255_1_234
10
17.3382111
20
94.2697876
40
0.2259217
50
278.6728789
51
292.8232582
0
ARC
8
DEFAULT_255_1_234
10
17.3582649
20
94.2196449
40
0.171929
50
293.1452328
51
303.6655899
0
ARC
8
DEFAULT_255_1_234
10
17.3847528
20
94.1820204
40
0.1259367
50
303.1248165
51
321.742847
0
ARC
8
DEFAULT_255_1_234
10
17.4033408
20
94.1657156
40
0.1012531
50
322.4748573
51
1.1291126
0
LINE
8
DEFAULT_255_1_234
10
4.9274119
20
92.0741792
11
4.9274119
21
91.9529
0
LINE
8
DEFAULT_255_1_234
10
4.9274119
20
91.9529
11
4.161184
21
91.9529
0
LINE
8
DEFAULT_255_1_234
10
4.161184
20
91.9529
11
4.161184
21
92.0597221
0
LINE
8
DEFAULT_255_1_234
10
4.161184
20
92.0597221
11
4.5659836
21
92.5094995
0
LINE
8
DEFAULT_255_1_234
10
4.2872823
20
92.7777595
11
4.1386952
21
92.7777595
0
LINE
8
DEFAULT_255_1_234
10
4.6535296
20
92.4139218
11
4.3402918
21
92.0741792
0
LINE
8
DEFAULT_255_1_234
10
4.3402918
20
92.0741792
11
4.9274119
21
92.0741792
0
ARC
8
DEFAULT_255_1_234
10
3.216967
20
93.7024527
40
1.8008286
50
318.5132453
51
320.7828378
0
ARC
8
DEFAULT_255_1_234
10
3.7456644
20
93.2721426
40
1.1191493
50
320.7372736
51
323.9737074
0
ARC
8
DEFAULT_255_1_234
10
4.1376501
20
92.9881361
40
0.6350923
50
323.8961724
51
328.6421089
0
ARC
8
DEFAULT_255_1_234
10
4.3423096
20
92.8619031
40
0.3946393
50
328.8299013
51
331.789948
0
ARC
8
DEFAULT_255_1_234
10
4.4420274
20
92.8104509
40
0.2824501
50
331.4255242
51
352.9364833
0
ARC
8
DEFAULT_255_1_234
10
4.4556775
20
92.8073976
40
0.2685315
50
353.2248685
51
0.0169286
0
ARC
8
DEFAULT_255_1_234
10
4.4766652
20
92.809695
40
0.2475536
50
359.4866256
51
15.9339782
0
ARC
8
DEFAULT_255_1_234
10
4.5273637
20
92.8233286
40
0.1950618
50
16.1714718
51
43.5284424
0
ARC
8
DEFAULT_255_1_234
10
4.5350946
20
92.8310573
40
0.184134
50
43.4415429
51
83.1661404
0
ARC
8
DEFAULT_255_1_234
10
4.5216864
20
92.7573771
40
0.258926
50
82.160215
51
90.1505798
0
ARC
8
DEFAULT_255_1_234
10
4.5185291
20
92.7036865
40
0.3126255
50
89.5460705
51
102.5418777
0
ARC
8
DEFAULT_255_1_234
10
4.4942377
20
92.8067665
40
0.2067346
50
102.1739365
51
129.2061916
0
ARC
8
DEFAULT_255_1_234
10
4.4863449
20
92.8192094
40
0.1921118
50
129.7279328
51
135.7542026
0
ARC
8
DEFAULT_255_1_234
10
4.4984977
20
92.8095045
40
0.2075944
50
136.175737
51
166.3674722
0
ARC
8
DEFAULT_255_1_234
10
4.5991896
20
92.7825182
40
0.3118201
50
165.9092917
51
178.8683903
0
ARC
8
DEFAULT_255_1_234
10
4.6856757
20
92.7778179
40
0.3983935
50
178.438168
51
180.0083905
0
ARC
8
DEFAULT_255_1_234
10
4.5455359
20
92.7817231
40
0.4068601
50
163.2878735
51
180.5581814
0
ARC
8
DEFAULT_255_1_234
10
4.4653621
20
92.803784
40
0.3237344
50
133.454115
51
162.9470031
0
ARC
8
DEFAULT_255_1_234
10
4.4832162
20
92.7848
40
0.349795
50
100.7869394
51
133.4384016
0
ARC
8
DEFAULT_255_1_234
10
4.5179934
20
92.6299319
40
0.5084616
50
89.6605301
51
101.3704185
0
ARC
8
DEFAULT_255_1_234
10
4.5246273
20
92.6360496
40
0.502348
50
78.2171172
51
90.4130393
0
ARC
8
DEFAULT_255_1_234
10
4.5601351
20
92.7984637
40
0.3361092
50
55.9268222
51
78.4888551
0
ARC
8
DEFAULT_255_1_234
10
4.5797791
20
92.8323324
40
0.2970617
50
47.9292255
51
55.4054003
0
ARC
8
DEFAULT_255_1_234
10
4.5899352
20
92.8426502
40
0.2825983
50
4.3347696
51
48.0560701
0
ARC
8
DEFAULT_255_1_234
10
4.4803745
20
92.8256601
40
0.393225
50
359.925209
51
5.5967654
0
ARC
8
DEFAULT_255_1_234
10
4.5232637
20
92.8312816
40
0.3503892
50
337.8914096
51
358.9967724
0
ARC
8
DEFAULT_255_1_234
10
4.2519049
20
92.9359706
40
0.6412172
50
326.9135351
51
338.3505194
0
ARC
8
DEFAULT_255_1_234
10
3.8533353
20
93.1914284
40
1.1146189
50
319.6472867
51
327.095818
0
ARC
8
DEFAULT_255_1_234
10
3.4700356
20
93.5076
40
1.6114559
50
317.2586784
51
319.9046139
0
LINE
8
DEFAULT_255_1_234
10
5.7121127
20
93.1223211
11
5.7121127
21
92.345652
0
LINE
8
DEFAULT_255_1_234
10
5.7121127
20
92.345652
11
5.8743538
21
92.345652
0
LINE
8
DEFAULT_255_1_234
10
5.8743538
20
92.345652
11
5.8743538
21
92.2243728
0
LINE
8
DEFAULT_255_1_234
10
5.8743538
20
92.2243728
11
5.7121127
21
92.2243728
0
LINE
8
DEFAULT_255_1_234
10
5.7121127
20
92.2243728
11
5.7121127
21
91.9529
0
LINE
8
DEFAULT_255_1_234
10
5.7121127
20
91.9529
11
5.5627224
21
91.9529
0
LINE
8
DEFAULT_255_1_234
10
5.5627224
20
91.9529
11
5.5627224
21
92.2243728
0
LINE
8
DEFAULT_255_1_234
10
5.5627224
20
92.2243728
11
5.0302181
21
92.2243728
0
LINE
8
DEFAULT_255_1_234
10
5.0302181
20
92.2243728
11
5.0302181
21
92.3119187
0
LINE
8
DEFAULT_255_1_234
10
5.0302181
20
92.3119187
11
5.5538875
21
93.1223211
0
LINE
8
DEFAULT_255_1_234
10
5.5538875
20
93.1223211
11
5.7121127
21
93.1223211
0
LINE
8
DEFAULT_255_1_234
10
5.5450525
20
92.8869912
11
5.1988846
21
92.345652
0
LINE
8
DEFAULT_255_1_234
10
5.1988846
20
92.345652
11
5.5627224
21
92.345652
0
LINE
8
DEFAULT_255_1_234
10
5.5627224
20
92.345652
11
5.5627224
21
92.9191181
0
LINE
8
DEFAULT_255_1_234
10
5.5627224
20
92.9191181
11
5.5450525
21
92.8869912
0
LINE
8
DEFAULT_255_1_234
10
6.101652
20
93.1223211
11
6.434166
21
92.1577093
0
LINE
8
DEFAULT_255_1_234
10
6.434166
20
92.1577093
11
6.7682863
21
93.1223211
0
LINE
8
DEFAULT_255_1_234
10
6.7682863
20
93.1223211
11
6.9369528
21
93.1223211
0
LINE
8
DEFAULT_255_1_234
10
6.9369528
20
93.1223211
11
6.5032389
21
91.9529
0
LINE
8
DEFAULT_255_1_234
10
6.5032389
20
91.9529
11
6.3666994
21
91.9529
0
LINE
8
DEFAULT_255_1_234
10
6.3666994
20
91.9529
11
5.9337887
21
93.1223211
0
LINE
8
DEFAULT_255_1_234
10
5.9337887
20
93.1223211
11
6.101652
21
93.1223211
0
LINE
8
DEFAULT_255_1_234
10
4.8942628
20
5.8098211
11
4.8942628
21
5.033152
0
LINE
8
DEFAULT_255_1_234
10
4.8942628
20
5.033152
11
5.0565039
21
5.033152
0
LINE
8
DEFAULT_255_1_234
10
5.0565039
20
5.033152
11
5.0565039
21
4.9118728
0
LINE
8
DEFAULT_255_1_234
10
5.0565039
20
4.9118728
11
4.8942628
21
4.9118728
0
LINE
8
DEFAULT_255_1_234
10
4.8942628
20
4.9118728
11
4.8942628
21
4.6404
0
LINE
8
DEFAULT_255_1_234
10
4.8942628
20
4.6404
11
4.7448725
21
4.6404
0
LINE
8
DEFAULT_255_1_234
10
4.7448725
20
4.6404
11
4.7448725
21
4.9118728
0
LINE
8
DEFAULT_255_1_234
10
4.7448725
20
4.9118728
11
4.2123682
21
4.9118728
0
LINE
8
DEFAULT_255_1_234
10
4.2123682
20
4.9118728
11
4.2123682
21
4.9994187
0
LINE
8
DEFAULT_255_1_234
10
4.2123682
20
4.9994187
11
4.7360375
21
5.8098211
0
LINE
8
DEFAULT_255_1_234
10
4.7360375
20
5.8098211
11
4.8942628
21
5.8098211
0
LINE
8
DEFAULT_255_1_234
10
4.7272026
20
5.5744912
11
4.3810347
21
5.033152
0
LINE
8
DEFAULT_255_1_234
10
4.3810347
20
5.033152
11
4.7448725
21
5.033152
0
LINE
8
DEFAULT_255_1_234
10
4.7448725
20
5.033152
11
4.7448725
21
5.6066181
0
LINE
8
DEFAULT_255_1_234
10
4.7448725
20
5.6066181
11
4.7272026
21
5.5744912
0
LINE
8
DEFAULT_255_1_234
10
5.9239316
20
5.3319327
11
5.9239316
21
5.1391709
0
LINE
8
DEFAULT_255_1_234
10
5.1858149
20
5.1190916
11
5.1858149
21
5.3174755
0
LINE
8
DEFAULT_255_1_234
10
5.7753445
20
5.0990123
11
5.7753445
21
5.3423739
0
LINE
8
DEFAULT_255_1_234
10
5.3344021
20
5.3536184
11
5.3344021
21
5.1158789
0
ARC
8
DEFAULT_255_1_234
10
4.6992206
20
5.1342805
40
1.2247208
50
353.8441951
51
0.2287902
0
ARC
8
DEFAULT_255_1_234
10
5.163171
20
5.0824806
40
0.7578929
50
344.4934747
51
353.9765454
0
ARC
8
DEFAULT_255_1_234
10
5.46243
20
4.9973981
40
0.4467846
50
329.2803592
51
344.7472793
0
ARC
8
DEFAULT_255_1_234
10
5.5617125
20
4.9429018
40
0.3336173
50
324.9352394
51
328.6160465
0
ARC
8
DEFAULT_255_1_234
10
5.5994233
20
4.9165427
40
0.2876076
50
280.580143
51
324.9173126
0
ARC
8
DEFAULT_255_1_234
10
5.5593026
20
5.0836099
40
0.4592847
50
269.5977311
51
281.6734359
0
ARC
8
DEFAULT_255_1_234
10
5.5520932
20
5.0716173
40
0.4472986
50
256.6228859
51
270.51044
0
ARC
8
DEFAULT_255_1_234
10
5.5118909
20
4.9167877
40
0.2873874
50
215.8618325
51
257.2788573
0
ARC
8
DEFAULT_255_1_234
10
5.6139941
20
4.9852977
40
0.4102928
50
197.9693508
51
215.2623606
0
ARC
8
DEFAULT_255_1_234
10
5.8625057
20
5.0691709
40
0.6725652
50
187.8816417
51
198.2346507
0
ARC
8
DEFAULT_255_1_234
10
6.2583265
20
5.1263079
40
1.0724845
50
180.8976217
51
188.0055519
0
ARC
8
DEFAULT_255_1_234
10
6.5383453
20
5.1366777
40
1.3526448
50
180.7449369
51
181.1510016
0
ARC
8
DEFAULT_255_1_234
10
6.3806182
20
5.3223042
40
1.1948131
50
173.7675579
51
180.231553
0
ARC
8
DEFAULT_255_1_234
10
5.9288329
20
5.3733666
40
0.7401564
50
164.3058563
51
173.9002247
0
ARC
8
DEFAULT_255_1_234
10
5.6376398
20
5.4572656
40
0.4371288
50
148.7922025
51
164.568378
0
ARC
8
DEFAULT_255_1_234
10
5.542485
20
5.5103929
40
0.3282386
50
144.5883898
51
148.1176286
0
ARC
8
DEFAULT_255_1_234
10
5.5081748
20
5.5343315
40
0.2864044
50
101.6440918
51
144.514236
0
ARC
8
DEFAULT_255_1_234
10
5.5506814
20
5.3654069
40
0.4604934
50
89.5284041
51
102.5819763
0
ARC
8
DEFAULT_255_1_234
10
5.5585902
20
5.3615018
40
0.464401
50
77.0437873
51
90.5081339
0
ARC
8
DEFAULT_255_1_234
10
5.5987904
20
5.5257615
40
0.2953195
50
48.2778575
51
77.4994676
0
ARC
8
DEFAULT_255_1_234
10
5.6060535
20
5.5386746
40
0.2808655
50
36.3142134
51
47.6305865
0
ARC
8
DEFAULT_255_1_234
10
5.5191842
20
5.4801515
40
0.3855453
50
18.2931786
51
35.6769206
0
ARC
8
DEFAULT_255_1_234
10
5.2648601
20
5.3928593
40
0.654423
50
8.024666
51
18.5605216
0
ARC
8
DEFAULT_255_1_234
10
4.8485521
20
5.3313792
40
1.0752407
50
1.1274072
51
8.1718305
0
ARC
8
DEFAULT_255_1_234
10
4.5249712
20
5.3186885
40
1.3990231
50
0.5424119
51
1.3863029
0
ARC
8
DEFAULT_255_1_234
10
4.7071089
20
5.3459342
40
1.0682415
50
359.8090433
51
4.9407866
0
ARC
8
DEFAULT_255_1_234
10
5.1281103
20
5.3835113
40
0.6455691
50
4.8362157
51
12.2904523
0
ARC
8
DEFAULT_255_1_234
10
5.4036218
20
5.4448965
40
0.3633074
50
12.0805627
51
23.8173984
0
ARC
8
DEFAULT_255_1_234
10
5.5209924
20
5.4945919
40
0.2358723
50
24.2871213
51
31.3935614
0
ARC
8
DEFAULT_255_1_234
10
5.5734621
20
5.5289233
40
0.1732111
50
30.7407893
51
82.4657128
0
ARC
8
DEFAULT_255_1_234
10
5.5554755
20
5.4405691
40
0.263235
50
81.1060089
51
90.2184952
0
ARC
8
DEFAULT_255_1_234
10
5.5519054
20
5.4663924
40
0.2374236
50
89.3806855
51
105.6762551
0
ARC
8
DEFAULT_255_1_234
10
5.5335685
20
5.5330567
40
0.1682847
50
105.7981136
51
149.7388061
0
ARC
8
DEFAULT_255_1_234
10
5.6399763
20
5.469095
40
0.2924306
50
149.4208916
51
163.6286378
0
ARC
8
DEFAULT_255_1_234
10
5.8490651
20
5.405325
40
0.5110213
50
163.3763315
51
172.1410975
0
ARC
8
DEFAULT_255_1_234
10
6.179137
20
5.3580518
40
0.8444586
50
172.0259487
51
178.0703232
0
ARC
8
DEFAULT_255_1_234
10
6.482146
20
5.3436906
40
1.1477868
50
177.8631668
51
179.5044149
0
ARC
8
DEFAULT_255_1_234
10
6.3748864
20
5.1122389
40
1.0404907
50
179.7995573
51
185.2460446
0
ARC
8
DEFAULT_255_1_234
10
5.9705903
20
5.0739513
40
0.6343885
50
185.1411642
51
193.0079639
0
ARC
8
DEFAULT_255_1_234
10
5.7062376
20
5.0114641
40
0.3627568
50
192.7897626
51
205.2507664
0
ARC
8
DEFAULT_255_1_234
10
5.6015923
20
4.9647415
40
0.2481908
50
205.8005384
51
211.2537509
0
ARC
8
DEFAULT_255_1_234
10
5.5492363
20
4.929658
40
0.1852521
50
210.3789793
51
238.4008143
0
ARC
8
DEFAULT_255_1_234
10
5.5472885
20
4.9343376
40
0.1882621
50
239.6520629
51
265.9793761
0
ARC
8
DEFAULT_255_1_234
10
5.5558085
20
5.0015427
40
0.2559272
50
265.1315437
51
270.060332
0
ARC
8
DEFAULT_255_1_234
10
5.5586864
20
4.9691534
40
0.2235528
50
269.3314664
51
287.2178029
0
ARC
8
DEFAULT_255_1_234
10
5.5724716
20
4.9188279
40
0.1714108
50
287.7958004
51
329.080874
0
ARC
8
DEFAULT_255_1_234
10
5.4767173
20
4.978593
40
0.2842745
50
328.6634704
51
343.3325132
0
ARC
8
DEFAULT_255_1_234
10
5.2594193
20
5.0462863
40
0.5118644
50
343.0499468
51
351.9393422
0
ARC
8
DEFAULT_255_1_234
10
4.9127493
20
5.0973949
40
0.8622784
50
351.8069023
51
357.7959224
0
ARC
8
DEFAULT_255_1_234
10
4.5892049
20
5.1141721
40
1.1862365
50
357.5871873
51
359.2677531
0
LINE
8
DEFAULT_255_1_234
10
6.207452
20
5.8098211
11
6.539966
21
4.8452093
0
LINE
8
DEFAULT_255_1_234
10
6.539966
20
4.8452093
11
6.8740863
21
5.8098211
0
LINE
8
DEFAULT_255_1_234
10
6.8740863
20
5.8098211
11
7.0427528
21
5.8098211
0
LINE
8
DEFAULT_255_1_234
10
7.0427528
20
5.8098211
11
6.6090389
21
4.6404
0
LINE
8
DEFAULT_255_1_234
10
6.6090389
20
4.6404
11
6.4724994
21
4.6404
0
LINE
8
DEFAULT_255_1_234
10
6.4724994
20
4.6404
11
6.0395887
21
5.8098211
0
LINE
8
DEFAULT_255_1_234
10
6.0395887
20
5.8098211
11
6.207452
21
5.8098211
0
LINE
8
DEFAULT_255_1_234
10
4.3112902
20
13.7473211
11
4.3112902
21
12.5779
0
LINE
8
DEFAULT_255_1_234
10
4.3112902
20
12.5779
11
4.1570808
21
12.5779
0
LINE
8
DEFAULT_255_1_234
10
4.1570808
20
12.5779
11
4.1570808
21
13.7473211
0
LINE
8
DEFAULT_255_1_234
10
4.1570808
20
13.7473211
11
4.3112902
21
13.7473211
0
LINE
8
DEFAULT_255_1_234
10
5.4927589
20
13.1987534
11
5.4927589
21
13.1248614
0
LINE
8
DEFAULT_255_1_234
10
4.5522423
20
13.1144201
11
4.5522423
21
13.1987534
0
LINE
8
DEFAULT_255_1_234
10
5.3393527
20
13.1136169
11
5.3393527
21
13.2003597
0
LINE
8
DEFAULT_255_1_234
10
4.7056485
20
13.210801
11
4.7056485
21
13.1248614
0
ARC
8
DEFAULT_255_1_234
10
4.6285615
20
13.1209015
40
0.8642064
50
350.487711
51
0.2625388
0
ARC
8
DEFAULT_255_1_234
10
4.8578857
20
13.0814578
40
0.631518
50
336.0277639
51
350.5787438
0
ARC
8
DEFAULT_255_1_234
10
4.992368
20
13.0206892
40
0.4839466
50
319.8877444
51
336.1328423
0
ARC
8
DEFAULT_255_1_234
10
5.0526321
20
12.972458
40
0.4067874
50
302.4806467
51
319.6143626
0
ARC
8
DEFAULT_255_1_234
10
5.0411331
20
12.9946202
40
0.4316636
50
275.8195682
51
302.1884709
0
ARC
8
DEFAULT_255_1_234
10
5.0244964
20
13.1088665
40
0.5470306
50
269.9171439
51
276.3397983
0
ARC
8
DEFAULT_255_1_234
10
5.0200174
20
13.0402681
40
0.4784458
50
252.5219675
51
270.4416499
0
ARC
8
DEFAULT_255_1_234
10
5.0056433
20
12.9863592
40
0.422716
50
237.5352116
51
252.1857531
0
ARC
8
DEFAULT_255_1_234
10
5.0145629
20
12.9977363
40
0.4371052
50
209.063312
51
237.3492538
0
ARC
8
DEFAULT_255_1_234
10
5.1015477
20
13.0523685
40
0.5397041
50
205.1183774
51
209.6470015
0
ARC
8
DEFAULT_255_1_234
10
5.1812514
20
13.086183
40
0.6262326
50
188.7215458
51
204.8240747
0
ARC
8
DEFAULT_255_1_234
10
5.3810042
20
13.1198067
40
0.8287794
50
180.3723947
51
188.9252049
0
ARC
8
DEFAULT_255_1_234
10
5.3782794
20
13.2027402
40
0.8260467
50
169.5253763
51
180.2765336
0
ARC
8
DEFAULT_255_1_234
10
5.1880243
20
13.2377309
40
0.6326007
50
155.8315255
51
169.5089989
0
ARC
8
DEFAULT_255_1_234
10
5.0599744
20
13.2971348
40
0.4914567
50
139.6258461
51
156.0379525
0
ARC
8
DEFAULT_255_1_234
10
5.0010077
20
13.3445799
40
0.4158054
50
122.6416387
51
139.3430715
0
ARC
8
DEFAULT_255_1_234
10
5.0110697
20
13.3262451
40
0.4366739
50
93.0223692
51
122.455762
0
ARC
8
DEFAULT_255_1_234
10
5.0218694
20
13.2297709
40
0.5336137
50
89.975342
51
93.6341897
0
ARC
8
DEFAULT_255_1_234
10
5.0257473
20
13.2696242
40
0.4937738
50
73.746375
51
90.4233405
0
ARC
8
DEFAULT_255_1_234
10
5.0433052
20
13.3376287
40
0.4235786
50
57.662753
51
73.4518111
0
ARC
8
DEFAULT_255_1_234
10
5.0425058
20
13.3397832
40
0.4221899
50
29.1440151
51
57.414694
0
ARC
8
DEFAULT_255_1_234
10
4.9490253
20
13.2814005
40
0.5322966
50
24.0982783
51
29.7323517
0
ARC
8
DEFAULT_255_1_234
10
4.8456528
20
13.2385399
40
0.6441673
50
8.6655297
51
23.8241346
0
ARC
8
DEFAULT_255_1_234
10
4.6222266
20
13.2020854
40
0.8705386
50
359.7806941
51
8.8218784
0
ARC
8
DEFAULT_255_1_234
10
4.5075264
20
13.2046345
40
0.8318373
50
359.7055579
51
8.036044
0
ARC
8
DEFAULT_255_1_234
10
4.807527
20
13.2483239
40
0.5286768
50
7.8928306
51
20.2962107
0
ARC
8
DEFAULT_255_1_234
10
4.9702841
20
13.3083395
40
0.3552073
50
20.3231126
51
36.4992797
0
ARC
8
DEFAULT_255_1_234
10
5.0388387
20
13.3611402
40
0.2686974
50
36.1437156
51
85.6627023
0
ARC
8
DEFAULT_255_1_234
10
5.0225933
20
13.2571221
40
0.373739
50
84.3852322
51
90.0757696
0
ARC
8
DEFAULT_255_1_234
10
5.0183605
20
13.3231839
40
0.3076997
50
89.3038458
51
109.9045693
0
ARC
8
DEFAULT_255_1_234
10
5.0090996
20
13.3614062
40
0.2686424
50
110.8228367
51
143.9179474
0
ARC
8
DEFAULT_255_1_234
10
5.1024656
20
13.2901236
40
0.3860887
50
143.5289163
51
163.2980757
0
ARC
8
DEFAULT_255_1_234
10
5.2932477
20
13.2301433
40
0.5860659
50
163.0418846
51
174.3140048
0
ARC
8
DEFAULT_255_1_234
10
5.5336589
20
13.2023854
40
0.8280531
50
174.0509143
51
179.4176892
0
ARC
8
DEFAULT_255_1_234
10
5.4832328
20
13.1206954
40
0.7775954
50
179.6930361
51
188.7906598
0
ARC
8
DEFAULT_255_1_234
10
5.2168807
20
13.0780935
40
0.5078633
50
188.6331305
51
202.5629587
0
ARC
8
DEFAULT_255_1_234
10
5.0914399
20
13.0276996
40
0.3726913
50
202.8081362
51
216.1193925
0
ARC
8
DEFAULT_255_1_234
10
5.0104969
20
12.9625676
40
0.2689577
50
215.0755913
51
264.6379694
0
ARC
8
DEFAULT_255_1_234
10
5.0231919
20
13.0456513
40
0.3528978
50
263.846392
51
270.0833719
0
ARC
8
DEFAULT_255_1_234
10
5.0273309
20
13.0198374
40
0.3271036
50
269.3649385
51
287.5152008
0
ARC
8
DEFAULT_255_1_234
10
5.0451467
20
12.9551238
40
0.2600406
50
288.0630309
51
323.8113348
0
ARC
8
DEFAULT_255_1_234
10
4.9580309
20
13.0201049
40
0.3687189
50
323.6547608
51
342.6590488
0
ARC
8
DEFAULT_255_1_234
10
4.7548924
20
13.0861952
40
0.5823286
50
342.4091907
51
353.6451149
0
ARC
8
DEFAULT_255_1_234
10
4.4717434
20
13.121419
40
0.8676442
50
353.4029884
51
359.4847795
0
LINE
8
DEFAULT_255_1_234
10
6.5874848
20
13.160201
11
6.5874848
21
12.7313062
0
LINE
8
DEFAULT_255_1_234
10
5.6863238
20
13.1063884
11
5.6863238
21
13.2083915
0
LINE
8
DEFAULT_255_1_234
10
6.5874848
20
13.4043659
11
6.4332754
21
13.4043659
0
LINE
8
DEFAULT_255_1_234
10
5.8413363
20
13.2124073
11
5.8413363
21
13.1168296
0
LINE
8
DEFAULT_255_1_234
10
6.4340786
20
12.7722681
11
6.4340786
21
13.0349059
0
LINE
8
DEFAULT_255_1_234
10
6.4340786
20
13.0349059
11
6.163409
21
13.0349059
0
LINE
8
DEFAULT_255_1_234
10
6.163409
20
13.0349059
11
6.163409
21
13.160201
0
LINE
8
DEFAULT_255_1_234
10
6.163409
20
13.160201
11
6.5874848
21
13.160201
0
ARC
8
DEFAULT_255_1_234
10
6.3043354
20
12.9306396
40
0.3462765
50
295.8437914
51
324.8549609
0
ARC
8
DEFAULT_255_1_234
10
6.2627321
20
13.0059567
40
0.4322211
50
291.5695085
51
296.4549398
0
ARC
8
DEFAULT_255_1_234
10
6.2116573
20
13.1424275
40
0.5779178
50
278.6622409
51
291.3045483
0
ARC
8
DEFAULT_255_1_234
10
6.1777064
20
13.3572408
40
0.7953952
50
270.020006
51
278.7494541
0
ARC
8
DEFAULT_255_1_234
10
6.1738988
20
13.4889036
40
0.927067
50
269.9969998
51
270.2524872
0
ARC
8
DEFAULT_255_1_234
10
6.1700702
20
13.0805589
40
0.5187361
50
253.5786322
51
270.4175299
0
ARC
8
DEFAULT_255_1_234
10
6.1527358
20
13.0134236
40
0.4494451
50
238.8203306
51
253.2788235
0
ARC
8
DEFAULT_255_1_234
10
6.1507731
20
13.0083231
40
0.4440665
50
206.7883783
51
238.6962764
0
ARC
8
DEFAULT_255_1_234
10
6.2281641
20
13.0547405
40
0.5341121
50
206.1129412
51
207.4916643
0
ARC
8
DEFAULT_255_1_234
10
6.2878556
20
13.0801488
40
0.5989041
50
188.6921119
51
205.7821245
0
ARC
8
DEFAULT_255_1_234
10
6.4734918
20
13.111723
40
0.7871862
50
180.3882829
51
188.9219216
0
ARC
8
DEFAULT_255_1_234
10
6.5962732
20
13.2140464
40
0.909967
50
170.2024264
51
180.3560651
0
ARC
8
DEFAULT_255_1_234
10
6.279925
20
13.2706237
40
0.5886083
50
154.2857445
51
170.3893044
0
ARC
8
DEFAULT_255_1_234
10
6.1517453
20
13.329295
40
0.4476743
50
139.8401567
51
153.9332699
0
ARC
8
DEFAULT_255_1_234
10
6.1158189
20
13.3580577
40
0.4016697
50
98.4190291
51
139.6707122
0
ARC
8
DEFAULT_255_1_234
10
6.1537706
20
13.1735328
40
0.5898566
50
89.7659205
51
99.4415478
0
ARC
8
DEFAULT_255_1_234
10
6.1602956
20
13.1800844
40
0.5833147
50
78.0551672
51
90.4042112
0
ARC
8
DEFAULT_255_1_234
10
6.2007466
20
13.3619644
40
0.3970055
50
54.6380464
51
78.3339173
0
ARC
8
DEFAULT_255_1_234
10
6.2197522
20
13.3939795
40
0.3599102
50
50.031736
51
54.1558201
0
ARC
8
DEFAULT_255_1_234
10
6.2090309
20
13.3843766
40
0.3741624
50
18.1092409
51
49.7180913
0
ARC
8
DEFAULT_255_1_234
10
6.0633509
20
13.3310089
40
0.5292424
50
7.9672797
51
18.6984571
0
ARC
8
DEFAULT_255_1_234
10
6.0783988
20
13.3433504
40
0.3600838
50
9.7557294
51
27.3215714
0
ARC
8
DEFAULT_255_1_234
10
6.1911459
20
13.3996912
40
0.2340608
50
27.7361077
51
84.5257964
0
ARC
8
DEFAULT_255_1_234
10
6.1583846
20
13.235364
40
0.4011215
50
82.106034
51
90.2001166
0
ARC
8
DEFAULT_255_1_234
10
6.1534063
20
13.2861215
40
0.3503799
50
89.4150119
51
105.5823402
0
ARC
8
DEFAULT_255_1_234
10
6.1277061
20
13.3796867
40
0.2533503
50
105.6678618
51
144.2648758
0
ARC
8
DEFAULT_255_1_234
10
6.2170317
20
13.3161289
40
0.3629787
50
144.3561283
51
162.8564086
0
ARC
8
DEFAULT_255_1_234
10
6.4254226
20
13.2492017
40
0.5818441
50
162.6076014
51
173.6780284
0
ARC
8
DEFAULT_255_1_234
10
6.7315369
20
13.211989
40
0.8902007
50
173.4670142
51
179.9730753
0
ARC
8
DEFAULT_255_1_234
10
6.5407041
20
13.112626
40
0.6993804
50
179.6556203
51
190.0080463
0
ARC
8
DEFAULT_255_1_234
10
6.309087
20
13.0701375
40
0.4639066
50
189.8116607
51
206.6796816
0
ARC
8
DEFAULT_255_1_234
10
6.2246022
20
13.0307503
40
0.3707421
50
207.1031645
51
217.7074368
0
ARC
8
DEFAULT_255_1_234
10
6.1611711
20
12.9755559
40
0.2868417
50
216.7345547
51
265.6812148
0
ARC
8
DEFAULT_255_1_234
10
6.1742502
20
13.0659855
40
0.3780509
50
264.7366618
51
270.0611241
0
ARC
8
DEFAULT_255_1_234
10
6.1765765
20
13.3500111
40
0.662079
50
269.8335834
51
276.0539546
0
ARC
8
DEFAULT_255_1_234
10
6.1972769
20
13.159856
40
0.4708016
50
275.9894168
51
284.4615085
0
ARC
8
DEFAULT_255_1_234
10
6.2170776
20
13.0765663
40
0.3852094
50
284.7034461
51
286.4953897
0
ARC
8
DEFAULT_255_1_234
10
6.257779
20
12.9454965
40
0.2479842
50
286.0770838
51
304.2625829
0
ARC
8
DEFAULT_255_1_234
10
6.2711204
20
12.9236594
40
0.2224291
50
304.5891602
51
317.1073298
0
LINE
8
DEFAULT_255_1_234
10
4.3459902
20
21.6848211
11
4.3459902
21
20.5154
0
LINE
8
DEFAULT_255_1_234
10
4.3459902
20
20.5154
11
4.1917808
21
20.5154
0
LINE
8
DEFAULT_255_1_234
10
4.1917808
20
20.5154
11
4.1917808
21
21.6848211
0
LINE
8
DEFAULT_255_1_234
10
4.1917808
20
21.6848211
11
4.3459902
21
21.6848211
0
LINE
8
DEFAULT_255_1_234
10
5.5274589
20
21.1362534
11
5.5274589
21
21.0623614
0
LINE
8
DEFAULT_255_1_234
10
4.5869423
20
21.0519201
11
4.5869423
21
21.1362534
0
LINE
8
DEFAULT_255_1_234
10
5.3740527
20
21.0511169
11
5.3740527
21
21.1378597
0
LINE
8
DEFAULT_255_1_234
10
4.7403485
20
21.148301
11
4.7403485
21
21.0623614
0
ARC
8
DEFAULT_255_1_234
10
4.6632615
20
21.0584015
40
0.8642064
50
350.487711
51
0.2625388
0
ARC
8
DEFAULT_255_1_234
10
4.8925857
20
21.0189578
40
0.631518
50
336.0277639
51
350.5787438
0
ARC
8
DEFAULT_255_1_234
10
5.027068
20
20.9581892
40
0.4839466
50
319.8877444
51
336.1328423
0
ARC
8
DEFAULT_255_1_234
10
5.0873321
20
20.909958
40
0.4067874
50
302.4806467
51
319.6143626
0
ARC
8
DEFAULT_255_1_234
10
5.0758331
20
20.9321202
40
0.4316636
50
275.8195682
51
302.1884709
0
ARC
8
DEFAULT_255_1_234
10
5.0591964
20
21.0463665
40
0.5470306
50
269.9171439
51
276.3397983
0
ARC
8
DEFAULT_255_1_234
10
5.0547174
20
20.9777681
40
0.4784458
50
252.5219675
51
270.4416499
0
ARC
8
DEFAULT_255_1_234
10
5.0403433
20
20.9238592
40
0.422716
50
237.5352116
51
252.1857531
0
ARC
8
DEFAULT_255_1_234
10
5.0492629
20
20.9352363
40
0.4371052
50
209.063312
51
237.3492538
0
ARC
8
DEFAULT_255_1_234
10
5.1362477
20
20.9898685
40
0.5397041
50
205.1183774
51
209.6470015
0
ARC
8
DEFAULT_255_1_234
10
5.2159514
20
21.023683
40
0.6262326
50
188.7215458
51
204.8240747
0
ARC
8
DEFAULT_255_1_234
10
5.4157042
20
21.0573067
40
0.8287794
50
180.3723947
51
188.9252049
0
ARC
8
DEFAULT_255_1_234
10
5.4129794
20
21.1402402
40
0.8260467
50
169.5253763
51
180.2765336
0
ARC
8
DEFAULT_255_1_234
10
5.2227243
20
21.1752309
40
0.6326007
50
155.8315255
51
169.5089989
0
ARC
8
DEFAULT_255_1_234
10
5.0946744
20
21.2346348
40
0.4914567
50
139.6258461
51
156.0379525
0
ARC
8
DEFAULT_255_1_234
10
5.0357077
20
21.2820799
40
0.4158054
50
122.6416387
51
139.3430715
0
ARC
8
DEFAULT_255_1_234
10
5.0457697
20
21.2637451
40
0.4366739
50
93.0223692
51
122.455762
0
ARC
8
DEFAULT_255_1_234
10
5.0565694
20
21.1672709
40
0.5336137
50
89.975342
51
93.6341897
0
ARC
8
DEFAULT_255_1_234
10
5.0604473
20
21.2071242
40
0.4937738
50
73.746375
51
90.4233405
0
ARC
8
DEFAULT_255_1_234
10
5.0780052
20
21.2751287
40
0.4235786
50
57.662753
51
73.4518111
0
ARC
8
DEFAULT_255_1_234
10
5.0772058
20
21.2772832
40
0.4221899
50
29.1440151
51
57.414694
0
ARC
8
DEFAULT_255_1_234
10
4.9837253
20
21.2189005
40
0.5322966
50
24.0982783
51
29.7323517
0
ARC
8
DEFAULT_255_1_234
10
4.8803528
20
21.1760399
40
0.6441673
50
8.6655297
51
23.8241346
0
ARC
8
DEFAULT_255_1_234
10
4.6569266
20
21.1395854
40
0.8705386
50
359.7806941
51
8.8218784
0
ARC
8
DEFAULT_255_1_234
10
4.5422264
20
21.1421345
40
0.8318373
50
359.7055579
51
8.036044
0
ARC
8
DEFAULT_255_1_234
10
4.842227
20
21.1858239
40
0.5286768
50
7.8928306
51
20.2962107
0
ARC
8
DEFAULT_255_1_234
10
5.0049841
20
21.2458395
40
0.3552073
50
20.3231126
51
36.4992797
0
ARC
8
DEFAULT_255_1_234
10
5.0735387
20
21.2986402
40
0.2686974
50
36.1437156
51
85.6627023
0
ARC
8
DEFAULT_255_1_234
10
5.0572933
20
21.1946221
40
0.373739
50
84.3852322
51
90.0757696
0
ARC
8
DEFAULT_255_1_234
10
5.0530605
20
21.2606839
40
0.3076997
50
89.3038458
51
109.9045693
0
ARC
8
DEFAULT_255_1_234
10
5.0437996
20
21.2989062
40
0.2686424
50
110.8228367
51
143.9179474
0
ARC
8
DEFAULT_255_1_234
10
5.1371656
20
21.2276236
40
0.3860887
50
143.5289163
51
163.2980757
0
ARC
8
DEFAULT_255_1_234
10
5.3279477
20
21.1676433
40
0.5860659
50
163.0418846
51
174.3140048
0
ARC
8
DEFAULT_255_1_234
10
5.5683589
20
21.1398854
40
0.8280531
50
174.0509143
51
179.4176892
0
ARC
8
DEFAULT_255_1_234
10
5.5179328
20
21.0581954
40
0.7775954
50
179.6930361
51
188.7906598
0
ARC
8
DEFAULT_255_1_234
10
5.2515807
20
21.0155935
40
0.5078633
50
188.6331305
51
202.5629587
0
ARC
8
DEFAULT_255_1_234
10
5.1261399
20
20.9651996
40
0.3726913
50
202.8081362
51
216.1193925
0
ARC
8
DEFAULT_255_1_234
10
5.0451969
20
20.9000676
40
0.2689577
50
215.0755913
51
264.6379694
0
ARC
8
DEFAULT_255_1_234
10
5.0578919
20
20.9831513
40
0.3528978
50
263.846392
51
270.0833719
0
ARC
8
DEFAULT_255_1_234
10
5.0620309
20
20.9573374
40
0.3271036
50
269.3649385
51
287.5152008
0
ARC
8
DEFAULT_255_1_234
10
5.0798467
20
20.8926238
40
0.2600406
50
288.0630309
51
323.8113348
0
ARC
8
DEFAULT_255_1_234
10
4.9927309
20
20.9576049
40
0.3687189
50
323.6547608
51
342.6590488
0
ARC
8
DEFAULT_255_1_234
10
4.7895924
20
21.0236952
40
0.5823286
50
342.4091907
51
353.6451149
0
ARC
8
DEFAULT_255_1_234
10
4.5064434
20
21.058919
40
0.8676442
50
353.4029884
51
359.4847795
0
LINE
8
DEFAULT_255_1_234
10
5.7957189
20
21.6848211
11
6.1282329
21
20.7202093
0
LINE
8
DEFAULT_255_1_234
10
6.1282329
20
20.7202093
11
6.4623532
21
21.6848211
0
LINE
8
DEFAULT_255_1_234
10
6.4623532
20
21.6848211
11
6.6310197
21
21.6848211
0
LINE
8
DEFAULT_255_1_234
10
6.6310197
20
21.6848211
11
6.1973059
21
20.5154
0
LINE
8
DEFAULT_255_1_234
10
6.1973059
20
20.5154
11
6.0607663
21
20.5154
0
LINE
8
DEFAULT_255_1_234
10
6.0607663
20
20.5154
11
5.6278556
21
21.6848211
0
LINE
8
DEFAULT_255_1_234
10
5.6278556
20
21.6848211
11
5.7957189
21
21.6848211
0
LINE
8
DEFAULT_255_1_234
10
4.5089392
20
28.4529
11
4.1033364
21
28.4529
0
LINE
8
DEFAULT_255_1_234
10
4.1033364
20
28.4529
11
4.1033364
21
29.6223211
0
LINE
8
DEFAULT_255_1_234
10
4.1033364
20
29.6223211
11
4.4856471
21
29.6223211
0
LINE
8
DEFAULT_255_1_234
10
4.5145614
20
28.9998614
11
4.2575458
21
28.9998614
0
LINE
8
DEFAULT_255_1_234
10
4.2575458
20
28.9998614
11
4.2575458
21
28.5789983
0
LINE
8
DEFAULT_255_1_234
10
4.2575458
20
28.5789983
11
4.5121519
21
28.5789983
0
LINE
8
DEFAULT_255_1_234
10
4.2575458
20
29.4954196
11
4.2575458
21
29.1235501
0
LINE
8
DEFAULT_255_1_234
10
4.2575458
20
29.1235501
11
4.4904662
21
29.1235501
0
LINE
8
DEFAULT_255_1_234
10
4.4856471
20
29.4954196
11
4.2575458
21
29.4954196
0
ARC
8
DEFAULT_255_1_234
10
4.489418
20
28.8855901
40
0.7367406
50
82.1257326
51
90.2932599
0
ARC
8
DEFAULT_255_1_234
10
4.5283135
20
29.1574013
40
0.4621653
50
69.9044149
51
82.2857423
0
ARC
8
DEFAULT_255_1_234
10
4.5853813
20
29.3116637
40
0.2976871
50
51.1838526
51
70.0181538
0
ARC
8
DEFAULT_255_1_234
10
4.6108779
20
29.348724
40
0.2528517
50
12.1017251
51
50.4214761
0
ARC
8
DEFAULT_255_1_234
10
4.4724653
20
29.3139676
40
0.3955061
50
359.5251267
51
12.8211707
0
ARC
8
DEFAULT_255_1_234
10
4.6304579
20
29.3070344
40
0.2375281
50
323.4908128
51
0.8817314
0
ARC
8
DEFAULT_255_1_234
10
4.5886266
20
29.339355
40
0.2903817
50
298.6825083
51
323.2756573
0
ARC
8
DEFAULT_255_1_234
10
4.5524629
20
29.3994649
40
0.3604842
50
293.1999386
51
299.1396394
0
ARC
8
DEFAULT_255_1_234
10
4.6197602
20
28.7909126
40
0.2871098
50
54.0011765
51
74.9167975
0
ARC
8
DEFAULT_255_1_234
10
4.6313961
20
28.8106332
40
0.2643248
50
36.3580696
51
53.5291921
0
ARC
8
DEFAULT_255_1_234
10
4.6187203
20
28.8015998
40
0.2798884
50
4.8189881
51
36.3089977
0
ARC
8
DEFAULT_255_1_234
10
4.5408038
20
28.790627
40
0.358478
50
359.9370252
51
5.5204067
0
ARC
8
DEFAULT_255_1_234
10
4.508356
20
28.7865667
40
0.3909429
50
344.7478609
51
0.5373281
0
ARC
8
DEFAULT_255_1_234
10
4.6074531
20
28.7598544
40
0.2883093
50
311.1786488
51
344.6886812
0
ARC
8
DEFAULT_255_1_234
10
4.5782578
20
28.7961987
40
0.3348923
50
286.0418249
51
310.8441291
0
ARC
8
DEFAULT_255_1_234
10
4.527541
20
28.9608807
40
0.5071869
50
274.1042341
51
286.4071509
0
ARC
8
DEFAULT_255_1_234
10
4.5098666
20
29.1492229
40
0.6963234
50
269.9236873
51
274.445647
0
ARC
8
DEFAULT_255_1_234
10
4.5144667
20
28.9152537
40
0.3362634
50
269.6055768
51
281.3740047
0
ARC
8
DEFAULT_255_1_234
10
4.5375305
20
28.8059353
40
0.224546
50
281.1055983
51
302.5132223
0
ARC
8
DEFAULT_255_1_234
10
4.5522204
20
28.7795823
40
0.1944357
50
303.0368945
51
311.8811219
0
ARC
8
DEFAULT_255_1_234
10
4.5593611
20
28.771089
40
0.1833454
50
311.9916004
51
351.7143462
0
ARC
8
DEFAULT_255_1_234
10
4.4776841
20
28.787593
40
0.2665871
50
350.7339597
51
0.2221581
0
ARC
8
DEFAULT_255_1_234
10
4.4669287
20
28.7932467
40
0.2773789
50
359.0456241
51
17.2296242
0
ARC
8
DEFAULT_255_1_234
10
4.5708404
20
28.8241163
40
0.1689915
50
17.6685481
51
78.9940892
0
ARC
8
DEFAULT_255_1_234
10
4.5191568
20
28.6386224
40
0.3612658
50
76.5635957
51
90.6980921
0
LINE
8
DEFAULT_255_1_234
10
4.5147552
20
28.9998613
11
4.5145614
21
28.9998614
0
ARC
8
DEFAULT_255_1_234
10
4.4927228
20
29.4521036
40
0.3285612
50
269.6064736
51
281.4533503
0
ARC
8
DEFAULT_255_1_234
10
4.5150048
20
29.3469688
40
0.2210975
50
281.2041486
51
302.5148063
0
ARC
8
DEFAULT_255_1_234
10
4.5286898
20
29.3223241
40
0.1929674
50
303.021671
51
309.8369575
0
ARC
8
DEFAULT_255_1_234
10
4.5470359
20
29.3017488
40
0.1654181
50
309.5228395
51
356.9509836
0
ARC
8
DEFAULT_255_1_234
10
4.4806942
20
29.3112932
40
0.2322512
50
355.4701227
51
0.0492546
0
ARC
8
DEFAULT_255_1_234
10
4.4528033
20
29.3135094
40
0.2601498
50
359.5558597
51
11.2096359
0
ARC
8
DEFAULT_255_1_234
10
4.5485323
20
29.333323
40
0.1623975
50
10.9182341
51
31.3230275
0
ARC
8
DEFAULT_255_1_234
10
4.5771056
20
29.3492214
40
0.1297302
50
31.8852677
51
52.1412565
0
ARC
8
DEFAULT_255_1_234
10
4.5496789
20
29.310475
40
0.1771663
50
52.8285564
51
71.9850297
0
ARC
8
DEFAULT_255_1_234
10
4.5120965
20
29.1998664
40
0.2939794
50
71.6863486
51
82.8455995
0
ARC
8
DEFAULT_255_1_234
10
4.4881501
20
29.0189149
40
0.476506
50
82.6984714
51
90.1729175
0
ARC
8
DEFAULT_255_1_234
10
4.4859136
20
29.1412623
40
0.3541573
50
89.8708275
51
90.0431131
0
LINE
8
DEFAULT_255_1_234
10
5.8550585
20
28.5741792
11
5.8550585
21
28.4529
0
LINE
8
DEFAULT_255_1_234
10
5.8550585
20
28.4529
11
5.0888307
21
28.4529
0
LINE
8
DEFAULT_255_1_234
10
5.0888307
20
28.4529
11
5.0888307
21
28.5597221
0
LINE
8
DEFAULT_255_1_234
10
5.0888307
20
28.5597221
11
5.4936303
21
29.0094995
0
LINE
8
DEFAULT_255_1_234
10
5.214929
20
29.2777595
11
5.0663418
21
29.2777595
0
LINE
8
DEFAULT_255_1_234
10
5.5811762
20
28.9139218
11
5.2679384
21
28.5741792
0
LINE
8
DEFAULT_255_1_234
10
5.2679384
20
28.5741792
11
5.8550585
21
28.5741792
0
ARC
8
DEFAULT_255_1_234
10
4.1446136
20
30.2024527
40
1.8008286
50
318.5132453
51
320.7828378
0
ARC
8
DEFAULT_255_1_234
10
4.673311
20
29.7721426
40
1.1191493
50
320.7372736
51
323.9737074
0
ARC
8
DEFAULT_255_1_234
10
5.0652967
20
29.4881361
40
0.6350923
50
323.8961724
51
328.6421089
0
ARC
8
DEFAULT_255_1_234
10
5.2699562
20
29.3619031
40
0.3946393
50
328.8299013
51
331.789948
0
ARC
8
DEFAULT_255_1_234
10
5.3696741
20
29.3104509
40
0.2824501
50
331.4255242
51
352.9364833
0
ARC
8
DEFAULT_255_1_234
10
5.3833241
20
29.3073976
40
0.2685315
50
353.2248685
51
0.0169286
0
ARC
8
DEFAULT_255_1_234
10
5.4043118
20
29.309695
40
0.2475536
50
359.4866256
51
15.9339782
0
ARC
8
DEFAULT_255_1_234
10
5.4550104
20
29.3233286
40
0.1950618
50
16.1714718
51
43.5284424
0
ARC
8
DEFAULT_255_1_234
10
5.4627412
20
29.3310573
40
0.184134
50
43.4415429
51
83.1661404
0
ARC
8
DEFAULT_255_1_234
10
5.449333
20
29.2573771
40
0.258926
50
82.160215
51
90.1505798
0
ARC
8
DEFAULT_255_1_234
10
5.4461758
20
29.2036865
40
0.3126255
50
89.5460705
51
102.5418777
0
ARC
8
DEFAULT_255_1_234
10
5.4218844
20
29.3067665
40
0.2067346
50
102.1739365
51
129.2061916
0
ARC
8
DEFAULT_255_1_234
10
5.4139916
20
29.3192094
40
0.1921118
50
129.7279328
51
135.7542026
0
ARC
8
DEFAULT_255_1_234
10
5.4261443
20
29.3095045
40
0.2075944
50
136.175737
51
166.3674722
0
ARC
8
DEFAULT_255_1_234
10
5.5268362
20
29.2825182
40
0.3118201
50
165.9092917
51
178.8683903
0
ARC
8
DEFAULT_255_1_234
10
5.6133224
20
29.2778179
40
0.3983935
50
178.438168
51
180.0083905
0
ARC
8
DEFAULT_255_1_234
10
5.4731826
20
29.2817231
40
0.4068601
50
163.2878735
51
180.5581814
0
ARC
8
DEFAULT_255_1_234
10
5.3930087
20
29.303784
40
0.3237344
50
133.454115
51
162.9470031
0
ARC
8
DEFAULT_255_1_234
10
5.4108629
20
29.2848
40
0.349795
50
100.7869394
51
133.4384016
0
ARC
8
DEFAULT_255_1_234
10
5.44564
20
29.1299319
40
0.5084616
50
89.6605301
51
101.3704185
0
ARC
8
DEFAULT_255_1_234
10
5.4522739
20
29.1360496
40
0.502348
50
78.2171172
51
90.4130393
0
ARC
8
DEFAULT_255_1_234
10
5.4877817
20
29.2984637
40
0.3361092
50
55.9268222
51
78.4888551
0
ARC
8
DEFAULT_255_1_234
10
5.5074257
20
29.3323324
40
0.2970617
50
47.9292255
51
55.4054003
0
ARC
8
DEFAULT_255_1_234
10
5.5175818
20
29.3426502
40
0.2825983
50
4.3347696
51
48.0560701
0
ARC
8
DEFAULT_255_1_234
10
5.4080212
20
29.3256601
40
0.393225
50
359.925209
51
5.5967654
0
ARC
8
DEFAULT_255_1_234
10
5.4509103
20
29.3312816
40
0.3503892
50
337.8914096
51
358.9967724
0
ARC
8
DEFAULT_255_1_234
10
5.1795515
20
29.4359706
40
0.6412172
50
326.9135351
51
338.3505194
0
ARC
8
DEFAULT_255_1_234
10
4.7809819
20
29.6914284
40
1.1146189
50
319.6472867
51
327.095818
0
ARC
8
DEFAULT_255_1_234
10
4.3976822
20
30.0076
40
1.6114559
50
317.2586784
51
319.9046139
0
LINE
8
DEFAULT_255_1_234
10
4.8600356
20
37.4465736
11
4.2166934
21
36.5164983
0
LINE
8
DEFAULT_255_1_234
10
4.2166934
20
36.5164983
11
4.8857372
21
36.5164983
0
LINE
8
DEFAULT_255_1_234
10
4.8857372
20
36.5164983
11
4.8857372
21
36.3904
0
LINE
8
DEFAULT_255_1_234
10
4.8857372
20
36.3904
11
4.0343729
21
36.3904
0
LINE
8
DEFAULT_255_1_234
10
4.0343729
20
36.3904
11
4.0343729
21
36.506057
0
LINE
8
DEFAULT_255_1_234
10
4.0343729
20
36.506057
11
4.6753057
21
37.4329196
0
LINE
8
DEFAULT_255_1_234
10
4.6753057
20
37.4329196
11
4.0448142
21
37.4329196
0
LINE
8
DEFAULT_255_1_234
10
4.0448142
20
37.4329196
11
4.0448142
21
37.5598211
0
LINE
8
DEFAULT_255_1_234
10
4.0448142
20
37.5598211
11
4.8600356
21
37.5598211
0
LINE
8
DEFAULT_255_1_234
10
4.8600356
20
37.5598211
11
4.8600356
21
37.4465736
0
LINE
8
DEFAULT_255_1_234
10
5.813403
20
36.5116792
11
5.813403
21
36.3904
0
LINE
8
DEFAULT_255_1_234
10
5.813403
20
36.3904
11
5.0471751
21
36.3904
0
LINE
8
DEFAULT_255_1_234
10
5.0471751
20
36.3904
11
5.0471751
21
36.4972221
0
LINE
8
DEFAULT_255_1_234
10
5.0471751
20
36.4972221
11
5.4519748
21
36.9469995
0
LINE
8
DEFAULT_255_1_234
10
5.1732734
20
37.2152595
11
5.0246863
21
37.2152595
0
LINE
8
DEFAULT_255_1_234
10
5.5395207
20
36.8514218
11
5.2262829
21
36.5116792
0
LINE
8
DEFAULT_255_1_234
10
5.2262829
20
36.5116792
11
5.813403
21
36.5116792
0
ARC
8
DEFAULT_255_1_234
10
4.1029581
20
38.1399527
40
1.8008286
50
318.5132453
51
320.7828378
0
ARC
8
DEFAULT_255_1_234
10
4.6316555
20
37.7096426
40
1.1191493
50
320.7372736
51
323.9737074
0
ARC
8
DEFAULT_255_1_234
10
5.0236412
20
37.4256361
40
0.6350923
50
323.8961724
51
328.6421089
0
ARC
8
DEFAULT_255_1_234
10
5.2283007
20
37.2994031
40
0.3946393
50
328.8299013
51
331.789948
0
ARC
8
DEFAULT_255_1_234
10
5.3280186
20
37.2479509
40
0.2824501
50
331.4255242
51
352.9364833
0
ARC
8
DEFAULT_255_1_234
10
5.3416686
20
37.2448976
40
0.2685315
50
353.2248685
51
0.0169286
0
ARC
8
DEFAULT_255_1_234
10
5.3626563
20
37.247195
40
0.2475536
50
359.4866256
51
15.9339782
0
ARC
8
DEFAULT_255_1_234
10
5.4133548
20
37.2608286
40
0.1950618
50
16.1714718
51
43.5284424
0
ARC
8
DEFAULT_255_1_234
10
5.4210857
20
37.2685573
40
0.184134
50
43.4415429
51
83.1661404
0
ARC
8
DEFAULT_255_1_234
10
5.4076775
20
37.1948771
40
0.258926
50
82.160215
51
90.1505798
0
ARC
8
DEFAULT_255_1_234
10
5.4045203
20
37.1411865
40
0.3126255
50
89.5460705
51
102.5418777
0
ARC
8
DEFAULT_255_1_234
10
5.3802289
20
37.2442665
40
0.2067346
50
102.1739365
51
129.2061916
0
ARC
8
DEFAULT_255_1_234
10
5.372336
20
37.2567094
40
0.1921118
50
129.7279328
51
135.7542026
0
ARC
8
DEFAULT_255_1_234
10
5.3844888
20
37.2470045
40
0.2075944
50
136.175737
51
166.3674722
0
ARC
8
DEFAULT_255_1_234
10
5.4851807
20
37.2200182
40
0.3118201
50
165.9092917
51
178.8683903
0
ARC
8
DEFAULT_255_1_234
10
5.5716669
20
37.2153179
40
0.3983935
50
178.438168
51
180.0083905
0
ARC
8
DEFAULT_255_1_234
10
5.4315271
20
37.2192231
40
0.4068601
50
163.2878735
51
180.5581814
0
ARC
8
DEFAULT_255_1_234
10
5.3513532
20
37.241284
40
0.3237344
50
133.454115
51
162.9470031
0
ARC
8
DEFAULT_255_1_234
10
5.3692073
20
37.2223
40
0.349795
50
100.7869394
51
133.4384016
0
ARC
8
DEFAULT_255_1_234
10
5.4039845
20
37.0674319
40
0.5084616
50
89.6605301
51
101.3704185
0
ARC
8
DEFAULT_255_1_234
10
5.4106184
20
37.0735496
40
0.502348
50
78.2171172
51
90.4130393
0
ARC
8
DEFAULT_255_1_234
10
5.4461262
20
37.2359637
40
0.3361092
50
55.9268222
51
78.4888551
0
ARC
8
DEFAULT_255_1_234
10
5.4657702
20
37.2698324
40
0.2970617
50
47.9292255
51
55.4054003
0
ARC
8
DEFAULT_255_1_234
10
5.4759263
20
37.2801502
40
0.2825983
50
4.3347696
51
48.0560701
0
ARC
8
DEFAULT_255_1_234
10
5.3663656
20
37.2631601
40
0.393225
50
359.925209
51
5.5967654
0
ARC
8
DEFAULT_255_1_234
10
5.4092548
20
37.2687816
40
0.3503892
50
337.8914096
51
358.9967724
0
ARC
8
DEFAULT_255_1_234
10
5.137896
20
37.3734706
40
0.6412172
50
326.9135351
51
338.3505194
0
ARC
8
DEFAULT_255_1_234
10
4.7393264
20
37.6289284
40
1.1146189
50
319.6472867
51
327.095818
0
ARC
8
DEFAULT_255_1_234
10
4.3560267
20
37.9451
40
1.6114559
50
317.2586784
51
319.9046139
0
LINE
8
DEFAULT_255_1_234
10
4.9693293
20
44.3279
11
4.8576881
21
44.6331061
0
LINE
8
DEFAULT_255_1_234
10
4.8576881
20
44.6331061
11
4.3677521
21
44.6331061
0
LINE
8
DEFAULT_255_1_234
10
4.3677521
20
44.6331061
11
4.2577173
21
44.3279
0
LINE
8
DEFAULT_255_1_234
10
4.2577173
20
44.3279
11
4.0986889
21
44.3279
0
LINE
8
DEFAULT_255_1_234
10
4.0986889
20
44.3279
11
4.5452535
21
45.4973211
0
LINE
8
DEFAULT_255_1_234
10
4.5452535
20
45.4973211
11
4.6801867
21
45.4973211
0
LINE
8
DEFAULT_255_1_234
10
4.6801867
20
45.4973211
11
5.1275545
21
44.3279
0
LINE
8
DEFAULT_255_1_234
10
5.1275545
20
44.3279
11
4.9693293
21
44.3279
0
LINE
8
DEFAULT_255_1_234
10
4.6127201
20
45.3069689
11
4.4143362
21
44.7600075
0
LINE
8
DEFAULT_255_1_234
10
4.4143362
20
44.7600075
11
4.8119072
21
44.7600075
0
LINE
8
DEFAULT_255_1_234
10
4.8119072
20
44.7600075
11
4.6127201
21
45.3069689
0
LINE
8
DEFAULT_255_1_234
10
6.0126521
20
44.4491792
11
6.0126521
21
44.3279
0
LINE
8
DEFAULT_255_1_234
10
6.0126521
20
44.3279
11
5.2464243
21
44.3279
0
LINE
8
DEFAULT_255_1_234
10
5.2464243
20
44.3279
11
5.2464243
21
44.4347221
0
LINE
8
DEFAULT_255_1_234
10
5.2464243
20
44.4347221
11
5.6512239
21
44.8844995
0
LINE
8
DEFAULT_255_1_234
10
5.3725226
20
45.1527595
11
5.2239354
21
45.1527595
0
LINE
8
DEFAULT_255_1_234
10
5.7387698
20
44.7889218
11
5.425532
21
44.4491792
0
LINE
8
DEFAULT_255_1_234
10
5.425532
20
44.4491792
11
6.0126521
21
44.4491792
0
ARC
8
DEFAULT_255_1_234
10
4.3022072
20
46.0774527
40
1.8008286
50
318.5132453
51
320.7828378
0
ARC
8
DEFAULT_255_1_234
10
4.8309047
20
45.6471426
40
1.1191493
50
320.7372736
51
323.9737074
0
ARC
8
DEFAULT_255_1_234
10
5.2228903
20
45.3631361
40
0.6350923
50
323.8961724
51
328.6421089
0
ARC
8
DEFAULT_255_1_234
10
5.4275498
20
45.2369031
40
0.3946393
50
328.8299013
51
331.789948
0
ARC
8
DEFAULT_255_1_234
10
5.5272677
20
45.1854509
40
0.2824501
50
331.4255242
51
352.9364833
0
ARC
8
DEFAULT_255_1_234
10
5.5409177
20
45.1823976
40
0.2685315
50
353.2248685
51
0.0169286
0
ARC
8
DEFAULT_255_1_234
10
5.5619054
20
45.184695
40
0.2475536
50
359.4866256
51
15.9339782
0
ARC
8
DEFAULT_255_1_234
10
5.612604
20
45.1983286
40
0.1950618
50
16.1714718
51
43.5284424
0
ARC
8
DEFAULT_255_1_234
10
5.6203348
20
45.2060573
40
0.184134
50
43.4415429
51
83.1661404
0
ARC
8
DEFAULT_255_1_234
10
5.6069266
20
45.1323771
40
0.258926
50
82.160215
51
90.1505798
0
ARC
8
DEFAULT_255_1_234
10
5.6037694
20
45.0786865
40
0.3126255
50
89.5460705
51
102.5418777
0
ARC
8
DEFAULT_255_1_234
10
5.579478
20
45.1817665
40
0.2067346
50
102.1739365
51
129.2061916
0
ARC
8
DEFAULT_255_1_234
10
5.5715852
20
45.1942094
40
0.1921118
50
129.7279328
51
135.7542026
0
ARC
8
DEFAULT_255_1_234
10
5.5837379
20
45.1845045
40
0.2075944
50
136.175737
51
166.3674722
0
ARC
8
DEFAULT_255_1_234
10
5.6844298
20
45.1575182
40
0.3118201
50
165.9092917
51
178.8683903
0
ARC
8
DEFAULT_255_1_234
10
5.770916
20
45.1528179
40
0.3983935
50
178.438168
51
180.0083905
0
ARC
8
DEFAULT_255_1_234
10
5.6307762
20
45.1567231
40
0.4068601
50
163.2878735
51
180.5581814
0
ARC
8
DEFAULT_255_1_234
10
5.5506023
20
45.178784
40
0.3237344
50
133.454115
51
162.9470031
0
ARC
8
DEFAULT_255_1_234
10
5.5684565
20
45.1598
40
0.349795
50
100.7869394
51
133.4384016
0
ARC
8
DEFAULT_255_1_234
10
5.6032336
20
45.0049319
40
0.5084616
50
89.6605301
51
101.3704185
0
ARC
8
DEFAULT_255_1_234
10
5.6098675
20
45.0110496
40
0.502348
50
78.2171172
51
90.4130393
0
ARC
8
DEFAULT_255_1_234
10
5.6453753
20
45.1734637
40
0.3361092
50
55.9268222
51
78.4888551
0
ARC
8
DEFAULT_255_1_234
10
5.6650193
20
45.2073324
40
0.2970617
50
47.9292255
51
55.4054003
0
ARC
8
DEFAULT_255_1_234
10
5.6751754
20
45.2176502
40
0.2825983
50
4.3347696
51
48.0560701
0
ARC
8
DEFAULT_255_1_234
10
5.5656148
20
45.2006601
40
0.393225
50
359.925209
51
5.5967654
0
ARC
8
DEFAULT_255_1_234
10
5.6085039
20
45.2062816
40
0.3503892
50
337.8914096
51
358.9967724
0
ARC
8
DEFAULT_255_1_234
10
5.3371451
20
45.3109706
40
0.6412172
50
326.9135351
51
338.3505194
0
ARC
8
DEFAULT_255_1_234
10
4.9385755
20
45.5664284
40
1.1146189
50
319.6472867
51
327.095818
0
ARC
8
DEFAULT_255_1_234
10
4.5552758
20
45.8826
40
1.6114559
50
317.2586784
51
319.9046139
0
LINE
8
DEFAULT_255_1_234
10
4.3112902
20
53.4348211
11
4.3112902
21
52.2654
0
LINE
8
DEFAULT_255_1_234
10
4.3112902
20
52.2654
11
4.1570808
21
52.2654
0
LINE
8
DEFAULT_255_1_234
10
4.1570808
20
52.2654
11
4.1570808
21
53.4348211
0
LINE
8
DEFAULT_255_1_234
10
4.1570808
20
53.4348211
11
4.3112902
21
53.4348211
0
LINE
8
DEFAULT_255_1_234
10
5.4927589
20
52.8862534
11
5.4927589
21
52.8123614
0
LINE
8
DEFAULT_255_1_234
10
4.5522423
20
52.8019201
11
4.5522423
21
52.8862534
0
LINE
8
DEFAULT_255_1_234
10
5.3393527
20
52.8011169
11
5.3393527
21
52.8878597
0
LINE
8
DEFAULT_255_1_234
10
4.7056485
20
52.898301
11
4.7056485
21
52.8123614
0
ARC
8
DEFAULT_255_1_234
10
4.6285615
20
52.8084015
40
0.8642064
50
350.487711
51
0.2625388
0
ARC
8
DEFAULT_255_1_234
10
4.8578857
20
52.7689578
40
0.631518
50
336.0277639
51
350.5787438
0
ARC
8
DEFAULT_255_1_234
10
4.992368
20
52.7081892
40
0.4839466
50
319.8877444
51
336.1328423
0
ARC
8
DEFAULT_255_1_234
10
5.0526321
20
52.659958
40
0.4067874
50
302.4806467
51
319.6143626
0
ARC
8
DEFAULT_255_1_234
10
5.0411331
20
52.6821202
40
0.4316636
50
275.8195682
51
302.1884709
0
ARC
8
DEFAULT_255_1_234
10
5.0244964
20
52.7963665
40
0.5470306
50
269.9171439
51
276.3397983
0
ARC
8
DEFAULT_255_1_234
10
5.0200174
20
52.7277681
40
0.4784458
50
252.5219675
51
270.4416499
0
ARC
8
DEFAULT_255_1_234
10
5.0056433
20
52.6738592
40
0.422716
50
237.5352116
51
252.1857531
0
ARC
8
DEFAULT_255_1_234
10
5.0145629
20
52.6852363
40
0.4371052
50
209.063312
51
237.3492538
0
ARC
8
DEFAULT_255_1_234
10
5.1015477
20
52.7398685
40
0.5397041
50
205.1183774
51
209.6470015
0
ARC
8
DEFAULT_255_1_234
10
5.1812514
20
52.773683
40
0.6262326
50
188.7215458
51
204.8240747
0
ARC
8
DEFAULT_255_1_234
10
5.3810042
20
52.8073067
40
0.8287794
50
180.3723947
51
188.9252049
0
ARC
8
DEFAULT_255_1_234
10
5.3782794
20
52.8902402
40
0.8260467
50
169.5253763
51
180.2765336
0
ARC
8
DEFAULT_255_1_234
10
5.1880243
20
52.9252309
40
0.6326007
50
155.8315255
51
169.5089989
0
ARC
8
DEFAULT_255_1_234
10
5.0599744
20
52.9846348
40
0.4914567
50
139.6258461
51
156.0379525
0
ARC
8
DEFAULT_255_1_234
10
5.0010077
20
53.0320799
40
0.4158054
50
122.6416387
51
139.3430715
0
ARC
8
DEFAULT_255_1_234
10
5.0110697
20
53.0137451
40
0.4366739
50
93.0223692
51
122.455762
0
ARC
8
DEFAULT_255_1_234
10
5.0218694
20
52.9172709
40
0.5336137
50
89.975342
51
93.6341897
0
ARC
8
DEFAULT_255_1_234
10
5.0257473
20
52.9571242
40
0.4937738
50
73.746375
51
90.4233405
0
ARC
8
DEFAULT_255_1_234
10
5.0433052
20
53.0251287
40
0.4235786
50
57.662753
51
73.4518111
0
ARC
8
DEFAULT_255_1_234
10
5.0425058
20
53.0272832
40
0.4221899
50
29.1440151
51
57.414694
0
ARC
8
DEFAULT_255_1_234
10
4.9490253
20
52.9689005
40
0.5322966
50
24.0982783
51
29.7323517
0
ARC
8
DEFAULT_255_1_234
10
4.8456528
20
52.9260399
40
0.6441673
50
8.6655297
51
23.8241346
0
ARC
8
DEFAULT_255_1_234
10
4.6222266
20
52.8895854
40
0.8705386
50
359.7806941
51
8.8218784
0
ARC
8
DEFAULT_255_1_234
10
4.5075264
20
52.8921345
40
0.8318373
50
359.7055579
51
8.036044
0
ARC
8
DEFAULT_255_1_234
10
4.807527
20
52.9358239
40
0.5286768
50
7.8928306
51
20.2962107
0
ARC
8
DEFAULT_255_1_234
10
4.9702841
20
52.9958395
40
0.3552073
50
20.3231126
51
36.4992797
0
ARC
8
DEFAULT_255_1_234
10
5.0388387
20
53.0486402
40
0.2686974
50
36.1437156
51
85.6627023
0
ARC
8
DEFAULT_255_1_234
10
5.0225933
20
52.9446221
40
0.373739
50
84.3852322
51
90.0757696
0
ARC
8
DEFAULT_255_1_234
10
5.0183605
20
53.0106839
40
0.3076997
50
89.3038458
51
109.9045693
0
ARC
8
DEFAULT_255_1_234
10
5.0090996
20
53.0489062
40
0.2686424
50
110.8228367
51
143.9179474
0
ARC
8
DEFAULT_255_1_234
10
5.1024656
20
52.9776236
40
0.3860887
50
143.5289163
51
163.2980757
0
ARC
8
DEFAULT_255_1_234
10
5.2932477
20
52.9176433
40
0.5860659
50
163.0418846
51
174.3140048
0
ARC
8
DEFAULT_255_1_234
10
5.5336589
20
52.8898854
40
0.8280531
50
174.0509143
51
179.4176892
0
ARC
8
DEFAULT_255_1_234
10
5.4832328
20
52.8081954
40
0.7775954
50
179.6930361
51
188.7906598
0
ARC
8
DEFAULT_255_1_234
10
5.2168807
20
52.7655935
40
0.5078633
50
188.6331305
51
202.5629587
0
ARC
8
DEFAULT_255_1_234
10
5.0914399
20
52.7151996
40
0.3726913
50
202.8081362
51
216.1193925
0
ARC
8
DEFAULT_255_1_234
10
5.0104969
20
52.6500676
40
0.2689577
50
215.0755913
51
264.6379694
0
ARC
8
DEFAULT_255_1_234
10
5.0231919
20
52.7331513
40
0.3528978
50
263.846392
51
270.0833719
0
ARC
8
DEFAULT_255_1_234
10
5.0273309
20
52.7073374
40
0.3271036
50
269.3649385
51
287.5152008
0
ARC
8
DEFAULT_255_1_234
10
5.0451467
20
52.6426238
40
0.2600406
50
288.0630309
51
323.8113348
0
ARC
8
DEFAULT_255_1_234
10
4.9580309
20
52.7076049
40
0.3687189
50
323.6547608
51
342.6590488
0
ARC
8
DEFAULT_255_1_234
10
4.7548924
20
52.7736952
40
0.5823286
50
342.4091907
51
353.6451149
0
ARC
8
DEFAULT_255_1_234
10
4.4717434
20
52.808919
40
0.8676442
50
353.4029884
51
359.4847795
0
LINE
8
DEFAULT_255_1_234
10
6.5874848
20
52.847701
11
6.5874848
21
52.4188062
0
LINE
8
DEFAULT_255_1_234
10
5.6863238
20
52.7938884
11
5.6863238
21
52.8958915
0
LINE
8
DEFAULT_255_1_234
10
6.5874848
20
53.0918659
11
6.4332754
21
53.0918659
0
LINE
8
DEFAULT_255_1_234
10
5.8413363
20
52.8999073
11
5.8413363
21
52.8043296
0
LINE
8
DEFAULT_255_1_234
10
6.4340786
20
52.4597681
11
6.4340786
21
52.7224059
0
LINE
8
DEFAULT_255_1_234
10
6.4340786
20
52.7224059
11
6.163409
21
52.7224059
0
LINE
8
DEFAULT_255_1_234
10
6.163409
20
52.7224059
11
6.163409
21
52.847701
0
LINE
8
DEFAULT_255_1_234
10
6.163409
20
52.847701
11
6.5874848
21
52.847701
0
ARC
8
DEFAULT_255_1_234
10
6.3043354
20
52.6181396
40
0.3462765
50
295.8437914
51
324.8549609
0
ARC
8
DEFAULT_255_1_234
10
6.2627321
20
52.6934567
40
0.4322211
50
291.5695085
51
296.4549398
0
ARC
8
DEFAULT_255_1_234
10
6.2116573
20
52.8299275
40
0.5779178
50
278.6622409
51
291.3045483
0
ARC
8
DEFAULT_255_1_234
10
6.1777064
20
53.0447408
40
0.7953952
50
270.020006
51
278.7494541
0
ARC
8
DEFAULT_255_1_234
10
6.1738988
20
53.1764036
40
0.927067
50
269.9969998
51
270.2524872
0
ARC
8
DEFAULT_255_1_234
10
6.1700702
20
52.7680589
40
0.5187361
50
253.5786322
51
270.4175299
0
ARC
8
DEFAULT_255_1_234
10
6.1527358
20
52.7009236
40
0.4494451
50
238.8203306
51
253.2788235
0
ARC
8
DEFAULT_255_1_234
10
6.1507731
20
52.6958231
40
0.4440665
50
206.7883783
51
238.6962764
0
ARC
8
DEFAULT_255_1_234
10
6.2281641
20
52.7422405
40
0.5341121
50
206.1129412
51
207.4916643
0
ARC
8
DEFAULT_255_1_234
10
6.2878556
20
52.7676488
40
0.5989041
50
188.6921119
51
205.7821245
0
ARC
8
DEFAULT_255_1_234
10
6.4734918
20
52.799223
40
0.7871862
50
180.3882829
51
188.9219216
0
ARC
8
DEFAULT_255_1_234
10
6.5962732
20
52.9015464
40
0.909967
50
170.2024264
51
180.3560651
0
ARC
8
DEFAULT_255_1_234
10
6.279925
20
52.9581237
40
0.5886083
50
154.2857445
51
170.3893044
0
ARC
8
DEFAULT_255_1_234
10
6.1517453
20
53.016795
40
0.4476743
50
139.8401567
51
153.9332699
0
ARC
8
DEFAULT_255_1_234
10
6.1158189
20
53.0455577
40
0.4016697
50
98.4190291
51
139.6707122
0
ARC
8
DEFAULT_255_1_234
10
6.1537706
20
52.8610328
40
0.5898566
50
89.7659205
51
99.4415478
0
ARC
8
DEFAULT_255_1_234
10
6.1602956
20
52.8675844
40
0.5833147
50
78.0551672
51
90.4042112
0
ARC
8
DEFAULT_255_1_234
10
6.2007466
20
53.0494644
40
0.3970055
50
54.6380464
51
78.3339173
0
ARC
8
DEFAULT_255_1_234
10
6.2197522
20
53.0814795
40
0.3599102
50
50.031736
51
54.1558201
0
ARC
8
DEFAULT_255_1_234
10
6.2090309
20
53.0718766
40
0.3741624
50
18.1092409
51
49.7180913
0
ARC
8
DEFAULT_255_1_234
10
6.0633509
20
53.0185089
40
0.5292424
50
7.9672797
51
18.6984571
0
ARC
8
DEFAULT_255_1_234
10
6.0783988
20
53.0308504
40
0.3600838
50
9.7557294
51
27.3215714
0
ARC
8
DEFAULT_255_1_234
10
6.1911459
20
53.0871912
40
0.2340608
50
27.7361077
51
84.5257964
0
ARC
8
DEFAULT_255_1_234
10
6.1583846
20
52.922864
40
0.4011215
50
82.106034
51
90.2001166
0
ARC
8
DEFAULT_255_1_234
10
6.1534063
20
52.9736215
40
0.3503799
50
89.4150119
51
105.5823402
0
ARC
8
DEFAULT_255_1_234
10
6.1277061
20
53.0671867
40
0.2533503
50
105.6678618
51
144.2648758
0
ARC
8
DEFAULT_255_1_234
10
6.2170317
20
53.0036289
40
0.3629787
50
144.3561283
51
162.8564086
0
ARC
8
DEFAULT_255_1_234
10
6.4254226
20
52.9367017
40
0.5818441
50
162.6076014
51
173.6780284
0
ARC
8
DEFAULT_255_1_234
10
6.7315369
20
52.899489
40
0.8902007
50
173.4670142
51
179.9730753
0
ARC
8
DEFAULT_255_1_234
10
6.5407041
20
52.800126
40
0.6993804
50
179.6556203
51
190.0080463
0
ARC
8
DEFAULT_255_1_234
10
6.309087
20
52.7576375
40
0.4639066
50
189.8116607
51
206.6796816
0
ARC
8
DEFAULT_255_1_234
10
6.2246022
20
52.7182503
40
0.3707421
50
207.1031645
51
217.7074368
0
ARC
8
DEFAULT_255_1_234
10
6.1611711
20
52.6630559
40
0.2868417
50
216.7345547
51
265.6812148
0
ARC
8
DEFAULT_255_1_234
10
6.1742502
20
52.7534855
40
0.3780509
50
264.7366618
51
270.0611241
0
ARC
8
DEFAULT_255_1_234
10
6.1765765
20
53.0375111
40
0.662079
50
269.8335834
51
276.0539546
0
ARC
8
DEFAULT_255_1_234
10
6.1972769
20
52.847356
40
0.4708016
50
275.9894168
51
284.4615085
0
ARC
8
DEFAULT_255_1_234
10
6.2170776
20
52.7640663
40
0.3852094
50
284.7034461
51
286.4953897
0
ARC
8
DEFAULT_255_1_234
10
6.257779
20
52.6329965
40
0.2479842
50
286.0770838
51
304.2625829
0
ARC
8
DEFAULT_255_1_234
10
6.2711204
20
52.6111594
40
0.2224291
50
304.5891602
51
317.1073298
0
LINE
8
DEFAULT_255_1_234
10
4.3459902
20
61.3723211
11
4.3459902
21
60.2029
0
LINE
8
DEFAULT_255_1_234
10
4.3459902
20
60.2029
11
4.1917808
21
60.2029
0
LINE
8
DEFAULT_255_1_234
10
4.1917808
20
60.2029
11
4.1917808
21
61.3723211
0
LINE
8
DEFAULT_255_1_234
10
4.1917808
20
61.3723211
11
4.3459902
21
61.3723211
0
LINE
8
DEFAULT_255_1_234
10
5.5274589
20
60.8237534
11
5.5274589
21
60.7498614
0
LINE
8
DEFAULT_255_1_234
10
4.5869423
20
60.7394201
11
4.5869423
21
60.8237534
0
LINE
8
DEFAULT_255_1_234
10
5.3740527
20
60.7386169
11
5.3740527
21
60.8253597
0
LINE
8
DEFAULT_255_1_234
10
4.7403485
20
60.835801
11
4.7403485
21
60.7498614
0
ARC
8
DEFAULT_255_1_234
10
4.6632615
20
60.7459015
40
0.8642064
50
350.487711
51
0.2625388
0
ARC
8
DEFAULT_255_1_234
10
4.8925857
20
60.7064578
40
0.631518
50
336.0277639
51
350.5787438
0
ARC
8
DEFAULT_255_1_234
10
5.027068
20
60.6456892
40
0.4839466
50
319.8877444
51
336.1328423
0
ARC
8
DEFAULT_255_1_234
10
5.0873321
20
60.597458
40
0.4067874
50
302.4806467
51
319.6143626
0
ARC
8
DEFAULT_255_1_234
10
5.0758331
20
60.6196202
40
0.4316636
50
275.8195682
51
302.1884709
0
ARC
8
DEFAULT_255_1_234
10
5.0591964
20
60.7338665
40
0.5470306
50
269.9171439
51
276.3397983
0
ARC
8
DEFAULT_255_1_234
10
5.0547174
20
60.6652681
40
0.4784458
50
252.5219675
51
270.4416499
0
ARC
8
DEFAULT_255_1_234
10
5.0403433
20
60.6113592
40
0.422716
50
237.5352116
51
252.1857531
0
ARC
8
DEFAULT_255_1_234
10
5.0492629
20
60.6227363
40
0.4371052
50
209.063312
51
237.3492538
0
ARC
8
DEFAULT_255_1_234
10
5.1362477
20
60.6773685
40
0.5397041
50
205.1183774
51
209.6470015
0
ARC
8
DEFAULT_255_1_234
10
5.2159514
20
60.711183
40
0.6262326
50
188.7215458
51
204.8240747
0
ARC
8
DEFAULT_255_1_234
10
5.4157042
20
60.7448067
40
0.8287794
50
180.3723947
51
188.9252049
0
ARC
8
DEFAULT_255_1_234
10
5.4129794
20
60.8277402
40
0.8260467
50
169.5253763
51
180.2765336
0
ARC
8
DEFAULT_255_1_234
10
5.2227243
20
60.8627309
40
0.6326007
50
155.8315255
51
169.5089989
0
ARC
8
DEFAULT_255_1_234
10
5.0946744
20
60.9221348
40
0.4914567
50
139.6258461
51
156.0379525
0
ARC
8
DEFAULT_255_1_234
10
5.0357077
20
60.9695799
40
0.4158054
50
122.6416387
51
139.3430715
0
ARC
8
DEFAULT_255_1_234
10
5.0457697
20
60.9512451
40
0.4366739
50
93.0223692
51
122.455762
0
ARC
8
DEFAULT_255_1_234
10
5.0565694
20
60.8547709
40
0.5336137
50
89.975342
51
93.6341897
0
ARC
8
DEFAULT_255_1_234
10
5.0604473
20
60.8946242
40
0.4937738
50
73.746375
51
90.4233405
0
ARC
8
DEFAULT_255_1_234
10
5.0780052
20
60.9626287
40
0.4235786
50
57.662753
51
73.4518111
0
ARC
8
DEFAULT_255_1_234
10
5.0772058
20
60.9647832
40
0.4221899
50
29.1440151
51
57.414694
0
ARC
8
DEFAULT_255_1_234
10
4.9837253
20
60.9064005
40
0.5322966
50
24.0982783
51
29.7323517
0
ARC
8
DEFAULT_255_1_234
10
4.8803528
20
60.8635399
40
0.6441673
50
8.6655297
51
23.8241346
0
ARC
8
DEFAULT_255_1_234
10
4.6569266
20
60.8270854
40
0.8705386
50
359.7806941
51
8.8218784
0
ARC
8
DEFAULT_255_1_234
10
4.5422264
20
60.8296345
40
0.8318373
50
359.7055579
51
8.036044
0
ARC
8
DEFAULT_255_1_234
10
4.842227
20
60.8733239
40
0.5286768
50
7.8928306
51
20.2962107
0
ARC
8
DEFAULT_255_1_234
10
5.0049841
20
60.9333395
40
0.3552073
50
20.3231126
51
36.4992797
0
ARC
8
DEFAULT_255_1_234
10
5.0735387
20
60.9861402
40
0.2686974
50
36.1437156
51
85.6627023
0
ARC
8
DEFAULT_255_1_234
10
5.0572933
20
60.8821221
40
0.373739
50
84.3852322
51
90.0757696
0
ARC
8
DEFAULT_255_1_234
10
5.0530605
20
60.9481839
40
0.3076997
50
89.3038458
51
109.9045693
0
ARC
8
DEFAULT_255_1_234
10
5.0437996
20
60.9864062
40
0.2686424
50
110.8228367
51
143.9179474
0
ARC
8
DEFAULT_255_1_234
10
5.1371656
20
60.9151236
40
0.3860887
50
143.5289163
51
163.2980757
0
ARC
8
DEFAULT_255_1_234
10
5.3279477
20
60.8551433
40
0.5860659
50
163.0418846
51
174.3140048
0
ARC
8
DEFAULT_255_1_234
10
5.5683589
20
60.8273854
40
0.8280531
50
174.0509143
51
179.4176892
0
ARC
8
DEFAULT_255_1_234
10
5.5179328
20
60.7456954
40
0.7775954
50
179.6930361
51
188.7906598
0
ARC
8
DEFAULT_255_1_234
10
5.2515807
20
60.7030935
40
0.5078633
50
188.6331305
51
202.5629587
0
ARC
8
DEFAULT_255_1_234
10
5.1261399
20
60.6526996
40
0.3726913
50
202.8081362
51
216.1193925
0
ARC
8
DEFAULT_255_1_234
10
5.0451969
20
60.5875676
40
0.2689577
50
215.0755913
51
264.6379694
0
ARC
8
DEFAULT_255_1_234
10
5.0578919
20
60.6706513
40
0.3528978
50
263.846392
51
270.0833719
0
ARC
8
DEFAULT_255_1_234
10
5.0620309
20
60.6448374
40
0.3271036
50
269.3649385
51
287.5152008
0
ARC
8
DEFAULT_255_1_234
10
5.0798467
20
60.5801238
40
0.2600406
50
288.0630309
51
323.8113348
0
ARC
8
DEFAULT_255_1_234
10
4.9927309
20
60.6451049
40
0.3687189
50
323.6547608
51
342.6590488
0
ARC
8
DEFAULT_255_1_234
10
4.7895924
20
60.7111952
40
0.5823286
50
342.4091907
51
353.6451149
0
ARC
8
DEFAULT_255_1_234
10
4.5064434
20
60.746419
40
0.8676442
50
353.4029884
51
359.4847795
0
LINE
8
DEFAULT_255_1_234
10
5.7957189
20
61.3723211
11
6.1282329
21
60.4077093
0
LINE
8
DEFAULT_255_1_234
10
6.1282329
20
60.4077093
11
6.4623532
21
61.3723211
0
LINE
8
DEFAULT_255_1_234
10
6.4623532
20
61.3723211
11
6.6310197
21
61.3723211
0
LINE
8
DEFAULT_255_1_234
10
6.6310197
20
61.3723211
11
6.1973059
21
60.2029
0
LINE
8
DEFAULT_255_1_234
10
6.1973059
20
60.2029
11
6.0607663
21
60.2029
0
LINE
8
DEFAULT_255_1_234
10
6.0607663
20
60.2029
11
5.6278556
21
61.3723211
0
LINE
8
DEFAULT_255_1_234
10
5.6278556
20
61.3723211
11
5.7957189
21
61.3723211
0
LINE
8
DEFAULT_255_1_234
10
4.5013392
20
68.1404
11
4.0957364
21
68.1404
0
LINE
8
DEFAULT_255_1_234
10
4.0957364
20
68.1404
11
4.0957364
21
69.3098211
0
LINE
8
DEFAULT_255_1_234
10
4.0957364
20
69.3098211
11
4.4780471
21
69.3098211
0
LINE
8
DEFAULT_255_1_234
10
4.5069614
20
68.6873614
11
4.2499458
21
68.6873614
0
LINE
8
DEFAULT_255_1_234
10
4.2499458
20
68.6873614
11
4.2499458
21
68.2664983
0
LINE
8
DEFAULT_255_1_234
10
4.2499458
20
68.2664983
11
4.5045519
21
68.2664983
0
LINE
8
DEFAULT_255_1_234
10
4.2499458
20
69.1829196
11
4.2499458
21
68.8110501
0
LINE
8
DEFAULT_255_1_234
10
4.2499458
20
68.8110501
11
4.4828662
21
68.8110501
0
LINE
8
DEFAULT_255_1_234
10
4.4780471
20
69.1829196
11
4.2499458
21
69.1829196
0
ARC
8
DEFAULT_255_1_234
10
4.481818
20
68.5730901
40
0.7367406
50
82.1257326
51
90.2932599
0
ARC
8
DEFAULT_255_1_234
10
4.5207135
20
68.8449013
40
0.4621653
50
69.9044149
51
82.2857423
0
ARC
8
DEFAULT_255_1_234
10
4.5777813
20
68.9991637
40
0.2976871
50
51.1838526
51
70.0181538
0
ARC
8
DEFAULT_255_1_234
10
4.6032779
20
69.036224
40
0.2528517
50
12.1017251
51
50.4214761
0
ARC
8
DEFAULT_255_1_234
10
4.4648653
20
69.0014676
40
0.3955061
50
359.5251267
51
12.8211707
0
ARC
8
DEFAULT_255_1_234
10
4.6228579
20
68.9945344
40
0.2375281
50
323.4908128
51
0.8817314
0
ARC
8
DEFAULT_255_1_234
10
4.5810266
20
69.026855
40
0.2903817
50
298.6825083
51
323.2756573
0
ARC
8
DEFAULT_255_1_234
10
4.5448629
20
69.0869649
40
0.3604842
50
293.1999386
51
299.1396394
0
ARC
8
DEFAULT_255_1_234
10
4.6121602
20
68.4784126
40
0.2871098
50
54.0011765
51
74.9167975
0
ARC
8
DEFAULT_255_1_234
10
4.6237961
20
68.4981332
40
0.2643248
50
36.3580696
51
53.5291921
0
ARC
8
DEFAULT_255_1_234
10
4.6111203
20
68.4890998
40
0.2798884
50
4.8189881
51
36.3089977
0
ARC
8
DEFAULT_255_1_234
10
4.5332038
20
68.478127
40
0.358478
50
359.9370252
51
5.5204067
0
ARC
8
DEFAULT_255_1_234
10
4.500756
20
68.4740667
40
0.3909429
50
344.7478609
51
0.5373281
0
ARC
8
DEFAULT_255_1_234
10
4.5998531
20
68.4473544
40
0.2883093
50
311.1786488
51
344.6886812
0
ARC
8
DEFAULT_255_1_234
10
4.5706578
20
68.4836987
40
0.3348923
50
286.0418249
51
310.8441291
0
ARC
8
DEFAULT_255_1_234
10
4.519941
20
68.6483807
40
0.5071869
50
274.1042341
51
286.4071509
0
ARC
8
DEFAULT_255_1_234
10
4.5022666
20
68.8367229
40
0.6963234
50
269.9236873
51
274.445647
0
ARC
8
DEFAULT_255_1_234
10
4.5068667
20
68.6027537
40
0.3362634
50
269.6055768
51
281.3740047
0
ARC
8
DEFAULT_255_1_234
10
4.5299305
20
68.4934353
40
0.224546
50
281.1055983
51
302.5132223
0
ARC
8
DEFAULT_255_1_234
10
4.5446204
20
68.4670823
40
0.1944357
50
303.0368945
51
311.8811219
0
ARC
8
DEFAULT_255_1_234
10
4.5517611
20
68.458589
40
0.1833454
50
311.9916004
51
351.7143462
0
ARC
8
DEFAULT_255_1_234
10
4.4700841
20
68.475093
40
0.2665871
50
350.7339597
51
0.2221581
0
ARC
8
DEFAULT_255_1_234
10
4.4593287
20
68.4807467
40
0.2773789
50
359.0456241
51
17.2296242
0
ARC
8
DEFAULT_255_1_234
10
4.5632404
20
68.5116163
40
0.1689915
50
17.6685481
51
78.9940892
0
ARC
8
DEFAULT_255_1_234
10
4.5115568
20
68.3261224
40
0.3612658
50
76.5635957
51
90.6980921
0
LINE
8
DEFAULT_255_1_234
10
4.5071552
20
68.6873613
11
4.5069614
21
68.6873614
0
ARC
8
DEFAULT_255_1_234
10
4.4851228
20
69.1396036
40
0.3285612
50
269.6064736
51
281.4533503
0
ARC
8
DEFAULT_255_1_234
10
4.5074048
20
69.0344688
40
0.2210975
50
281.2041486
51
302.5148063
0
ARC
8
DEFAULT_255_1_234
10
4.5210898
20
69.0098241
40
0.1929674
50
303.021671
51
309.8369575
0
ARC
8
DEFAULT_255_1_234
10
4.5394359
20
68.9892488
40
0.1654181
50
309.5228395
51
356.9509836
0
ARC
8
DEFAULT_255_1_234
10
4.4730942
20
68.9987932
40
0.2322512
50
355.4701227
51
0.0492546
0
ARC
8
DEFAULT_255_1_234
10
4.4452033
20
69.0010094
40
0.2601498
50
359.5558597
51
11.2096359
0
ARC
8
DEFAULT_255_1_234
10
4.5409323
20
69.020823
40
0.1623975
50
10.9182341
51
31.3230275
0
ARC
8
DEFAULT_255_1_234
10
4.5695056
20
69.0367214
40
0.1297302
50
31.8852677
51
52.1412565
0
ARC
8
DEFAULT_255_1_234
10
4.5420789
20
68.997975
40
0.1771663
50
52.8285564
51
71.9850297
0
ARC
8
DEFAULT_255_1_234
10
4.5044965
20
68.8873664
40
0.2939794
50
71.6863486
51
82.8455995
0
ARC
8
DEFAULT_255_1_234
10
4.4805501
20
68.7064149
40
0.476506
50
82.6984714
51
90.1729175
0
ARC
8
DEFAULT_255_1_234
10
4.4783136
20
68.8287623
40
0.3541573
50
89.8708275
51
90.0431131
0
LINE
8
DEFAULT_255_1_234
10
5.5695604
20
69.3154433
11
5.5695604
21
68.1404
0
LINE
8
DEFAULT_255_1_234
10
5.5695604
20
68.1404
11
5.42017
21
68.1404
0
LINE
8
DEFAULT_255_1_234
10
5.42017
20
68.1404
11
5.42017
21
69.1307133
0
LINE
8
DEFAULT_255_1_234
10
5.42017
20
69.1307133
11
5.1205862
21
69.0206785
0
LINE
8
DEFAULT_255_1_234
10
5.1205862
20
69.0206785
11
5.1205862
21
69.1556117
0
LINE
8
DEFAULT_255_1_234
10
5.1205862
20
69.1556117
11
5.5462683
21
69.3154433
0
LINE
8
DEFAULT_255_1_234
10
5.5462683
20
69.3154433
11
5.5695604
21
69.3154433
0
LINE
8
DEFAULT_255_1_234
10
4.8513356
20
77.1340736
11
4.2079934
21
76.2039983
0
LINE
8
DEFAULT_255_1_234
10
4.2079934
20
76.2039983
11
4.8770372
21
76.2039983
0
LINE
8
DEFAULT_255_1_234
10
4.8770372
20
76.2039983
11
4.8770372
21
76.0779
0
LINE
8
DEFAULT_255_1_234
10
4.8770372
20
76.0779
11
4.0256729
21
76.0779
0
LINE
8
DEFAULT_255_1_234
10
4.0256729
20
76.0779
11
4.0256729
21
76.193557
0
LINE
8
DEFAULT_255_1_234
10
4.0256729
20
76.193557
11
4.6666057
21
77.1204196
0
LINE
8
DEFAULT_255_1_234
10
4.6666057
20
77.1204196
11
4.0361142
21
77.1204196
0
LINE
8
DEFAULT_255_1_234
10
4.0361142
20
77.1204196
11
4.0361142
21
77.2473211
0
LINE
8
DEFAULT_255_1_234
10
4.0361142
20
77.2473211
11
4.8513356
21
77.2473211
0
LINE
8
DEFAULT_255_1_234
10
4.8513356
20
77.2473211
11
4.8513356
21
77.1340736
0
LINE
8
DEFAULT_255_1_234
10
5.5268048
20
77.2529433
11
5.5268048
21
76.0779
0
LINE
8
DEFAULT_255_1_234
10
5.5268048
20
76.0779
11
5.3774145
21
76.0779
0
LINE
8
DEFAULT_255_1_234
10
5.3774145
20
76.0779
11
5.3774145
21
77.0682133
0
LINE
8
DEFAULT_255_1_234
10
5.3774145
20
77.0682133
11
5.0778307
21
76.9581785
0
LINE
8
DEFAULT_255_1_234
10
5.0778307
20
76.9581785
11
5.0778307
21
77.0931117
0
LINE
8
DEFAULT_255_1_234
10
5.0778307
20
77.0931117
11
5.5035128
21
77.2529433
0
LINE
8
DEFAULT_255_1_234
10
5.5035128
20
77.2529433
11
5.5268048
21
77.2529433
0
LINE
8
DEFAULT_255_1_234
10
4.9605293
20
84.0154
11
4.8488881
21
84.3206061
0
LINE
8
DEFAULT_255_1_234
10
4.8488881
20
84.3206061
11
4.3589521
21
84.3206061
0
LINE
8
DEFAULT_255_1_234
10
4.3589521
20
84.3206061
11
4.2489173
21
84.0154
0
LINE
8
DEFAULT_255_1_234
10
4.2489173
20
84.0154
11
4.0898889
21
84.0154
0
LINE
8
DEFAULT_255_1_234
10
4.0898889
20
84.0154
11
4.5364535
21
85.1848211
0
LINE
8
DEFAULT_255_1_234
10
4.5364535
20
85.1848211
11
4.6713867
21
85.1848211
0
LINE
8
DEFAULT_255_1_234
10
4.6713867
20
85.1848211
11
5.1187545
21
84.0154
0
LINE
8
DEFAULT_255_1_234
10
5.1187545
20
84.0154
11
4.9605293
21
84.0154
0
LINE
8
DEFAULT_255_1_234
10
4.6039201
20
84.9944689
11
4.4055362
21
84.4475075
0
LINE
8
DEFAULT_255_1_234
10
4.4055362
20
84.4475075
11
4.8031072
21
84.4475075
0
LINE
8
DEFAULT_255_1_234
10
4.8031072
20
84.4475075
11
4.6039201
21
84.9944689
0
LINE
8
DEFAULT_255_1_234
10
5.725954
20
85.1904433
11
5.725954
21
84.0154
0
LINE
8
DEFAULT_255_1_234
10
5.725954
20
84.0154
11
5.5765636
21
84.0154
0
LINE
8
DEFAULT_255_1_234
10
5.5765636
20
84.0154
11
5.5765636
21
85.0057133
0
LINE
8
DEFAULT_255_1_234
10
5.5765636
20
85.0057133
11
5.2769798
21
84.8956785
0
LINE
8
DEFAULT_255_1_234
10
5.2769798
20
84.8956785
11
5.2769798
21
85.0306117
0
LINE
8
DEFAULT_255_1_234
10
5.2769798
20
85.0306117
11
5.7026619
21
85.1904433
0
LINE
8
DEFAULT_255_1_234
10
5.7026619
20
85.1904433
11
5.725954
21
85.1904433
0
ENDSEC
0
EOF