0
SECTION
2
HEADER
9
$MEASUREMENT
70
1
0
ENDSEC
0
SECTION
2
TABLES
0
TABLE
2
LTYPE
0
LTYPE
72
65
70
64
2
CONTINUOUS
3
______
73
0
40
0
0
ENDTAB
0
TABLE
2
LAYER
0
LAYER
2
DEFAULT_255_2_778
70
0
62
255
6
CONTINUOUS
0
LAYER
2
DEFAULT_255_1_234
70
0
62
255
6
CONTINUOUS
0
ENDTAB
0
ENDSEC
0
SECTION
2
ENTITIES
0
ARC
8
DEFAULT_255_2_778
10
3.5700693
20
36.1176536
40
0.7914215
50
129.1312896
51
180.1450914
0
ARC
8
DEFAULT_255_2_778
10
3.5703345
20
36.1181407
40
0.7912112
50
89.854026
51
129.1684493
0
ARC
8
DEFAULT_255_2_778
10
25.7993937
20
36.1178272
40
0.7915249
50
39.4792447
51
90.147911
0
ARC
8
DEFAULT_255_2_778
10
25.7999935
20
36.1176739
40
0.7911595
50
359.8533901
51
39.5154338
0
ARC
8
DEFAULT_255_2_778
10
25.7996693
20
-1.9863987
40
0.7914836
50
309.4761667
51
0.1482649
0
ARC
8
DEFAULT_255_2_778
10
25.799398
20
-1.9868298
40
0.7913235
50
269.8517415
51
309.511178
0
ARC
8
DEFAULT_255_2_778
10
3.570342
20
-1.9867716
40
0.7913815
50
219.1282118
51
270.1454017
0
ARC
8
DEFAULT_255_2_778
10
3.5700247
20
-1.9863891
40
0.7913769
50
179.8524075
51
219.1641908
0
LINE
8
DEFAULT_255_2_778
10
3.5723503
20
36.9093494
11
25.7973503
21
36.9093494
0
LINE
8
DEFAULT_255_2_778
10
26.5911503
20
36.1156494
11
26.5911503
21
-1.9843506
0
LINE
8
DEFAULT_255_2_778
10
25.7973503
20
-2.7781506
11
3.5723503
21
-2.7781506
0
LINE
8
DEFAULT_255_2_778
10
2.7786503
20
-1.9843506
11
2.7786503
21
36.1156494
0
LINE
8
DEFAULT_255_1_234
10
10.9671879
20
0.5181211
11
10.9671879
21
-0.6513
0
LINE
8
DEFAULT_255_1_234
10
10.9671879
20
-0.6513
11
10.8121753
21
-0.6513
0
LINE
8
DEFAULT_255_1_234
10
10.8121753
20
-0.6513
11
10.2234489
21
0.249861
0
LINE
8
DEFAULT_255_1_234
10
10.2234489
20
0.249861
11
10.2234489
21
-0.6513
0
LINE
8
DEFAULT_255_1_234
10
10.2234489
20
-0.6513
11
10.0684364
21
-0.6513
0
LINE
8
DEFAULT_255_1_234
10
10.0684364
20
-0.6513
11
10.0684364
21
0.5181211
0
LINE
8
DEFAULT_255_1_234
10
10.0684364
20
0.5181211
11
10.2234489
21
0.5181211
0
LINE
8
DEFAULT_255_1_234
10
10.2234489
20
0.5181211
11
10.8137817
21
-0.3870558
0
LINE
8
DEFAULT_255_1_234
10
10.8137817
20
-0.3870558
11
10.8137817
21
0.5181211
0
LINE
8
DEFAULT_255_1_234
10
10.8137817
20
0.5181211
11
10.9671879
21
0.5181211
0
LINE
8
DEFAULT_255_1_234
10
11.3543177
20
0.5181211
11
11.6362317
21
0.0699501
0
LINE
8
DEFAULT_255_1_234
10
11.6362317
20
0.0699501
11
11.9165394
21
0.5181211
0
LINE
8
DEFAULT_255_1_234
10
11.9165394
20
0.5181211
11
12.0980566
21
0.5181211
0
LINE
8
DEFAULT_255_1_234
10
12.0980566
20
0.5181211
11
11.7285967
21
-0.0617704
0
LINE
8
DEFAULT_255_1_234
10
11.7285967
20
-0.0617704
11
12.1068916
21
-0.6513
0
LINE
8
DEFAULT_255_1_234
10
12.1068916
20
-0.6513
11
11.9237679
21
-0.6513
0
LINE
8
DEFAULT_255_1_234
10
11.9237679
20
-0.6513
11
11.6362317
21
-0.1950973
0
LINE
8
DEFAULT_255_1_234
10
11.6362317
20
-0.1950973
11
11.3470891
21
-0.6513
0
LINE
8
DEFAULT_255_1_234
10
11.3470891
20
-0.6513
11
11.1647687
21
-0.6513
0
LINE
8
DEFAULT_255_1_234
10
11.1647687
20
-0.6513
11
11.5438667
21
-0.0617704
0
LINE
8
DEFAULT_255_1_234
10
11.5438667
20
-0.0617704
11
11.1736036
21
0.5181211
0
LINE
8
DEFAULT_255_1_234
10
11.1736036
20
0.5181211
11
11.3543177
21
0.5181211
0
LINE
8
DEFAULT_255_1_234
10
12.5349832
20
-0.0938974
11
12.5349832
21
-0.2151766
0
LINE
8
DEFAULT_255_1_234
10
12.5349832
20
-0.2151766
11
12.1430344
21
-0.2151766
0
LINE
8
DEFAULT_255_1_234
10
12.1430344
20
-0.2151766
11
12.1430344
21
-0.0938974
0
LINE
8
DEFAULT_255_1_234
10
12.1430344
20
-0.0938974
11
12.5349832
21
-0.0938974
0
LINE
8
DEFAULT_255_1_234
10
13.1325445
20
-0.1934909
11
12.8570559
21
-0.1934909
0
LINE
8
DEFAULT_255_1_234
10
12.8570559
20
-0.1934909
11
12.8570559
21
-0.6513
0
LINE
8
DEFAULT_255_1_234
10
12.8570559
20
-0.6513
11
12.7028465
21
-0.6513
0
LINE
8
DEFAULT_255_1_234
10
12.7028465
20
-0.6513
11
12.7028465
21
0.5181211
0
LINE
8
DEFAULT_255_1_234
10
12.7028465
20
0.5181211
11
13.1341509
21
0.5181211
0
LINE
8
DEFAULT_255_1_234
10
12.8570559
20
0.3912196
11
12.8570559
21
-0.0673926
0
LINE
8
DEFAULT_255_1_234
10
12.8570559
20
-0.0673926
11
13.1341509
21
-0.0673926
0
LINE
8
DEFAULT_255_1_234
10
13.1429858
20
0.3912196
11
12.8570559
21
0.3912196
0
ARC
8
DEFAULT_255_1_234
10
13.1383636
20
-0.0877805
40
0.6059162
50
78.8378113
51
90.3983573
0
ARC
8
DEFAULT_255_1_234
10
13.1799649
20
0.1142879
40
0.3996205
50
58.9632738
51
79.0810598
0
ARC
8
DEFAULT_255_1_234
10
13.2101191
20
0.1702721
40
0.3361177
50
48.0197965
51
58.447194
0
ARC
8
DEFAULT_255_1_234
10
13.2190052
20
0.1788225
40
0.3238191
50
3.3375044
51
48.1766626
0
ARC
8
DEFAULT_255_1_234
10
13.0959892
20
0.1611171
40
0.4477806
50
359.9477528
51
4.6829065
0
ARC
8
DEFAULT_255_1_234
10
13.1083209
20
0.1568628
40
0.4354656
50
346.1877825
51
0.5060252
0
ARC
8
DEFAULT_255_1_234
10
13.2442076
20
0.1215731
40
0.295089
50
310.8831995
51
346.5426355
0
ARC
8
DEFAULT_255_1_234
10
13.2133496
20
0.1632695
40
0.3468331
50
286.6925341
51
310.2288297
0
ARC
8
DEFAULT_255_1_234
10
13.1564327
20
0.3422882
40
0.5346654
50
274.6850312
51
287.0245141
0
ARC
8
DEFAULT_255_1_234
10
13.133905
20
0.5631932
40
0.7566852
50
269.8969846
51
275.018904
0
ARC
8
DEFAULT_255_1_234
10
13.1366641
20
0.3552707
40
0.4226708
50
269.6593078
51
279.4153575
0
ARC
8
DEFAULT_255_1_234
10
13.1623917
20
0.2062133
40
0.2714146
50
279.2049762
51
294.9900808
0
ARC
8
DEFAULT_255_1_234
10
13.1914242
20
0.1414508
40
0.2004525
50
295.2888114
51
311.2911209
0
ARC
8
DEFAULT_255_1_234
10
13.1985137
20
0.130922
40
0.1878703
50
311.7854996
51
347.2861051
0
ARC
8
DEFAULT_255_1_234
10
13.1001295
20
0.1562092
40
0.2894234
50
346.6893224
51
0.1059443
0
ARC
8
DEFAULT_255_1_234
10
13.024619
20
0.1590685
40
0.3649409
50
359.6350983
51
0.0053152
0
ARC
8
DEFAULT_255_1_234
10
13.1216519
20
0.1615937
40
0.2679199
50
359.4672059
51
15.5933957
0
ARC
8
DEFAULT_255_1_234
10
13.1841407
20
0.1784779
40
0.2031932
50
15.7442113
51
46.6203375
0
ARC
8
DEFAULT_255_1_234
10
13.1693628
20
0.1614484
40
0.2257226
50
46.8628658
51
75.6676503
0
ARC
8
DEFAULT_255_1_234
10
13.1399449
20
0.0555718
40
0.3355939
50
75.276167
51
88.2915297
0
ARC
8
DEFAULT_255_1_234
10
13.1341155
20
-0.0322476
40
0.4235602
50
87.8575022
51
88.8000139
0
LINE
8
DEFAULT_255_1_234
10
14.0642262
20
-0.6513
11
13.7405471
21
-0.6513
0
LINE
8
DEFAULT_255_1_234
10
13.7405471
20
-0.6513
11
13.7405471
21
0.5181211
0
LINE
8
DEFAULT_255_1_234
10
13.7405471
20
0.5181211
11
14.0706516
21
0.5181211
0
LINE
8
DEFAULT_255_1_234
10
14.5862892
20
-0.0272339
11
14.5862892
21
-0.1019291
0
LINE
8
DEFAULT_255_1_234
10
14.0746674
20
0.3912196
11
13.8947565
21
0.3912196
0
LINE
8
DEFAULT_255_1_234
10
13.8947565
20
0.3912196
11
13.8947565
21
-0.5252017
0
LINE
8
DEFAULT_255_1_234
10
13.8947565
20
-0.5252017
11
14.0569976
21
-0.5252017
0
LINE
8
DEFAULT_255_1_234
10
14.4336861
20
-0.0987164
11
14.4336861
21
-0.0304466
0
ARC
8
DEFAULT_255_1_234
10
14.0745458
20
-0.0684106
40
0.5865446
50
75.4101064
51
90.3804066
0
ARC
8
DEFAULT_255_1_234
10
14.0974972
20
0.0272492
40
0.4881916
50
60.145586
51
75.1888407
0
ARC
8
DEFAULT_255_1_234
10
14.1133747
20
0.0549199
40
0.4562893
50
26.5253612
51
60.1450928
0
ARC
8
DEFAULT_255_1_234
10
14.0013496
20
-0.0044842
40
0.5830602
50
7.4030428
51
26.8320788
0
ARC
8
DEFAULT_255_1_234
10
13.8419253
20
-0.0293196
40
0.7443669
50
0.1605367
51
7.7176192
0
ARC
8
DEFAULT_255_1_234
10
13.8583158
20
-0.1057566
40
0.7279835
50
348.7289388
51
0.3012466
0
ARC
8
DEFAULT_255_1_234
10
14.0239588
20
-0.1386614
40
0.559104
50
333.0706509
51
348.7181832
0
ARC
8
DEFAULT_255_1_234
10
14.1206346
20
-0.1911681
40
0.4491417
50
299.2531685
51
333.4571258
0
ARC
8
DEFAULT_255_1_234
10
14.0845485
20
-0.1226172
40
0.5265881
50
278.107187
51
299.0339503
0
ARC
8
DEFAULT_255_1_234
10
14.0589564
20
0.0281216
40
0.679442
50
270.4443897
51
278.4511052
0
ARC
8
DEFAULT_255_1_234
10
14.0610394
20
-0.0647787
40
0.4604407
50
269.4970433
51
284.0205042
0
ARC
8
DEFAULT_255_1_234
10
14.0965695
20
-0.2013022
40
0.3193797
50
283.7700273
51
318.1555492
0
ARC
8
DEFAULT_255_1_234
10
14.0628453
20
-0.1760633
40
0.3613588
50
318.7415601
51
343.6873628
0
ARC
8
DEFAULT_255_1_234
10
13.8824477
20
-0.1197168
40
0.5503313
50
343.3325091
51
355.8548958
0
ARC
8
DEFAULT_255_1_234
10
13.6726161
20
-0.0997681
40
0.7610708
50
355.4988528
51
0.0791727
0
ARC
8
DEFAULT_255_1_234
10
13.7508784
20
-0.026222
40
0.6828208
50
359.6455037
51
9.8607896
0
ARC
8
DEFAULT_255_1_234
10
13.9869481
20
0.0164099
40
0.4429406
50
9.6571907
51
26.1932807
0
ARC
8
DEFAULT_255_1_234
10
14.079747
20
0.0595118
40
0.3406537
50
26.5777228
51
40.1532208
0
ARC
8
DEFAULT_255_1_234
10
14.1053197
20
0.0794619
40
0.308246
50
40.3840491
51
80.1431104
0
ARC
8
DEFAULT_255_1_234
10
14.0726314
20
-0.0654667
40
0.4566909
50
79.2152159
51
89.7445637
0
LINE
8
DEFAULT_255_1_234
10
15.5356406
20
0.5181211
11
15.5356406
21
0.434591
0
LINE
8
DEFAULT_255_1_234
10
15.5356406
20
0.434591
11
15.0513268
21
-0.6513
0
LINE
8
DEFAULT_255_1_234
10
15.0513268
20
-0.6513
11
14.8955111
21
-0.6513
0
LINE
8
DEFAULT_255_1_234
10
14.8955111
20
-0.6513
11
15.3782186
21
0.3960387
0
LINE
8
DEFAULT_255_1_234
10
15.3782186
20
0.3960387
11
14.7453176
21
0.3960387
0
LINE
8
DEFAULT_255_1_234
10
14.7453176
20
0.3960387
11
14.7453176
21
0.5181211
0
LINE
8
DEFAULT_255_1_234
10
14.7453176
20
0.5181211
11
15.5356406
21
0.5181211
0
LINE
8
DEFAULT_255_1_234
10
16.4376048
20
0.0402327
11
16.4376048
21
-0.1525291
0
LINE
8
DEFAULT_255_1_234
10
15.6994881
20
-0.1726084
11
15.6994881
21
0.0257755
0
LINE
8
DEFAULT_255_1_234
10
16.2890177
20
-0.1926877
11
16.2890177
21
0.0506739
0
LINE
8
DEFAULT_255_1_234
10
15.8480752
20
0.0619184
11
15.8480752
21
-0.1758211
0
ARC
8
DEFAULT_255_1_234
10
15.2128938
20
-0.1574195
40
1.2247208
50
353.8441951
51
0.2287902
0
ARC
8
DEFAULT_255_1_234
10
15.6768442
20
-0.2092194
40
0.7578929
50
344.4934747
51
353.9765454
0
ARC
8
DEFAULT_255_1_234
10
15.9761032
20
-0.2943019
40
0.4467846
50
329.2803592
51
344.7472793
0
ARC
8
DEFAULT_255_1_234
10
16.0753857
20
-0.3487982
40
0.3336173
50
324.9352394
51
328.6160465
0
ARC
8
DEFAULT_255_1_234
10
16.1130965
20
-0.3751573
40
0.2876076
50
280.580143
51
324.9173126
0
ARC
8
DEFAULT_255_1_234
10
16.0729758
20
-0.2080901
40
0.4592847
50
269.5977311
51
281.6734359
0
ARC
8
DEFAULT_255_1_234
10
16.0657664
20
-0.2200827
40
0.4472986
50
256.6228859
51
270.51044
0
ARC
8
DEFAULT_255_1_234
10
16.0255641
20
-0.3749123
40
0.2873874
50
215.8618325
51
257.2788573
0
ARC
8
DEFAULT_255_1_234
10
16.1276673
20
-0.3064023
40
0.4102928
50
197.9693508
51
215.2623606
0
ARC
8
DEFAULT_255_1_234
10
16.3761789
20
-0.2225291
40
0.6725652
50
187.8816417
51
198.2346507
0
ARC
8
DEFAULT_255_1_234
10
16.7719997
20
-0.1653921
40
1.0724845
50
180.8976217
51
188.0055519
0
ARC
8
DEFAULT_255_1_234
10
17.0520185
20
-0.1550223
40
1.3526448
50
180.7449369
51
181.1510016
0
ARC
8
DEFAULT_255_1_234
10
16.8942914
20
0.0306042
40
1.1948131
50
173.7675579
51
180.231553
0
ARC
8
DEFAULT_255_1_234
10
16.4425061
20
0.0816666
40
0.7401564
50
164.3058563
51
173.9002247
0
ARC
8
DEFAULT_255_1_234
10
16.151313
20
0.1655656
40
0.4371288
50
148.7922025
51
164.568378
0
ARC
8
DEFAULT_255_1_234
10
16.0561582
20
0.2186929
40
0.3282386
50
144.5883898
51
148.1176286
0
ARC
8
DEFAULT_255_1_234
10
16.021848
20
0.2426315
40
0.2864044
50
101.6440918
51
144.514236
0
ARC
8
DEFAULT_255_1_234
10
16.0643546
20
0.0737069
40
0.4604934
50
89.5284041
51
102.5819763
0
ARC
8
DEFAULT_255_1_234
10
16.0722634
20
0.0698018
40
0.464401
50
77.0437873
51
90.5081339
0
ARC
8
DEFAULT_255_1_234
10
16.1124636
20
0.2340615
40
0.2953195
50
48.2778575
51
77.4994676
0
ARC
8
DEFAULT_255_1_234
10
16.1197267
20
0.2469746
40
0.2808655
50
36.3142134
51
47.6305865
0
ARC
8
DEFAULT_255_1_234
10
16.0328574
20
0.1884515
40
0.3855453
50
18.2931786
51
35.6769206
0
ARC
8
DEFAULT_255_1_234
10
15.7785333
20
0.1011593
40
0.654423
50
8.024666
51
18.5605216
0
ARC
8
DEFAULT_255_1_234
10
15.3622253
20
0.0396792
40
1.0752407
50
1.1274072
51
8.1718305
0
ARC
8
DEFAULT_255_1_234
10
15.0386443
20
0.0269885
40
1.3990231
50
0.5424119
51
1.3863029
0
ARC
8
DEFAULT_255_1_234
10
15.2207821
20
0.0542342
40
1.0682415
50
359.8090433
51
4.9407866
0
ARC
8
DEFAULT_255_1_234
10
15.6417835
20
0.0918113
40
0.6455691
50
4.8362157
51
12.2904523
0
ARC
8
DEFAULT_255_1_234
10
15.917295
20
0.1531965
40
0.3633074
50
12.0805627
51
23.8173984
0
ARC
8
DEFAULT_255_1_234
10
16.0346655
20
0.2028919
40
0.2358723
50
24.2871213
51
31.3935614
0
ARC
8
DEFAULT_255_1_234
10
16.0871353
20
0.2372233
40
0.1732111
50
30.7407893
51
82.4657128
0
ARC
8
DEFAULT_255_1_234
10
16.0691487
20
0.1488691
40
0.263235
50
81.1060089
51
90.2184952
0
ARC
8
DEFAULT_255_1_234
10
16.0655786
20
0.1746924
40
0.2374236
50
89.3806855
51
105.6762551
0
ARC
8
DEFAULT_255_1_234
10
16.0472417
20
0.2413567
40
0.1682847
50
105.7981136
51
149.7388061
0
ARC
8
DEFAULT_255_1_234
10
16.1536495
20
0.177395
40
0.2924306
50
149.4208916
51
163.6286378
0
ARC
8
DEFAULT_255_1_234
10
16.3627383
20
0.113625
40
0.5110213
50
163.3763315
51
172.1410975
0
ARC
8
DEFAULT_255_1_234
10
16.6928102
20
0.0663518
40
0.8444586
50
172.0259487
51
178.0703232
0
ARC
8
DEFAULT_255_1_234
10
16.9958191
20
0.0519906
40
1.1477868
50
177.8631668
51
179.5044149
0
ARC
8
DEFAULT_255_1_234
10
16.8885596
20
-0.1794611
40
1.0404907
50
179.7995573
51
185.2460446
0
ARC
8
DEFAULT_255_1_234
10
16.4842635
20
-0.2177487
40
0.6343885
50
185.1411642
51
193.0079639
0
ARC
8
DEFAULT_255_1_234
10
16.2199108
20
-0.2802359
40
0.3627568
50
192.7897626
51
205.2507664
0
ARC
8
DEFAULT_255_1_234
10
16.1152655
20
-0.3269585
40
0.2481908
50
205.8005384
51
211.2537509
0
ARC
8
DEFAULT_255_1_234
10
16.0629095
20
-0.362042
40
0.1852521
50
210.3789793
51
238.4008143
0
ARC
8
DEFAULT_255_1_234
10
16.0609617
20
-0.3573624
40
0.1882621
50
239.6520629
51
265.9793761
0
ARC
8
DEFAULT_255_1_234
10
16.0694817
20
-0.2901573
40
0.2559272
50
265.1315437
51
270.060332
0
ARC
8
DEFAULT_255_1_234
10
16.0723596
20
-0.3225466
40
0.2235528
50
269.3314664
51
287.2178029
0
ARC
8
DEFAULT_255_1_234
10
16.0861448
20
-0.3728721
40
0.1714108
50
287.7958004
51
329.080874
0
ARC
8
DEFAULT_255_1_234
10
15.9903905
20
-0.313107
40
0.2842745
50
328.6634704
51
343.3325132
0
ARC
8
DEFAULT_255_1_234
10
15.7730925
20
-0.2454137
40
0.5118644
50
343.0499468
51
351.9393422
0
ARC
8
DEFAULT_255_1_234
10
15.4264225
20
-0.1943051
40
0.8622784
50
351.8069023
51
357.7959224
0
ARC
8
DEFAULT_255_1_234
10
15.1028781
20
-0.1775279
40
1.1862365
50
357.5871873
51
359.2677531
0
LINE
8
DEFAULT_255_1_234
10
17.3612547
20
0.0402327
11
17.3612547
21
-0.1525291
0
LINE
8
DEFAULT_255_1_234
10
16.623138
20
-0.1726084
11
16.623138
21
0.0257755
0
LINE
8
DEFAULT_255_1_234
10
17.2126676
20
-0.1926877
11
17.2126676
21
0.0506739
0
LINE
8
DEFAULT_255_1_234
10
16.7717251
20
0.0619184
11
16.7717251
21
-0.1758211
0
ARC
8
DEFAULT_255_1_234
10
16.1365437
20
-0.1574195
40
1.2247208
50
353.8441951
51
0.2287902
0
ARC
8
DEFAULT_255_1_234
10
16.6004941
20
-0.2092194
40
0.7578929
50
344.4934747
51
353.9765454
0
ARC
8
DEFAULT_255_1_234
10
16.8997531
20
-0.2943019
40
0.4467846
50
329.2803592
51
344.7472793
0
ARC
8
DEFAULT_255_1_234
10
16.9990356
20
-0.3487982
40
0.3336173
50
324.9352394
51
328.6160465
0
ARC
8
DEFAULT_255_1_234
10
17.0367464
20
-0.3751573
40
0.2876076
50
280.580143
51
324.9173126
0
ARC
8
DEFAULT_255_1_234
10
16.9966257
20
-0.2080901
40
0.4592847
50
269.5977311
51
281.6734359
0
ARC
8
DEFAULT_255_1_234
10
16.9894163
20
-0.2200827
40
0.4472986
50
256.6228859
51
270.51044
0
ARC
8
DEFAULT_255_1_234
10
16.949214
20
-0.3749123
40
0.2873874
50
215.8618325
51
257.2788573
0
ARC
8
DEFAULT_255_1_234
10
17.0513172
20
-0.3064023
40
0.4102928
50
197.9693508
51
215.2623606
0
ARC
8
DEFAULT_255_1_234
10
17.2998288
20
-0.2225291
40
0.6725652
50
187.8816417
51
198.2346507
0
ARC
8
DEFAULT_255_1_234
10
17.6956496
20
-0.1653921
40
1.0724845
50
180.8976217
51
188.0055519
0
ARC
8
DEFAULT_255_1_234
10
17.9756684
20
-0.1550223
40
1.3526448
50
180.7449369
51
181.1510016
0
ARC
8
DEFAULT_255_1_234
10
17.8179413
20
0.0306042
40
1.1948131
50
173.7675579
51
180.231553
0
ARC
8
DEFAULT_255_1_234
10
17.366156
20
0.0816666
40
0.7401564
50
164.3058563
51
173.9002247
0
ARC
8
DEFAULT_255_1_234
10
17.0749629
20
0.1655656
40
0.4371288
50
148.7922025
51
164.568378
0
ARC
8
DEFAULT_255_1_234
10
16.9798081
20
0.2186929
40
0.3282386
50
144.5883898
51
148.1176286
0
ARC
8
DEFAULT_255_1_234
10
16.9454979
20
0.2426315
40
0.2864044
50
101.6440918
51
144.514236
0
ARC
8
DEFAULT_255_1_234
10
16.9880045
20
0.0737069
40
0.4604934
50
89.5284041
51
102.5819763
0
ARC
8
DEFAULT_255_1_234
10
16.9959133
20
0.0698018
40
0.464401
50
77.0437873
51
90.5081339
0
ARC
8
DEFAULT_255_1_234
10
17.0361135
20
0.2340615
40
0.2953195
50
48.2778575
51
77.4994676
0
ARC
8
DEFAULT_255_1_234
10
17.0433766
20
0.2469746
40
0.2808655
50
36.3142134
51
47.6305865
0
ARC
8
DEFAULT_255_1_234
10
16.9565073
20
0.1884515
40
0.3855453
50
18.2931786
51
35.6769206
0
ARC
8
DEFAULT_255_1_234
10
16.7021832
20
0.1011593
40
0.654423
50
8.024666
51
18.5605216
0
ARC
8
DEFAULT_255_1_234
10
16.2858752
20
0.0396792
40
1.0752407
50
1.1274072
51
8.1718305
0
ARC
8
DEFAULT_255_1_234
10
15.9622943
20
0.0269885
40
1.3990231
50
0.5424119
51
1.3863029
0
ARC
8
DEFAULT_255_1_234
10
16.144432
20
0.0542342
40
1.0682415
50
359.8090433
51
4.9407866
0
ARC
8
DEFAULT_255_1_234
10
16.5654334
20
0.0918113
40
0.6455691
50
4.8362157
51
12.2904523
0
ARC
8
DEFAULT_255_1_234
10
16.8409449
20
0.1531965
40
0.3633074
50
12.0805627
51
23.8173984
0
ARC
8
DEFAULT_255_1_234
10
16.9583155
20
0.2028919
40
0.2358723
50
24.2871213
51
31.3935614
0
ARC
8
DEFAULT_255_1_234
10
17.0107852
20
0.2372233
40
0.1732111
50
30.7407893
51
82.4657128
0
ARC
8
DEFAULT_255_1_234
10
16.9927986
20
0.1488691
40
0.263235
50
81.1060089
51
90.2184952
0
ARC
8
DEFAULT_255_1_234
10
16.9892285
20
0.1746924
40
0.2374236
50
89.3806855
51
105.6762551
0
ARC
8
DEFAULT_255_1_234
10
16.9708916
20
0.2413567
40
0.1682847
50
105.7981136
51
149.7388061
0
ARC
8
DEFAULT_255_1_234
10
17.0772994
20
0.177395
40
0.2924306
50
149.4208916
51
163.6286378
0
ARC
8
DEFAULT_255_1_234
10
17.2863882
20
0.113625
40
0.5110213
50
163.3763315
51
172.1410975
0
ARC
8
DEFAULT_255_1_234
10
17.6164601
20
0.0663518
40
0.8444586
50
172.0259487
51
178.0703232
0
ARC
8
DEFAULT_255_1_234
10
17.919469
20
0.0519906
40
1.1477868
50
177.8631668
51
179.5044149
0
ARC
8
DEFAULT_255_1_234
10
17.8122095
20
-0.1794611
40
1.0404907
50
179.7995573
51
185.2460446
0
ARC
8
DEFAULT_255_1_234
10
17.4079134
20
-0.2177487
40
0.6343885
50
185.1411642
51
193.0079639
0
ARC
8
DEFAULT_255_1_234
10
17.1435607
20
-0.2802359
40
0.3627568
50
192.7897626
51
205.2507664
0
ARC
8
DEFAULT_255_1_234
10
17.0389154
20
-0.3269585
40
0.2481908
50
205.8005384
51
211.2537509
0
ARC
8
DEFAULT_255_1_234
10
16.9865594
20
-0.362042
40
0.1852521
50
210.3789793
51
238.4008143
0
ARC
8
DEFAULT_255_1_234
10
16.9846116
20
-0.3573624
40
0.1882621
50
239.6520629
51
265.9793761
0
ARC
8
DEFAULT_255_1_234
10
16.9931316
20
-0.2901573
40
0.2559272
50
265.1315437
51
270.060332
0
ARC
8
DEFAULT_255_1_234
10
16.9960095
20
-0.3225466
40
0.2235528
50
269.3314664
51
287.2178029
0
ARC
8
DEFAULT_255_1_234
10
17.0097947
20
-0.3728721
40
0.1714108
50
287.7958004
51
329.080874
0
ARC
8
DEFAULT_255_1_234
10
16.9140404
20
-0.313107
40
0.2842745
50
328.6634704
51
343.3325132
0
ARC
8
DEFAULT_255_1_234
10
16.6967424
20
-0.2454137
40
0.5118644
50
343.0499468
51
351.9393422
0
ARC
8
DEFAULT_255_1_234
10
16.3500724
20
-0.1943051
40
0.8622784
50
351.8069023
51
357.7959224
0
ARC
8
DEFAULT_255_1_234
10
16.026528
20
-0.1775279
40
1.1862365
50
357.5871873
51
359.2677531
0
LINE
8
DEFAULT_255_1_234
10
18.0399366
20
0.5237433
11
18.0399366
21
-0.6513
0
LINE
8
DEFAULT_255_1_234
10
18.0399366
20
-0.6513
11
17.8905463
21
-0.6513
0
LINE
8
DEFAULT_255_1_234
10
17.8905463
20
-0.6513
11
17.8905463
21
0.3390133
0
LINE
8
DEFAULT_255_1_234
10
17.8905463
20
0.3390133
11
17.5909625
21
0.2289785
0
LINE
8
DEFAULT_255_1_234
10
17.5909625
20
0.2289785
11
17.5909625
21
0.3639117
0
LINE
8
DEFAULT_255_1_234
10
17.5909625
20
0.3639117
11
18.0166446
21
0.5237433
0
LINE
8
DEFAULT_255_1_234
10
18.0166446
20
0.5237433
11
18.0399366
21
0.5237433
0
ARC
8
DEFAULT_255_2_778
10
15.0734646
20
34.6741567
40
0.3782009
50
0.4397807
51
91.3045231
0
ARC
8
DEFAULT_255_2_778
10
15.0713202
20
34.6718741
40
0.3803695
50
269.0259909
51
0.7811192
0
ARC
8
DEFAULT_255_2_778
10
15.2304616
20
34.6594321
40
0.7639615
50
290.7362057
51
357.8000295
0
ARC
8
DEFAULT_255_2_778
10
15.1452354
20
34.6769912
40
0.8499188
50
356.8376875
51
0.0046095
0
ARC
8
DEFAULT_255_2_778
10
15.1438766
20
34.6770425
40
0.8512778
50
0.0011515
51
85.3589632
0
ARC
8
DEFAULT_255_2_778
10
15.1438694
20
34.6579769
40
0.8702827
50
85.4600549
51
90.0075769
0
ARC
8
DEFAULT_255_2_778
10
19.9750173
20
34.6677104
40
0.3845507
50
1.3931151
51
90.158378
0
ARC
8
DEFAULT_255_2_778
10
20.0342419
20
34.6613312
40
0.8684198
50
359.7643557
51
42.1181505
0
ARC
8
DEFAULT_255_2_778
10
20.0366479
20
34.6617609
40
0.866348
50
42.2037872
51
87.9292218
0
ARC
8
DEFAULT_255_2_778
10
20.0318949
20
34.6204775
40
0.9077821
50
87.7235759
51
90.0025578
0
ARC
8
DEFAULT_255_2_778
10
12.7284028
20
34.6745796
40
0.3777595
50
0.3761505
51
91.175317
0
ARC
8
DEFAULT_255_2_778
10
12.7825419
20
34.6613312
40
0.8684198
50
359.7643557
51
42.1181505
0
ARC
8
DEFAULT_255_2_778
10
12.7849479
20
34.6617609
40
0.866348
50
42.2037872
51
87.9292218
0
ARC
8
DEFAULT_255_2_778
10
12.7801949
20
34.6204775
40
0.9077821
50
87.7235759
51
90.0025578
0
ARC
8
DEFAULT_255_2_778
10
17.3606743
20
34.2695535
40
1.2841942
50
233.3100129
51
270.0348017
0
ARC
8
DEFAULT_255_2_778
10
17.3727456
20
34.2899299
40
1.3077482
50
187.7860459
51
233.4193197
0
ARC
8
DEFAULT_255_2_778
10
17.3909911
20
34.2914862
40
1.3260368
50
179.9838663
51
187.7458681
0
ARC
8
DEFAULT_255_2_778
10
17.3494846
20
34.2921052
40
1.2845303
50
143.7084173
51
180.0109545
0
ARC
8
DEFAULT_255_2_778
10
17.3645561
20
34.2870576
40
1.2996747
50
94.9692901
51
143.9223324
0
ARC
8
DEFAULT_255_2_778
10
17.3613355
20
34.2877024
40
1.2987573
50
89.9947559
51
94.8302073
0
ARC
8
DEFAULT_255_2_778
10
17.3636379
20
34.2816107
40
1.3048507
50
58.145411
51
90.0958788
0
ARC
8
DEFAULT_255_2_778
10
17.3721873
20
34.2879171
40
1.294988
50
3.2655211
51
58.3194462
0
ARC
8
DEFAULT_255_2_778
10
17.3727016
20
34.2919162
40
1.2942527
50
359.997494
51
3.0900664
0
ARC
8
DEFAULT_255_2_778
10
17.1842403
20
34.289816
40
1.4827154
50
0.006083
51
0.0789681
0
ARC
8
DEFAULT_255_2_778
10
17.3622257
20
34.2898976
40
1.30473
50
315.0276525
51
0.0033284
0
ARC
8
DEFAULT_255_2_778
10
17.36257
20
34.2897198
40
1.3043608
50
270.000667
51
315.0224921
0
LINE
8
DEFAULT_255_2_778
10
17.3625852
20
32.9853591
11
17.3614543
21
32.9853596
0
ARC
8
DEFAULT_255_2_778
10
17.3657135
20
34.2878789
40
0.7580313
50
269.6780691
51
315.5292436
0
ARC
8
DEFAULT_255_2_778
10
17.362643
20
34.2871555
40
0.7597205
50
315.7303962
51
0.2857903
0
ARC
8
DEFAULT_255_2_778
10
17.6503699
20
34.2914059
40
0.4719845
50
359.944048
51
0.0186519
0
ARC
8
DEFAULT_255_2_778
10
17.3704095
20
34.2904282
40
0.7519457
50
0.086204
51
85.4319233
0
ARC
8
DEFAULT_255_2_778
10
17.3615932
20
34.2480015
40
0.7949581
50
85.0420495
51
90.0100075
0
ARC
8
DEFAULT_255_2_778
10
17.3595718
20
34.3047196
40
0.7382424
50
89.8538973
51
89.9999976
0
ARC
8
DEFAULT_255_2_778
10
17.3596411
20
34.2921786
40
0.7507833
50
90.0052819
51
134.9571409
0
ARC
8
DEFAULT_255_2_778
10
17.3596032
20
34.2916242
40
0.751149
50
134.9252185
51
180.0049334
0
ARC
8
DEFAULT_255_2_778
10
17.3724947
20
34.2876552
40
0.7640503
50
179.7072119
51
222.5790813
0
ARC
8
DEFAULT_255_2_778
10
17.3595619
20
34.2766152
40
0.7470579
50
222.6267201
51
270.1451401
0
ARC
8
DEFAULT_255_2_778
10
9.3660743
20
34.2695535
40
1.2841942
50
233.3100129
51
270.0348017
0
ARC
8
DEFAULT_255_2_778
10
9.3781456
20
34.2899299
40
1.3077482
50
187.7860459
51
233.4193197
0
ARC
8
DEFAULT_255_2_778
10
9.3963911
20
34.2914862
40
1.3260368
50
179.9838663
51
187.7458681
0
ARC
8
DEFAULT_255_2_778
10
9.3551452
20
34.2919638
40
1.2847909
50
143.1940819
51
180.0046489
0
ARC
8
DEFAULT_255_2_778
10
9.36994
20
34.2872683
40
1.2994598
50
94.9233187
51
143.4191345
0
ARC
8
DEFAULT_255_2_778
10
9.3667331
20
34.2879797
40
1.2984798
50
89.9946509
51
94.7850278
0
ARC
8
DEFAULT_255_2_778
10
9.3690225
20
34.2818118
40
1.3046496
50
58.1428905
51
90.0952196
0
ARC
8
DEFAULT_255_2_778
10
9.37745
20
34.287913
40
1.2950254
50
3.2656058
51
58.3171105
0
ARC
8
DEFAULT_255_2_778
10
9.3780016
20
34.2919162
40
1.2942527
50
359.997494
51
3.0900664
0
ARC
8
DEFAULT_255_2_778
10
9.3953041
20
34.2897125
40
1.276952
50
359.9949307
51
0.0963391
0
ARC
8
DEFAULT_255_2_778
10
9.3676178
20
34.2897602
40
1.3046385
50
315.0321687
51
359.9929412
0
ARC
8
DEFAULT_255_2_778
10
9.3678977
20
34.2898944
40
1.3045353
50
270.0038431
51
315.0193137
0
LINE
8
DEFAULT_255_2_778
10
9.3679852
20
32.9853591
11
9.3668543
21
32.9853596
0
ARC
8
DEFAULT_255_2_778
10
9.3710735
20
34.2878812
40
0.7580334
50
269.6810953
51
315.6152252
0
ARC
8
DEFAULT_255_2_778
10
9.3680162
20
34.2872058
40
0.7597504
50
315.8129036
51
0.3254485
0
ARC
8
DEFAULT_255_2_778
10
9.3754499
20
34.2901242
40
0.7523058
50
0.1093155
51
85.7820321
0
ARC
8
DEFAULT_255_2_778
10
9.3669704
20
34.248594
40
0.7943655
50
85.3923987
51
90.0083732
0
ARC
8
DEFAULT_255_2_778
10
9.3649708
20
34.3038025
40
0.7391595
50
89.8539942
51
89.9999859
0
ARC
8
DEFAULT_255_2_778
10
9.3650373
20
34.291946
40
0.7510159
50
90.0050654
51
134.9497993
0
ARC
8
DEFAULT_255_2_778
10
9.3649069
20
34.291764
40
0.7510526
50
134.9329452
51
180.0155944
0
ARC
8
DEFAULT_255_2_778
10
9.3779268
20
34.2876289
40
0.7640826
50
179.7052536
51
222.5741919
0
ARC
8
DEFAULT_255_2_778
10
9.3649128
20
34.276584
40
0.7470269
50
222.6256588
51
270.1489141
0
LINE
8
DEFAULT_255_2_778
10
13.8784543
20
35.5076596
11
13.8784543
21
33.0448596
0
LINE
8
DEFAULT_255_2_778
10
13.8784543
20
33.0448596
11
14.4219543
21
33.0448596
0
LINE
8
DEFAULT_255_2_778
10
14.4219543
20
33.0448596
11
14.4219543
21
35.0522596
0
LINE
8
DEFAULT_255_2_778
10
14.4219543
20
35.0522596
11
15.0648543
21
35.0522596
0
LINE
8
DEFAULT_255_2_778
10
15.0648543
20
34.2915596
11
14.6002543
21
34.2915596
0
LINE
8
DEFAULT_255_2_778
10
14.6002543
20
34.2915596
11
15.4413543
21
33.0445596
0
LINE
8
DEFAULT_255_2_778
10
15.4413543
20
33.0445596
11
16.1142543
21
33.0445596
0
LINE
8
DEFAULT_255_2_778
10
16.1142543
20
33.0445596
11
15.5009543
21
33.9449596
0
LINE
8
DEFAULT_255_2_778
10
15.1437543
20
35.5282596
11
14.4216543
21
35.5282596
0
LINE
8
DEFAULT_255_2_778
10
14.4216543
20
35.5282596
11
13.8782543
21
35.5076596
0
LINE
8
DEFAULT_255_2_778
10
13.8782543
20
35.5076596
11
13.8784543
21
35.5076596
0
LINE
8
DEFAULT_255_2_778
10
18.8158543
20
35.5076596
11
18.8158543
21
33.0448596
0
LINE
8
DEFAULT_255_2_778
10
18.8158543
20
33.0448596
11
19.3593543
21
33.0448596
0
LINE
8
DEFAULT_255_2_778
10
19.3593543
20
33.0448596
11
19.3593543
21
35.0522596
0
LINE
8
DEFAULT_255_2_778
10
19.3593543
20
35.0522596
11
19.9739543
21
35.0522596
0
LINE
8
DEFAULT_255_2_778
10
20.3594543
20
34.6770596
11
20.3594543
21
33.0448596
0
LINE
8
DEFAULT_255_2_778
10
20.3594543
20
33.0448596
11
20.9026543
21
33.0448596
0
LINE
8
DEFAULT_255_2_778
10
20.9026543
20
33.0448596
11
20.9026543
21
34.6577596
0
LINE
8
DEFAULT_255_2_778
10
20.0318543
20
35.5282596
11
19.3590543
21
35.5282596
0
LINE
8
DEFAULT_255_2_778
10
19.3590543
20
35.5282596
11
18.8156543
21
35.5076596
0
LINE
8
DEFAULT_255_2_778
10
18.8156543
20
35.5076596
11
18.8158543
21
35.5076596
0
LINE
8
DEFAULT_255_2_778
10
10.8212543
20
35.5076596
11
10.8212543
21
33.0448596
0
LINE
8
DEFAULT_255_2_778
10
10.8212543
20
33.0448596
11
11.3646543
21
33.0448596
0
LINE
8
DEFAULT_255_2_778
10
11.3646543
20
33.0448596
11
11.3646543
21
35.0522596
0
LINE
8
DEFAULT_255_2_778
10
11.3646543
20
35.0522596
11
11.9689543
21
35.0522596
0
LINE
8
DEFAULT_255_2_778
10
11.9689543
20
35.0522596
11
11.9689543
21
33.0448596
0
LINE
8
DEFAULT_255_2_778
10
11.9689543
20
33.0448596
11
12.5124543
21
33.0448596
0
LINE
8
DEFAULT_255_2_778
10
12.5124543
20
33.0448596
11
12.5124543
21
35.0522596
0
LINE
8
DEFAULT_255_2_778
10
12.5124543
20
35.0522596
11
12.7206543
21
35.0522596
0
LINE
8
DEFAULT_255_2_778
10
13.1061543
20
34.6770596
11
13.1061543
21
33.0448596
0
LINE
8
DEFAULT_255_2_778
10
13.1061543
20
33.0448596
11
13.6509543
21
33.0448596
0
LINE
8
DEFAULT_255_2_778
10
13.6509543
20
33.0448596
11
13.6509543
21
34.6577596
0
LINE
8
DEFAULT_255_2_778
10
12.7801543
20
35.5282596
11
11.3749543
21
35.5282596
0
LINE
8
DEFAULT_255_2_778
10
11.3749543
20
35.5282596
11
10.8212543
21
35.5076596
0
LINE
8
DEFAULT_255_2_778
10
10.8212543
20
35.5076596
11
10.8212543
21
35.5076596
0
LINE
8
DEFAULT_255_2_778
10
17.3614543
20
32.9853596
11
17.3614543
21
32.9853596
0
LINE
8
DEFAULT_255_2_778
10
9.3668543
20
32.9853596
11
9.3668543
21
32.9853596
0
LINE
8
DEFAULT_255_1_234
10
13.6192879
20
31.6066211
11
13.6192879
21
30.4372
0
LINE
8
DEFAULT_255_1_234
10
13.6192879
20
30.4372
11
13.4642753
21
30.4372
0
LINE
8
DEFAULT_255_1_234
10
13.4642753
20
30.4372
11
12.8755489
21
31.338361
0
LINE
8
DEFAULT_255_1_234
10
12.8755489
20
31.338361
11
12.8755489
21
30.4372
0
LINE
8
DEFAULT_255_1_234
10
12.8755489
20
30.4372
11
12.7205364
21
30.4372
0
LINE
8
DEFAULT_255_1_234
10
12.7205364
20
30.4372
11
12.7205364
21
31.6066211
0
LINE
8
DEFAULT_255_1_234
10
12.7205364
20
31.6066211
11
12.8755489
21
31.6066211
0
LINE
8
DEFAULT_255_1_234
10
12.8755489
20
31.6066211
11
13.4658817
21
30.7014442
0
LINE
8
DEFAULT_255_1_234
10
13.4658817
20
30.7014442
11
13.4658817
21
31.6066211
0
LINE
8
DEFAULT_255_1_234
10
13.4658817
20
31.6066211
11
13.6192879
21
31.6066211
0
LINE
8
DEFAULT_255_1_234
10
14.0064177
20
31.6066211
11
14.2883317
21
31.1584501
0
LINE
8
DEFAULT_255_1_234
10
14.2883317
20
31.1584501
11
14.5686394
21
31.6066211
0
LINE
8
DEFAULT_255_1_234
10
14.5686394
20
31.6066211
11
14.7501566
21
31.6066211
0
LINE
8
DEFAULT_255_1_234
10
14.7501566
20
31.6066211
11
14.3806967
21
31.0267296
0
LINE
8
DEFAULT_255_1_234
10
14.3806967
20
31.0267296
11
14.7589916
21
30.4372
0
LINE
8
DEFAULT_255_1_234
10
14.7589916
20
30.4372
11
14.5758679
21
30.4372
0
LINE
8
DEFAULT_255_1_234
10
14.5758679
20
30.4372
11
14.2883317
21
30.8934027
0
LINE
8
DEFAULT_255_1_234
10
14.2883317
20
30.8934027
11
13.9991891
21
30.4372
0
LINE
8
DEFAULT_255_1_234
10
13.9991891
20
30.4372
11
13.8168687
21
30.4372
0
LINE
8
DEFAULT_255_1_234
10
13.8168687
20
30.4372
11
14.1959667
21
31.0267296
0
LINE
8
DEFAULT_255_1_234
10
14.1959667
20
31.0267296
11
13.8257036
21
31.6066211
0
LINE
8
DEFAULT_255_1_234
10
13.8257036
20
31.6066211
11
14.0064177
21
31.6066211
0
LINE
8
DEFAULT_255_1_234
10
15.6545304
20
31.6066211
11
15.6545304
21
31.523091
0
LINE
8
DEFAULT_255_1_234
10
15.6545304
20
31.523091
11
15.1702166
21
30.4372
0
LINE
8
DEFAULT_255_1_234
10
15.1702166
20
30.4372
11
15.0144008
21
30.4372
0
LINE
8
DEFAULT_255_1_234
10
15.0144008
20
30.4372
11
15.4971083
21
31.4845387
0
LINE
8
DEFAULT_255_1_234
10
15.4971083
20
31.4845387
11
14.8642073
21
31.4845387
0
LINE
8
DEFAULT_255_1_234
10
14.8642073
20
31.4845387
11
14.8642073
21
31.6066211
0
LINE
8
DEFAULT_255_1_234
10
14.8642073
20
31.6066211
11
15.6545304
21
31.6066211
0
LINE
8
DEFAULT_255_2_778
10
10.7161501
20
28.9718499
11
18.6536501
21
28.9718499
0
LINE
8
DEFAULT_255_2_778
10
18.6536501
20
28.9718499
11
18.6536501
21
21.0343499
0
LINE
8
DEFAULT_255_2_778
10
18.6536501
20
21.0343499
11
10.7161501
21
21.0343499
0
LINE
8
DEFAULT_255_2_778
10
10.7161501
20
21.0343499
11
10.7161501
21
28.9718499
0
LINE
8
DEFAULT_255_2_778
10
10.7161501
20
21.0343499
11
18.6536501
21
28.9718499
0
LINE
8
DEFAULT_255_2_778
10
16.27245
20
22.8865
11
17.85995
21
22.8865
0
LINE
8
DEFAULT_255_2_778
10
16.27245
20
22.2515
11
16.58995
21
22.2515
0
LINE
8
DEFAULT_255_2_778
10
16.90745
20
22.2515
11
17.22495
21
22.2515
0
LINE
8
DEFAULT_255_2_778
10
17.54245
20
22.2515
11
17.85995
21
22.2515
0
LINE
8
DEFAULT_255_2_778
10
11.64215
20
27.649
11
13.22965
21
27.649
0
LINE
8
DEFAULT_255_2_778
10
11.64215
20
27.014
11
11.95965
21
27.014
0
LINE
8
DEFAULT_255_2_778
10
12.27715
20
27.014
11
12.59465
21
27.014
0
LINE
8
DEFAULT_255_2_778
10
12.91215
20
27.014
11
13.22965
21
27.014
0
LINE
8
DEFAULT_255_1_234
10
4.3015902
20
29.6223211
11
4.3015902
21
28.4529
0
LINE
8
DEFAULT_255_1_234
10
4.3015902
20
28.4529
11
4.1473808
21
28.4529
0
LINE
8
DEFAULT_255_1_234
10
4.1473808
20
28.4529
11
4.1473808
21
29.6223211
0
LINE
8
DEFAULT_255_1_234
10
4.1473808
20
29.6223211
11
4.3015902
21
29.6223211
0
LINE
8
DEFAULT_255_1_234
10
5.4822557
20
29.6223211
11
5.4822557
21
28.4529
0
LINE
8
DEFAULT_255_1_234
10
5.4822557
20
28.4529
11
5.3272432
21
28.4529
0
LINE
8
DEFAULT_255_1_234
10
5.3272432
20
28.4529
11
4.7385167
21
29.354061
0
LINE
8
DEFAULT_255_1_234
10
4.7385167
20
29.354061
11
4.7385167
21
28.4529
0
LINE
8
DEFAULT_255_1_234
10
4.7385167
20
28.4529
11
4.5835042
21
28.4529
0
LINE
8
DEFAULT_255_1_234
10
4.5835042
20
28.4529
11
4.5835042
21
29.6223211
0
LINE
8
DEFAULT_255_1_234
10
4.5835042
20
29.6223211
11
4.7385167
21
29.6223211
0
LINE
8
DEFAULT_255_1_234
10
4.7385167
20
29.6223211
11
5.3288495
21
28.7171442
0
LINE
8
DEFAULT_255_1_234
10
5.3288495
20
28.7171442
11
5.3288495
21
29.6223211
0
LINE
8
DEFAULT_255_1_234
10
5.3288495
20
29.6223211
11
5.4822557
21
29.6223211
0
LINE
8
DEFAULT_255_1_234
10
6.1585281
20
29.4215276
11
6.1585281
21
29.0801788
0
LINE
8
DEFAULT_255_1_234
10
6.1585281
20
29.0801788
11
6.4846167
21
29.0801788
0
LINE
8
DEFAULT_255_1_234
10
6.4846167
20
29.0801788
11
6.4846167
21
28.9396233
0
LINE
8
DEFAULT_255_1_234
10
6.4846167
20
28.9396233
11
6.1585281
21
28.9396233
0
LINE
8
DEFAULT_255_1_234
10
6.1585281
20
28.9396233
11
6.1585281
21
28.5701634
0
LINE
8
DEFAULT_255_1_234
10
6.1585281
20
28.5701634
11
6.0091377
21
28.5701634
0
LINE
8
DEFAULT_255_1_234
10
6.0091377
20
28.5701634
11
6.0091377
21
28.9396233
0
LINE
8
DEFAULT_255_1_234
10
6.0091377
20
28.9396233
11
5.6830492
21
28.9396233
0
LINE
8
DEFAULT_255_1_234
10
5.6830492
20
28.9396233
11
5.6830492
21
29.0801788
0
LINE
8
DEFAULT_255_1_234
10
5.6830492
20
29.0801788
11
6.0091377
21
29.0801788
0
LINE
8
DEFAULT_255_1_234
10
6.0091377
20
29.0801788
11
6.0091377
21
29.4215276
0
LINE
8
DEFAULT_255_1_234
10
6.0091377
20
29.4215276
11
6.1585281
21
29.4215276
0
LINE
8
DEFAULT_255_1_234
10
5.0342482
20
5.222701
11
5.0342482
21
4.7938062
0
LINE
8
DEFAULT_255_1_234
10
4.1330872
20
5.1688884
11
4.1330872
21
5.2708915
0
LINE
8
DEFAULT_255_1_234
10
5.0342482
20
5.4668659
11
4.8800389
21
5.4668659
0
LINE
8
DEFAULT_255_1_234
10
4.2880998
20
5.2749073
11
4.2880998
21
5.1793296
0
LINE
8
DEFAULT_255_1_234
10
4.880842
20
4.8347681
11
4.880842
21
5.0974059
0
LINE
8
DEFAULT_255_1_234
10
4.880842
20
5.0974059
11
4.6101725
21
5.0974059
0
LINE
8
DEFAULT_255_1_234
10
4.6101725
20
5.0974059
11
4.6101725
21
5.222701
0
LINE
8
DEFAULT_255_1_234
10
4.6101725
20
5.222701
11
5.0342482
21
5.222701
0
ARC
8
DEFAULT_255_1_234
10
4.7510989
20
4.9931396
40
0.3462765
50
295.8437914
51
324.8549609
0
ARC
8
DEFAULT_255_1_234
10
4.7094956
20
5.0684567
40
0.4322211
50
291.5695085
51
296.4549398
0
ARC
8
DEFAULT_255_1_234
10
4.6584207
20
5.2049275
40
0.5779178
50
278.6622409
51
291.3045483
0
ARC
8
DEFAULT_255_1_234
10
4.6244699
20
5.4197408
40
0.7953952
50
270.020006
51
278.7494541
0
ARC
8
DEFAULT_255_1_234
10
4.6206623
20
5.5514036
40
0.927067
50
269.9969998
51
270.2524872
0
ARC
8
DEFAULT_255_1_234
10
4.6168336
20
5.1430589
40
0.5187361
50
253.5786322
51
270.4175299
0
ARC
8
DEFAULT_255_1_234
10
4.5994992
20
5.0759236
40
0.4494451
50
238.8203306
51
253.2788235
0
ARC
8
DEFAULT_255_1_234
10
4.5975365
20
5.0708231
40
0.4440665
50
206.7883783
51
238.6962764
0
ARC
8
DEFAULT_255_1_234
10
4.6749275
20
5.1172405
40
0.5341121
50
206.1129412
51
207.4916643
0
ARC
8
DEFAULT_255_1_234
10
4.734619
20
5.1426488
40
0.5989041
50
188.6921119
51
205.7821245
0
ARC
8
DEFAULT_255_1_234
10
4.9202552
20
5.174223
40
0.7871862
50
180.3882829
51
188.9219216
0
ARC
8
DEFAULT_255_1_234
10
5.0430366
20
5.2765464
40
0.909967
50
170.2024264
51
180.3560651
0
ARC
8
DEFAULT_255_1_234
10
4.7266884
20
5.3331237
40
0.5886083
50
154.2857445
51
170.3893044
0
ARC
8
DEFAULT_255_1_234
10
4.5985087
20
5.391795
40
0.4476743
50
139.8401567
51
153.9332699
0
ARC
8
DEFAULT_255_1_234
10
4.5625823
20
5.4205577
40
0.4016697
50
98.4190291
51
139.6707122
0
ARC
8
DEFAULT_255_1_234
10
4.6005341
20
5.2360328
40
0.5898566
50
89.7659205
51
99.4415478
0
ARC
8
DEFAULT_255_1_234
10
4.607059
20
5.2425844
40
0.5833147
50
78.0551672
51
90.4042112
0
ARC
8
DEFAULT_255_1_234
10
4.64751
20
5.4244644
40
0.3970055
50
54.6380464
51
78.3339173
0
ARC
8
DEFAULT_255_1_234
10
4.6665156
20
5.4564795
40
0.3599102
50
50.031736
51
54.1558201
0
ARC
8
DEFAULT_255_1_234
10
4.6557944
20
5.4468766
40
0.3741624
50
18.1092409
51
49.7180913
0
ARC
8
DEFAULT_255_1_234
10
4.5101144
20
5.3935089
40
0.5292424
50
7.9672797
51
18.6984571
0
ARC
8
DEFAULT_255_1_234
10
4.5251622
20
5.4058504
40
0.3600838
50
9.7557294
51
27.3215714
0
ARC
8
DEFAULT_255_1_234
10
4.6379094
20
5.4621912
40
0.2340608
50
27.7361077
51
84.5257964
0
ARC
8
DEFAULT_255_1_234
10
4.6051481
20
5.297864
40
0.4011215
50
82.106034
51
90.2001166
0
ARC
8
DEFAULT_255_1_234
10
4.6001698
20
5.3486215
40
0.3503799
50
89.4150119
51
105.5823402
0
ARC
8
DEFAULT_255_1_234
10
4.5744696
20
5.4421867
40
0.2533503
50
105.6678618
51
144.2648758
0
ARC
8
DEFAULT_255_1_234
10
4.6637951
20
5.3786289
40
0.3629787
50
144.3561283
51
162.8564086
0
ARC
8
DEFAULT_255_1_234
10
4.872186
20
5.3117017
40
0.5818441
50
162.6076014
51
173.6780284
0
ARC
8
DEFAULT_255_1_234
10
5.1783004
20
5.274489
40
0.8902007
50
173.4670142
51
179.9730753
0
ARC
8
DEFAULT_255_1_234
10
4.9874675
20
5.175126
40
0.6993804
50
179.6556203
51
190.0080463
0
ARC
8
DEFAULT_255_1_234
10
4.7558504
20
5.1326375
40
0.4639066
50
189.8116607
51
206.6796816
0
ARC
8
DEFAULT_255_1_234
10
4.6713656
20
5.0932503
40
0.3707421
50
207.1031645
51
217.7074368
0
ARC
8
DEFAULT_255_1_234
10
4.6079345
20
5.0380559
40
0.2868417
50
216.7345547
51
265.6812148
0
ARC
8
DEFAULT_255_1_234
10
4.6210136
20
5.1284855
40
0.3780509
50
264.7366618
51
270.0611241
0
ARC
8
DEFAULT_255_1_234
10
4.6233399
20
5.4125111
40
0.662079
50
269.8335834
51
276.0539546
0
ARC
8
DEFAULT_255_1_234
10
4.6440404
20
5.222356
40
0.4708016
50
275.9894168
51
284.4615085
0
ARC
8
DEFAULT_255_1_234
10
4.6638411
20
5.1390663
40
0.3852094
50
284.7034461
51
286.4953897
0
ARC
8
DEFAULT_255_1_234
10
4.7045424
20
5.0079965
40
0.2479842
50
286.0770838
51
304.2625829
0
ARC
8
DEFAULT_255_1_234
10
4.7178838
20
4.9861594
40
0.2224291
50
304.5891602
51
317.1073298
0
LINE
8
DEFAULT_255_1_234
10
5.9739616
20
4.6404
11
5.7201587
21
5.1134694
0
LINE
8
DEFAULT_255_1_234
10
5.7201587
20
5.1134694
11
5.4454732
21
5.1134694
0
LINE
8
DEFAULT_255_1_234
10
5.4454732
20
5.1134694
11
5.4454732
21
4.6404
0
LINE
8
DEFAULT_255_1_234
10
5.4454732
20
4.6404
11
5.2904607
21
4.6404
0
LINE
8
DEFAULT_255_1_234
10
5.2904607
20
4.6404
11
5.2904607
21
5.8098211
0
LINE
8
DEFAULT_255_1_234
10
5.2904607
20
5.8098211
11
5.6775905
21
5.8098211
0
LINE
8
DEFAULT_255_1_234
10
5.86473
20
5.1463995
11
6.1394154
21
4.6500381
0
LINE
8
DEFAULT_255_1_234
10
6.1394154
20
4.6500381
11
6.1394154
21
4.6404
0
LINE
8
DEFAULT_255_1_234
10
6.1394154
20
4.6404
11
5.9739616
21
4.6404
0
LINE
8
DEFAULT_255_1_234
10
5.4454732
20
5.6829196
11
5.4454732
21
5.2395677
0
LINE
8
DEFAULT_255_1_234
10
5.4454732
20
5.2395677
11
5.6824095
21
5.2395677
0
LINE
8
DEFAULT_255_1_234
10
5.6816063
20
5.6829196
11
5.4454732
21
5.6829196
0
ARC
8
DEFAULT_255_1_234
10
5.6817544
20
5.1136761
40
0.6961575
50
80.653586
51
90.3427061
0
ARC
8
DEFAULT_255_1_234
10
5.7237019
20
5.3599348
40
0.4463577
50
65.6987447
51
80.8329603
0
ARC
8
DEFAULT_255_1_234
10
5.771466
20
5.4694322
40
0.3269094
50
50.0017161
51
65.4305835
0
ARC
8
DEFAULT_255_1_234
10
5.7933124
20
5.4989482
40
0.2902647
50
11.628416
51
49.5603263
0
ARC
8
DEFAULT_255_1_234
10
5.639746
20
5.4614299
40
0.4482792
50
359.5655735
51
12.3691
0
ARC
8
DEFAULT_255_1_234
10
5.747432
20
5.4551644
40
0.3405924
50
341.9983148
51
0.4822259
0
ARC
8
DEFAULT_255_1_234
10
5.786916
20
5.4444471
40
0.2997359
50
323.8609373
51
341.61416
0
ARC
8
DEFAULT_255_1_234
10
5.7567404
20
5.4677484
40
0.3378487
50
296.7018614
51
323.6876402
0
ARC
8
DEFAULT_255_1_234
10
5.7126299
20
5.5466235
40
0.4281516
50
290.8086567
51
297.2323311
0
ARC
8
DEFAULT_255_1_234
10
5.6849829
20
5.5989351
40
0.3593766
50
269.589728
51
281.8058135
0
ARC
8
DEFAULT_255_1_234
10
5.7100728
20
5.4841743
40
0.2419125
50
281.5501019
51
303.9357432
0
ARC
8
DEFAULT_255_1_234
10
5.7237916
20
5.4603936
40
0.2145323
50
304.4415616
51
311.2106213
0
ARC
8
DEFAULT_255_1_234
10
5.7370021
20
5.4464632
40
0.1953505
50
310.9875673
51
356.2715578
0
ARC
8
DEFAULT_255_1_234
10
5.661367
20
5.4577422
40
0.2716331
50
354.9348262
51
0.0609027
0
ARC
8
DEFAULT_255_1_234
10
5.6426544
20
5.4604435
40
0.2903554
50
359.5239371
51
12.8808918
0
ARC
8
DEFAULT_255_1_234
10
5.7404099
20
5.4843728
40
0.1897315
50
12.4173452
51
43.1022135
0
ARC
8
DEFAULT_255_1_234
10
5.7465704
20
5.4880724
40
0.1827118
50
43.5751728
51
48.203944
0
ARC
8
DEFAULT_255_1_234
10
5.7296196
20
5.4659302
40
0.2105272
50
48.7809703
51
72.6969569
0
ARC
8
DEFAULT_255_1_234
10
5.6941821
20
5.358382
40
0.3237537
50
72.3702241
51
84.8791103
0
ARC
8
DEFAULT_255_1_234
10
5.6794297
20
5.2241769
40
0.4587478
50
84.5400526
51
89.7281406
0
LINE
8
DEFAULT_255_1_234
10
4.2535489
20
13.7473211
11
4.2535489
21
12.7039983
0
LINE
8
DEFAULT_255_1_234
10
4.2535489
20
12.7039983
11
4.8077389
21
12.7039983
0
LINE
8
DEFAULT_255_1_234
10
4.8077389
20
12.7039983
11
4.8077389
21
12.5779
0
LINE
8
DEFAULT_255_1_234
10
4.8077389
20
12.5779
11
4.0985364
21
12.5779
0
LINE
8
DEFAULT_255_1_234
10
4.0985364
20
12.5779
11
4.0985364
21
13.7473211
0
LINE
8
DEFAULT_255_1_234
10
4.0985364
20
13.7473211
11
4.2535489
21
13.7473211
0
LINE
8
DEFAULT_255_1_234
10
5.7948395
20
13.160201
11
5.7948395
21
12.7313062
0
LINE
8
DEFAULT_255_1_234
10
4.8936785
20
13.1063884
11
4.8936785
21
13.2083915
0
LINE
8
DEFAULT_255_1_234
10
5.7948395
20
13.4043659
11
5.6406301
21
13.4043659
0
LINE
8
DEFAULT_255_1_234
10
5.048691
20
13.2124073
11
5.048691
21
13.1168296
0
LINE
8
DEFAULT_255_1_234
10
5.6414333
20
12.7722681
11
5.6414333
21
13.0349059
0
LINE
8
DEFAULT_255_1_234
10
5.6414333
20
13.0349059
11
5.3707637
21
13.0349059
0
LINE
8
DEFAULT_255_1_234
10
5.3707637
20
13.0349059
11
5.3707637
21
13.160201
0
LINE
8
DEFAULT_255_1_234
10
5.3707637
20
13.160201
11
5.7948395
21
13.160201
0
ARC
8
DEFAULT_255_1_234
10
5.5116901
20
12.9306396
40
0.3462765
50
295.8437914
51
324.8549609
0
ARC
8
DEFAULT_255_1_234
10
5.4700868
20
13.0059567
40
0.4322211
50
291.5695085
51
296.4549398
0
ARC
8
DEFAULT_255_1_234
10
5.419012
20
13.1424275
40
0.5779178
50
278.6622409
51
291.3045483
0
ARC
8
DEFAULT_255_1_234
10
5.3850611
20
13.3572408
40
0.7953952
50
270.020006
51
278.7494541
0
ARC
8
DEFAULT_255_1_234
10
5.3812535
20
13.4889036
40
0.927067
50
269.9969998
51
270.2524872
0
ARC
8
DEFAULT_255_1_234
10
5.3774248
20
13.0805589
40
0.5187361
50
253.5786322
51
270.4175299
0
ARC
8
DEFAULT_255_1_234
10
5.3600904
20
13.0134236
40
0.4494451
50
238.8203306
51
253.2788235
0
ARC
8
DEFAULT_255_1_234
10
5.3581278
20
13.0083231
40
0.4440665
50
206.7883783
51
238.6962764
0
ARC
8
DEFAULT_255_1_234
10
5.4355188
20
13.0547405
40
0.5341121
50
206.1129412
51
207.4916643
0
ARC
8
DEFAULT_255_1_234
10
5.4952103
20
13.0801488
40
0.5989041
50
188.6921119
51
205.7821245
0
ARC
8
DEFAULT_255_1_234
10
5.6808465
20
13.111723
40
0.7871862
50
180.3882829
51
188.9219216
0
ARC
8
DEFAULT_255_1_234
10
5.8036279
20
13.2140464
40
0.909967
50
170.2024264
51
180.3560651
0
ARC
8
DEFAULT_255_1_234
10
5.4872797
20
13.2706237
40
0.5886083
50
154.2857445
51
170.3893044
0
ARC
8
DEFAULT_255_1_234
10
5.3591
20
13.329295
40
0.4476743
50
139.8401567
51
153.9332699
0
ARC
8
DEFAULT_255_1_234
10
5.3231736
20
13.3580577
40
0.4016697
50
98.4190291
51
139.6707122
0
ARC
8
DEFAULT_255_1_234
10
5.3611253
20
13.1735328
40
0.5898566
50
89.7659205
51
99.4415478
0
ARC
8
DEFAULT_255_1_234
10
5.3676503
20
13.1800844
40
0.5833147
50
78.0551672
51
90.4042112
0
ARC
8
DEFAULT_255_1_234
10
5.4081013
20
13.3619644
40
0.3970055
50
54.6380464
51
78.3339173
0
ARC
8
DEFAULT_255_1_234
10
5.4271069
20
13.3939795
40
0.3599102
50
50.031736
51
54.1558201
0
ARC
8
DEFAULT_255_1_234
10
5.4163856
20
13.3843766
40
0.3741624
50
18.1092409
51
49.7180913
0
ARC
8
DEFAULT_255_1_234
10
5.2707056
20
13.3310089
40
0.5292424
50
7.9672797
51
18.6984571
0
ARC
8
DEFAULT_255_1_234
10
5.2857534
20
13.3433504
40
0.3600838
50
9.7557294
51
27.3215714
0
ARC
8
DEFAULT_255_1_234
10
5.3985006
20
13.3996912
40
0.2340608
50
27.7361077
51
84.5257964
0
ARC
8
DEFAULT_255_1_234
10
5.3657393
20
13.235364
40
0.4011215
50
82.106034
51
90.2001166
0
ARC
8
DEFAULT_255_1_234
10
5.360761
20
13.2861215
40
0.3503799
50
89.4150119
51
105.5823402
0
ARC
8
DEFAULT_255_1_234
10
5.3350608
20
13.3796867
40
0.2533503
50
105.6678618
51
144.2648758
0
ARC
8
DEFAULT_255_1_234
10
5.4243864
20
13.3161289
40
0.3629787
50
144.3561283
51
162.8564086
0
ARC
8
DEFAULT_255_1_234
10
5.6327773
20
13.2492017
40
0.5818441
50
162.6076014
51
173.6780284
0
ARC
8
DEFAULT_255_1_234
10
5.9388916
20
13.211989
40
0.8902007
50
173.4670142
51
179.9730753
0
ARC
8
DEFAULT_255_1_234
10
5.7480588
20
13.112626
40
0.6993804
50
179.6556203
51
190.0080463
0
ARC
8
DEFAULT_255_1_234
10
5.5164417
20
13.0701375
40
0.4639066
50
189.8116607
51
206.6796816
0
ARC
8
DEFAULT_255_1_234
10
5.4319569
20
13.0307503
40
0.3707421
50
207.1031645
51
217.7074368
0
ARC
8
DEFAULT_255_1_234
10
5.3685257
20
12.9755559
40
0.2868417
50
216.7345547
51
265.6812148
0
ARC
8
DEFAULT_255_1_234
10
5.3816048
20
13.0659855
40
0.3780509
50
264.7366618
51
270.0611241
0
ARC
8
DEFAULT_255_1_234
10
5.3839312
20
13.3500111
40
0.662079
50
269.8335834
51
276.0539546
0
ARC
8
DEFAULT_255_1_234
10
5.4046316
20
13.159856
40
0.4708016
50
275.9894168
51
284.4615085
0
ARC
8
DEFAULT_255_1_234
10
5.4244323
20
13.0765663
40
0.3852094
50
284.7034461
51
286.4953897
0
ARC
8
DEFAULT_255_1_234
10
5.4651337
20
12.9454965
40
0.2479842
50
286.0770838
51
304.2625829
0
ARC
8
DEFAULT_255_1_234
10
5.478475
20
12.9236594
40
0.2224291
50
304.5891602
51
317.1073298
0
LINE
8
DEFAULT_255_1_234
10
4.3296902
20
21.6848211
11
4.3296902
21
20.5154
0
LINE
8
DEFAULT_255_1_234
10
4.3296902
20
20.5154
11
4.1754808
21
20.5154
0
LINE
8
DEFAULT_255_1_234
10
4.1754808
20
20.5154
11
4.1754808
21
21.6848211
0
LINE
8
DEFAULT_255_1_234
10
4.1754808
20
21.6848211
11
4.3296902
21
21.6848211
0
LINE
8
DEFAULT_255_1_234
10
5.5103557
20
21.6848211
11
5.5103557
21
20.5154
0
LINE
8
DEFAULT_255_1_234
10
5.5103557
20
20.5154
11
5.3553432
21
20.5154
0
LINE
8
DEFAULT_255_1_234
10
5.3553432
20
20.5154
11
4.7666167
21
21.416561
0
LINE
8
DEFAULT_255_1_234
10
4.7666167
20
21.416561
11
4.7666167
21
20.5154
0
LINE
8
DEFAULT_255_1_234
10
4.7666167
20
20.5154
11
4.6116042
21
20.5154
0
LINE
8
DEFAULT_255_1_234
10
4.6116042
20
20.5154
11
4.6116042
21
21.6848211
0
LINE
8
DEFAULT_255_1_234
10
4.6116042
20
21.6848211
11
4.7666167
21
21.6848211
0
LINE
8
DEFAULT_255_1_234
10
4.7666167
20
21.6848211
11
5.3569495
21
20.7796442
0
LINE
8
DEFAULT_255_1_234
10
5.3569495
20
20.7796442
11
5.3569495
21
21.6848211
0
LINE
8
DEFAULT_255_1_234
10
5.3569495
20
21.6848211
11
5.5103557
21
21.6848211
0
LINE
8
DEFAULT_255_1_234
10
6.0701679
20
21.0728026
11
6.0701679
21
20.9515234
0
LINE
8
DEFAULT_255_1_234
10
6.0701679
20
20.9515234
11
5.678219
21
20.9515234
0
LINE
8
DEFAULT_255_1_234
10
5.678219
20
20.9515234
11
5.678219
21
21.0728026
0
LINE
8
DEFAULT_255_1_234
10
5.678219
20
21.0728026
11
6.0701679
21
21.0728026
0
LINE
8
DEFAULT_255_1_234
10
21.1359911
20
29.0737534
11
21.1359911
21
28.9998614
0
LINE
8
DEFAULT_255_1_234
10
20.1954745
20
28.9894201
11
20.1954745
21
29.0737534
0
LINE
8
DEFAULT_255_1_234
10
20.9825849
20
28.9886169
11
20.9825849
21
29.0753597
0
LINE
8
DEFAULT_255_1_234
10
20.3488807
20
29.085801
11
20.3488807
21
28.9998614
0
ARC
8
DEFAULT_255_1_234
10
20.2717937
20
28.9959015
40
0.8642064
50
350.487711
51
0.2625388
0
ARC
8
DEFAULT_255_1_234
10
20.5011178
20
28.9564578
40
0.631518
50
336.0277639
51
350.5787438
0
ARC
8
DEFAULT_255_1_234
10
20.6356002
20
28.8956892
40
0.4839466
50
319.8877444
51
336.1328423
0
ARC
8
DEFAULT_255_1_234
10
20.6958643
20
28.847458
40
0.4067874
50
302.4806467
51
319.6143626
0
ARC
8
DEFAULT_255_1_234
10
20.6843653
20
28.8696202
40
0.4316636
50
275.8195682
51
302.1884709
0
ARC
8
DEFAULT_255_1_234
10
20.6677286
20
28.9838665
40
0.5470306
50
269.9171439
51
276.3397983
0
ARC
8
DEFAULT_255_1_234
10
20.6632496
20
28.9152681
40
0.4784458
50
252.5219675
51
270.4416499
0
ARC
8
DEFAULT_255_1_234
10
20.6488755
20
28.8613592
40
0.422716
50
237.5352116
51
252.1857531
0
ARC
8
DEFAULT_255_1_234
10
20.6577951
20
28.8727363
40
0.4371052
50
209.063312
51
237.3492538
0
ARC
8
DEFAULT_255_1_234
10
20.7447799
20
28.9273685
40
0.5397041
50
205.1183774
51
209.6470015
0
ARC
8
DEFAULT_255_1_234
10
20.8244836
20
28.961183
40
0.6262326
50
188.7215458
51
204.8240747
0
ARC
8
DEFAULT_255_1_234
10
21.0242364
20
28.9948067
40
0.8287794
50
180.3723947
51
188.9252049
0
ARC
8
DEFAULT_255_1_234
10
21.0215116
20
29.0777402
40
0.8260467
50
169.5253763
51
180.2765336
0
ARC
8
DEFAULT_255_1_234
10
20.8312564
20
29.1127309
40
0.6326007
50
155.8315255
51
169.5089989
0
ARC
8
DEFAULT_255_1_234
10
20.7032066
20
29.1721348
40
0.4914567
50
139.6258461
51
156.0379525
0
ARC
8
DEFAULT_255_1_234
10
20.6442399
20
29.2195799
40
0.4158054
50
122.6416387
51
139.3430715
0
ARC
8
DEFAULT_255_1_234
10
20.6543019
20
29.2012451
40
0.4366739
50
93.0223692
51
122.455762
0
ARC
8
DEFAULT_255_1_234
10
20.6651016
20
29.1047709
40
0.5336137
50
89.975342
51
93.6341897
0
ARC
8
DEFAULT_255_1_234
10
20.6689795
20
29.1446242
40
0.4937738
50
73.746375
51
90.4233405
0
ARC
8
DEFAULT_255_1_234
10
20.6865373
20
29.2126287
40
0.4235786
50
57.662753
51
73.4518111
0
ARC
8
DEFAULT_255_1_234
10
20.685738
20
29.2147832
40
0.4221899
50
29.1440151
51
57.414694
0
ARC
8
DEFAULT_255_1_234
10
20.5922574
20
29.1564005
40
0.5322966
50
24.0982783
51
29.7323517
0
ARC
8
DEFAULT_255_1_234
10
20.488885
20
29.1135399
40
0.6441673
50
8.6655297
51
23.8241346
0
ARC
8
DEFAULT_255_1_234
10
20.2654588
20
29.0770854
40
0.8705386
50
359.7806941
51
8.8218784
0
ARC
8
DEFAULT_255_1_234
10
20.1507586
20
29.0796345
40
0.8318373
50
359.7055579
51
8.036044
0
ARC
8
DEFAULT_255_1_234
10
20.4507592
20
29.1233239
40
0.5286768
50
7.8928306
51
20.2962107
0
ARC
8
DEFAULT_255_1_234
10
20.6135162
20
29.1833395
40
0.3552073
50
20.3231126
51
36.4992797
0
ARC
8
DEFAULT_255_1_234
10
20.6820708
20
29.2361402
40
0.2686974
50
36.1437156
51
85.6627023
0
ARC
8
DEFAULT_255_1_234
10
20.6658254
20
29.1321221
40
0.373739
50
84.3852322
51
90.0757696
0
ARC
8
DEFAULT_255_1_234
10
20.6615927
20
29.1981839
40
0.3076997
50
89.3038458
51
109.9045693
0
ARC
8
DEFAULT_255_1_234
10
20.6523318
20
29.2364062
40
0.2686424
50
110.8228367
51
143.9179474
0
ARC
8
DEFAULT_255_1_234
10
20.7456978
20
29.1651236
40
0.3860887
50
143.5289163
51
163.2980757
0
ARC
8
DEFAULT_255_1_234
10
20.9364799
20
29.1051433
40
0.5860659
50
163.0418846
51
174.3140048
0
ARC
8
DEFAULT_255_1_234
10
21.1768911
20
29.0773854
40
0.8280531
50
174.0509143
51
179.4176892
0
ARC
8
DEFAULT_255_1_234
10
21.126465
20
28.9956954
40
0.7775954
50
179.6930361
51
188.7906598
0
ARC
8
DEFAULT_255_1_234
10
20.8601129
20
28.9530935
40
0.5078633
50
188.6331305
51
202.5629587
0
ARC
8
DEFAULT_255_1_234
10
20.7346721
20
28.9026996
40
0.3726913
50
202.8081362
51
216.1193925
0
ARC
8
DEFAULT_255_1_234
10
20.6537291
20
28.8375676
40
0.2689577
50
215.0755913
51
264.6379694
0
ARC
8
DEFAULT_255_1_234
10
20.666424
20
28.9206513
40
0.3528978
50
263.846392
51
270.0833719
0
ARC
8
DEFAULT_255_1_234
10
20.6705631
20
28.8948374
40
0.3271036
50
269.3649385
51
287.5152008
0
ARC
8
DEFAULT_255_1_234
10
20.6883788
20
28.8301238
40
0.2600406
50
288.0630309
51
323.8113348
0
ARC
8
DEFAULT_255_1_234
10
20.601263
20
28.8951049
40
0.3687189
50
323.6547608
51
342.6590488
0
ARC
8
DEFAULT_255_1_234
10
20.3981245
20
28.9611952
40
0.5823286
50
342.4091907
51
353.6451149
0
ARC
8
DEFAULT_255_1_234
10
20.1149756
20
28.996419
40
0.8676442
50
353.4029884
51
359.4847795
0
LINE
8
DEFAULT_255_1_234
10
22.0355458
20
29.6223211
11
22.1905583
21
29.6223211
0
LINE
8
DEFAULT_255_1_234
10
22.1905583
20
29.6223211
11
22.1905583
21
28.827179
0
LINE
8
DEFAULT_255_1_234
10
21.8066412
20
28.4384429
11
21.7656793
21
28.4368365
0
LINE
8
DEFAULT_255_1_234
10
21.3440131
20
28.8255727
11
21.3440131
21
29.6223211
0
LINE
8
DEFAULT_255_1_234
10
21.3440131
20
29.6223211
11
21.4966161
21
29.6223211
0
LINE
8
DEFAULT_255_1_234
10
21.4966161
20
29.6223211
11
21.4966161
21
28.8303917
0
LINE
8
DEFAULT_255_1_234
10
22.0355458
20
28.8295885
11
22.0355458
21
29.6223211
0
ARC
8
DEFAULT_255_1_234
10
21.7552481
20
28.8251928
40
0.4353147
50
343.0898354
51
0.2614217
0
ARC
8
DEFAULT_255_1_234
10
21.8380883
20
28.8020837
40
0.3493402
50
315.3345598
51
342.7641223
0
ARC
8
DEFAULT_255_1_234
10
21.8157332
20
28.8252682
40
0.3815385
50
284.6606969
51
315.2182466
0
ARC
8
DEFAULT_255_1_234
10
21.7702044
20
28.9798755
40
0.5426573
50
273.8500273
51
285.1797701
0
ARC
8
DEFAULT_255_1_234
10
21.7614095
20
29.0140475
40
0.5772268
50
257.6317484
51
270.4238298
0
ARC
8
DEFAULT_255_1_234
10
21.7189293
20
28.8319198
40
0.3902347
50
230.6087562
51
257.9964012
0
ARC
8
DEFAULT_255_1_234
10
21.7057295
20
28.8112802
40
0.3659186
50
227.7440991
51
230.1551448
0
ARC
8
DEFAULT_255_1_234
10
21.6923127
20
28.7951471
40
0.3449568
50
189.2524587
51
227.5916061
0
ARC
8
DEFAULT_255_1_234
10
21.8444813
20
28.8279013
40
0.5004737
50
180.2665968
51
190.1525252
0
ARC
8
DEFAULT_255_1_234
10
21.8666833
20
28.8275918
40
0.3700778
50
179.5665184
51
191.9952995
0
ARC
8
DEFAULT_255_1_234
10
21.7438939
20
28.8002043
40
0.2442808
50
191.6974072
51
215.1404042
0
ARC
8
DEFAULT_255_1_234
10
21.7200854
20
28.7860108
40
0.2166522
50
215.6950207
51
224.8513522
0
ARC
8
DEFAULT_255_1_234
10
21.7256598
20
28.7939697
40
0.2262237
50
225.2846858
51
255.0111758
0
ARC
8
DEFAULT_255_1_234
10
21.7580558
20
28.9053455
40
0.3421979
50
254.5944985
51
267.9129803
0
ARC
8
DEFAULT_255_1_234
10
21.7655038
20
29.0137903
40
0.4508556
50
267.4689655
51
270.0223026
0
ARC
8
DEFAULT_255_1_234
10
21.7685184
20
28.9548849
40
0.3919604
50
269.5849941
51
281.1843768
0
ARC
8
DEFAULT_255_1_234
10
21.7963948
20
28.8196059
40
0.2538457
50
280.9344262
51
300.9743589
0
ARC
8
DEFAULT_255_1_234
10
21.8176554
20
28.7804688
40
0.2093566
50
301.4980046
51
315.1466847
0
ARC
8
DEFAULT_255_1_234
10
21.8032092
20
28.7923236
40
0.2279656
50
315.5952539
51
345.6678731
0
ARC
8
DEFAULT_255_1_234
10
21.6912609
20
28.8235009
40
0.3441564
50
345.2524969
51
358.6304371
0
ARC
8
DEFAULT_255_1_234
10
21.5894963
20
28.8294916
40
0.4460494
50
358.1735671
51
0.0124524
0
LINE
8
DEFAULT_255_1_234
10
23.2419128
20
29.6223211
11
23.2419128
21
29.4954196
0
LINE
8
DEFAULT_255_1_234
10
23.2419128
20
29.4954196
11
22.8660275
21
29.4954196
0
LINE
8
DEFAULT_255_1_234
10
22.8660275
20
29.4954196
11
22.8660275
21
28.4529
0
LINE
8
DEFAULT_255_1_234
10
22.8660275
20
28.4529
11
22.7126213
21
28.4529
0
LINE
8
DEFAULT_255_1_234
10
22.7126213
20
28.4529
11
22.7126213
21
29.4954196
0
LINE
8
DEFAULT_255_1_234
10
22.7126213
20
29.4954196
11
22.3375391
21
29.4954196
0
LINE
8
DEFAULT_255_1_234
10
22.3375391
20
29.4954196
11
22.3375391
21
29.6223211
0
LINE
8
DEFAULT_255_1_234
10
22.3375391
20
29.6223211
11
23.2419128
21
29.6223211
0
LINE
8
DEFAULT_255_1_234
10
23.8177885
20
29.4215276
11
23.8177885
21
29.0801788
0
LINE
8
DEFAULT_255_1_234
10
23.8177885
20
29.0801788
11
24.1438771
21
29.0801788
0
LINE
8
DEFAULT_255_1_234
10
24.1438771
20
29.0801788
11
24.1438771
21
28.9396233
0
LINE
8
DEFAULT_255_1_234
10
24.1438771
20
28.9396233
11
23.8177885
21
28.9396233
0
LINE
8
DEFAULT_255_1_234
10
23.8177885
20
28.9396233
11
23.8177885
21
28.5701634
0
LINE
8
DEFAULT_255_1_234
10
23.8177885
20
28.5701634
11
23.6683981
21
28.5701634
0
LINE
8
DEFAULT_255_1_234
10
23.6683981
20
28.5701634
11
23.6683981
21
28.9396233
0
LINE
8
DEFAULT_255_1_234
10
23.6683981
20
28.9396233
11
23.3423096
21
28.9396233
0
LINE
8
DEFAULT_255_1_234
10
23.3423096
20
28.9396233
11
23.3423096
21
29.0801788
0
LINE
8
DEFAULT_255_1_234
10
23.3423096
20
29.0801788
11
23.6683981
21
29.0801788
0
LINE
8
DEFAULT_255_1_234
10
23.6683981
20
29.0801788
11
23.6683981
21
29.4215276
0
LINE
8
DEFAULT_255_1_234
10
23.6683981
20
29.4215276
11
23.8177885
21
29.4215276
0
LINE
8
DEFAULT_255_1_234
10
21.7852911
20
21.1362534
11
21.7852911
21
21.0623614
0
LINE
8
DEFAULT_255_1_234
10
20.8447745
20
21.0519201
11
20.8447745
21
21.1362534
0
LINE
8
DEFAULT_255_1_234
10
21.6318849
20
21.0511169
11
21.6318849
21
21.1378597
0
LINE
8
DEFAULT_255_1_234
10
20.9981807
20
21.148301
11
20.9981807
21
21.0623614
0
ARC
8
DEFAULT_255_1_234
10
20.9210937
20
21.0584015
40
0.8642064
50
350.487711
51
0.2625388
0
ARC
8
DEFAULT_255_1_234
10
21.1504178
20
21.0189578
40
0.631518
50
336.0277639
51
350.5787438
0
ARC
8
DEFAULT_255_1_234
10
21.2849002
20
20.9581892
40
0.4839466
50
319.8877444
51
336.1328423
0
ARC
8
DEFAULT_255_1_234
10
21.3451643
20
20.909958
40
0.4067874
50
302.4806467
51
319.6143626
0
ARC
8
DEFAULT_255_1_234
10
21.3336653
20
20.9321202
40
0.4316636
50
275.8195682
51
302.1884709
0
ARC
8
DEFAULT_255_1_234
10
21.3170286
20
21.0463665
40
0.5470306
50
269.9171439
51
276.3397983
0
ARC
8
DEFAULT_255_1_234
10
21.3125496
20
20.9777681
40
0.4784458
50
252.5219675
51
270.4416499
0
ARC
8
DEFAULT_255_1_234
10
21.2981755
20
20.9238592
40
0.422716
50
237.5352116
51
252.1857531
0
ARC
8
DEFAULT_255_1_234
10
21.3070951
20
20.9352363
40
0.4371052
50
209.063312
51
237.3492538
0
ARC
8
DEFAULT_255_1_234
10
21.3940799
20
20.9898685
40
0.5397041
50
205.1183774
51
209.6470015
0
ARC
8
DEFAULT_255_1_234
10
21.4737836
20
21.023683
40
0.6262326
50
188.7215458
51
204.8240747
0
ARC
8
DEFAULT_255_1_234
10
21.6735364
20
21.0573067
40
0.8287794
50
180.3723947
51
188.9252049
0
ARC
8
DEFAULT_255_1_234
10
21.6708116
20
21.1402402
40
0.8260467
50
169.5253763
51
180.2765336
0
ARC
8
DEFAULT_255_1_234
10
21.4805564
20
21.1752309
40
0.6326007
50
155.8315255
51
169.5089989
0
ARC
8
DEFAULT_255_1_234
10
21.3525066
20
21.2346348
40
0.4914567
50
139.6258461
51
156.0379525
0
ARC
8
DEFAULT_255_1_234
10
21.2935399
20
21.2820799
40
0.4158054
50
122.6416387
51
139.3430715
0
ARC
8
DEFAULT_255_1_234
10
21.3036019
20
21.2637451
40
0.4366739
50
93.0223692
51
122.455762
0
ARC
8
DEFAULT_255_1_234
10
21.3144016
20
21.1672709
40
0.5336137
50
89.975342
51
93.6341897
0
ARC
8
DEFAULT_255_1_234
10
21.3182795
20
21.2071242
40
0.4937738
50
73.746375
51
90.4233405
0
ARC
8
DEFAULT_255_1_234
10
21.3358373
20
21.2751287
40
0.4235786
50
57.662753
51
73.4518111
0
ARC
8
DEFAULT_255_1_234
10
21.335038
20
21.2772832
40
0.4221899
50
29.1440151
51
57.414694
0
ARC
8
DEFAULT_255_1_234
10
21.2415574
20
21.2189005
40
0.5322966
50
24.0982783
51
29.7323517
0
ARC
8
DEFAULT_255_1_234
10
21.138185
20
21.1760399
40
0.6441673
50
8.6655297
51
23.8241346
0
ARC
8
DEFAULT_255_1_234
10
20.9147588
20
21.1395854
40
0.8705386
50
359.7806941
51
8.8218784
0
ARC
8
DEFAULT_255_1_234
10
20.8000586
20
21.1421345
40
0.8318373
50
359.7055579
51
8.036044
0
ARC
8
DEFAULT_255_1_234
10
21.1000592
20
21.1858239
40
0.5286768
50
7.8928306
51
20.2962107
0
ARC
8
DEFAULT_255_1_234
10
21.2628162
20
21.2458395
40
0.3552073
50
20.3231126
51
36.4992797
0
ARC
8
DEFAULT_255_1_234
10
21.3313708
20
21.2986402
40
0.2686974
50
36.1437156
51
85.6627023
0
ARC
8
DEFAULT_255_1_234
10
21.3151254
20
21.1946221
40
0.373739
50
84.3852322
51
90.0757696
0
ARC
8
DEFAULT_255_1_234
10
21.3108927
20
21.2606839
40
0.3076997
50
89.3038458
51
109.9045693
0
ARC
8
DEFAULT_255_1_234
10
21.3016318
20
21.2989062
40
0.2686424
50
110.8228367
51
143.9179474
0
ARC
8
DEFAULT_255_1_234
10
21.3949978
20
21.2276236
40
0.3860887
50
143.5289163
51
163.2980757
0
ARC
8
DEFAULT_255_1_234
10
21.5857799
20
21.1676433
40
0.5860659
50
163.0418846
51
174.3140048
0
ARC
8
DEFAULT_255_1_234
10
21.8261911
20
21.1398854
40
0.8280531
50
174.0509143
51
179.4176892
0
ARC
8
DEFAULT_255_1_234
10
21.775765
20
21.0581954
40
0.7775954
50
179.6930361
51
188.7906598
0
ARC
8
DEFAULT_255_1_234
10
21.5094129
20
21.0155935
40
0.5078633
50
188.6331305
51
202.5629587
0
ARC
8
DEFAULT_255_1_234
10
21.3839721
20
20.9651996
40
0.3726913
50
202.8081362
51
216.1193925
0
ARC
8
DEFAULT_255_1_234
10
21.3030291
20
20.9000676
40
0.2689577
50
215.0755913
51
264.6379694
0
ARC
8
DEFAULT_255_1_234
10
21.315724
20
20.9831513
40
0.3528978
50
263.846392
51
270.0833719
0
ARC
8
DEFAULT_255_1_234
10
21.3198631
20
20.9573374
40
0.3271036
50
269.3649385
51
287.5152008
0
ARC
8
DEFAULT_255_1_234
10
21.3376788
20
20.8926238
40
0.2600406
50
288.0630309
51
323.8113348
0
ARC
8
DEFAULT_255_1_234
10
21.250563
20
20.9576049
40
0.3687189
50
323.6547608
51
342.6590488
0
ARC
8
DEFAULT_255_1_234
10
21.0474245
20
21.0236952
40
0.5823286
50
342.4091907
51
353.6451149
0
ARC
8
DEFAULT_255_1_234
10
20.7642756
20
21.058919
40
0.8676442
50
353.4029884
51
359.4847795
0
LINE
8
DEFAULT_255_1_234
10
22.6848458
20
21.6848211
11
22.8398583
21
21.6848211
0
LINE
8
DEFAULT_255_1_234
10
22.8398583
20
21.6848211
11
22.8398583
21
20.889679
0
LINE
8
DEFAULT_255_1_234
10
22.4559412
20
20.5009429
11
22.4149793
21
20.4993365
0
LINE
8
DEFAULT_255_1_234
10
21.9933131
20
20.8880727
11
21.9933131
21
21.6848211
0
LINE
8
DEFAULT_255_1_234
10
21.9933131
20
21.6848211
11
22.1459161
21
21.6848211
0
LINE
8
DEFAULT_255_1_234
10
22.1459161
20
21.6848211
11
22.1459161
21
20.8928917
0
LINE
8
DEFAULT_255_1_234
10
22.6848458
20
20.8920885
11
22.6848458
21
21.6848211
0
ARC
8
DEFAULT_255_1_234
10
22.4045481
20
20.8876928
40
0.4353147
50
343.0898354
51
0.2614217
0
ARC
8
DEFAULT_255_1_234
10
22.4873883
20
20.8645837
40
0.3493402
50
315.3345598
51
342.7641223
0
ARC
8
DEFAULT_255_1_234
10
22.4650332
20
20.8877682
40
0.3815385
50
284.6606969
51
315.2182466
0
ARC
8
DEFAULT_255_1_234
10
22.4195044
20
21.0423755
40
0.5426573
50
273.8500273
51
285.1797701
0
ARC
8
DEFAULT_255_1_234
10
22.4107095
20
21.0765475
40
0.5772268
50
257.6317484
51
270.4238298
0
ARC
8
DEFAULT_255_1_234
10
22.3682293
20
20.8944198
40
0.3902347
50
230.6087562
51
257.9964012
0
ARC
8
DEFAULT_255_1_234
10
22.3550295
20
20.8737802
40
0.3659186
50
227.7440991
51
230.1551448
0
ARC
8
DEFAULT_255_1_234
10
22.3416127
20
20.8576471
40
0.3449568
50
189.2524587
51
227.5916061
0
ARC
8
DEFAULT_255_1_234
10
22.4937813
20
20.8904013
40
0.5004737
50
180.2665968
51
190.1525252
0
ARC
8
DEFAULT_255_1_234
10
22.5159833
20
20.8900918
40
0.3700778
50
179.5665184
51
191.9952995
0
ARC
8
DEFAULT_255_1_234
10
22.3931939
20
20.8627043
40
0.2442808
50
191.6974072
51
215.1404042
0
ARC
8
DEFAULT_255_1_234
10
22.3693854
20
20.8485108
40
0.2166522
50
215.6950207
51
224.8513522
0
ARC
8
DEFAULT_255_1_234
10
22.3749598
20
20.8564697
40
0.2262237
50
225.2846858
51
255.0111758
0
ARC
8
DEFAULT_255_1_234
10
22.4073558
20
20.9678455
40
0.3421979
50
254.5944985
51
267.9129803
0
ARC
8
DEFAULT_255_1_234
10
22.4148038
20
21.0762903
40
0.4508556
50
267.4689655
51
270.0223026
0
ARC
8
DEFAULT_255_1_234
10
22.4178184
20
21.0173849
40
0.3919604
50
269.5849941
51
281.1843768
0
ARC
8
DEFAULT_255_1_234
10
22.4456948
20
20.8821059
40
0.2538457
50
280.9344262
51
300.9743589
0
ARC
8
DEFAULT_255_1_234
10
22.4669554
20
20.8429688
40
0.2093566
50
301.4980046
51
315.1466847
0
ARC
8
DEFAULT_255_1_234
10
22.4525092
20
20.8548236
40
0.2279656
50
315.5952539
51
345.6678731
0
ARC
8
DEFAULT_255_1_234
10
22.3405609
20
20.8860009
40
0.3441564
50
345.2524969
51
358.6304371
0
ARC
8
DEFAULT_255_1_234
10
22.2387963
20
20.8919916
40
0.4460494
50
358.1735671
51
0.0124524
0
LINE
8
DEFAULT_255_1_234
10
23.8912128
20
21.6848211
11
23.8912128
21
21.5579196
0
LINE
8
DEFAULT_255_1_234
10
23.8912128
20
21.5579196
11
23.5153275
21
21.5579196
0
LINE
8
DEFAULT_255_1_234
10
23.5153275
20
21.5579196
11
23.5153275
21
20.5154
0
LINE
8
DEFAULT_255_1_234
10
23.5153275
20
20.5154
11
23.3619213
21
20.5154
0
LINE
8
DEFAULT_255_1_234
10
23.3619213
20
20.5154
11
23.3619213
21
21.5579196
0
LINE
8
DEFAULT_255_1_234
10
23.3619213
20
21.5579196
11
22.9868391
21
21.5579196
0
LINE
8
DEFAULT_255_1_234
10
22.9868391
20
21.5579196
11
22.9868391
21
21.6848211
0
LINE
8
DEFAULT_255_1_234
10
22.9868391
20
21.6848211
11
23.8912128
21
21.6848211
0
LINE
8
DEFAULT_255_1_234
10
24.1642919
20
21.0728026
11
24.1642919
21
20.9515234
0
LINE
8
DEFAULT_255_1_234
10
24.1642919
20
20.9515234
11
23.7723431
21
20.9515234
0
LINE
8
DEFAULT_255_1_234
10
23.7723431
20
20.9515234
11
23.7723431
21
21.0728026
0
LINE
8
DEFAULT_255_1_234
10
23.7723431
20
21.0728026
11
24.1642919
21
21.0728026
0
ENDSEC
0
EOF